  0
SECTION
  2
HEADER
  0
ENDSEC
  0
SECTION
  2
TABLES
  0
TABLE
  2
LTYPE
 70
    22
  0
LTYPE
  2
CONTINUOUS
 70
    64
  3
Solid line
 72
    65
 73
     0
 40
0.000000
  0
LTYPE
  2
DASHED
 70
    64
  3
__ __ __ __ __ __ __ __ __ __ __ __ __ __ __
 72
    65
 73
     2
 40
3.500000
 49
2.000000
 49
-1.500000
  0
LTYPE
  2
CENTER
 70
    64
  3
____ _ ____ _ ____ _ ____ _ ____ _ ____ _ ____
 72
    65
 73
     4
 40
17.500000
 49
13.000000
 49
-1.500000
 49
1.500000
 49
-1.500000
  0
LTYPE
  2
PHANTOM
 70
    64
  3
_____ _ _ _____ _ _ _____ _ _ _____ _ _ ____  
 72
    65
 73
     6
 40
15.500000
 49
8.000000
 49
-1.500000
 49
1.500000
 49
-1.500000
 49
1.500000
 49
-1.500000
  0
LTYPE
  2
DOT
 70
    64
  3
. . . . . . . . . . . . . . . . . . . . . . . .
 72
    65
 73
     2
 40
0.25
 49
0.0
 49
-0.25
  0
ENDTAB
  0
TABLE
  2
LAYER
 70
     1
  0
LAYER
  2
0
 70
     0
 62
     7
  6
CONTINUOUS
  0
ENDTAB
  0
TABLE
  2
STYLE
 70
     1
  0
STYLE
  2
STANDARD
 70
     0
 40
0.000000
 41
1.000000
 50
0.000000
 71
     0
 42
0.200000
  3
txt
  0
ENDTAB
  0
TABLE
  2
VIEW
 70
     0
  0
ENDTAB
  0
ENDSEC
  0
SECTION
  2
BLOCKS
  0
ENDSEC
  0
SECTION
  2
ENTITIES
  0
LINE
  8
0
  6
CONTINUOUS
 62
     7
 10
157.3516235351563
 20
23.5
 11
157.3516235351563
 21
3
  0
LINE
  8
0
  6
CONTINUOUS
 62
     7
 10
109.3516235351563
 20
3
 11
157.3516235351563
 21
3
  0
LINE
  8
0
  6
CONTINUOUS
 62
     7
 10
109.9016265869141
 20
24
 11
156.8016204833984
 21
24
  0
LINE
  8
0
  6
CONTINUOUS
 62
     7
 10
213.3516235351563
 20
11.45020294189453
 11
165.5516204833984
 21
11.45020294189453
  0
LINE
  8
0
  6
CONTINUOUS
 62
     7
 10
213.3516235351563
 20
13
 11
165.5516204833984
 21
13
  0
LINE
  8
0
  6
CONTINUOUS
 62
     7
 10
213.3516235351563
 20
9.650238037109375
 11
165.5516204833984
 21
9.650238037109375
  0
LINE
  8
0
  6
CONTINUOUS
 62
     7
 10
213.3516235351563
 20
7.920692443847656
 11
165.5516204833984
 21
7.920692443847656
  0
LINE
  8
0
  6
CONTINUOUS
 62
     7
 10
213.3516235351563
 20
4.719985961914063
 11
165.5516204833984
 21
4.719985961914063
  0
LINE
  8
0
  6
CONTINUOUS
 62
     7
 10
213.3516235351563
 20
13
 11
213.3516235351563
 21
0
  0
LINE
  8
0
  6
CONTINUOUS
 62
     7
 10
109.3516235351563
 20
23.5
 11
109.3516235351563
 21
3
  0
LINE
  8
0
  6
CONTINUOUS
 62
     7
 10
109.3516235351563
 20
3
 11
101.1516265869141
 21
3
  0
LINE
  8
0
  6
CONTINUOUS
 62
     7
 10
109.3516235351563
 20
23.5
 11
101.1516265869141
 21
23.5
  0
LINE
  8
0
  6
CONTINUOUS
 62
     7
 10
157.3516235351563
 20
23.5
 11
165.5516204833984
 21
23.5
  0
LINE
  8
0
  6
CONTINUOUS
 62
     7
 10
100.7516174316406
 20
22.25
 11
100.7516174316406
 21
14.75
  0
LINE
  8
0
  6
CENTER
 62
     7
 10
95.8177490234375
 20
18.5
 11
103.8528900146484
 21
18.5
  0
LINE
  8
0
  6
CONTINUOUS
 62
     7
 10
99.75161743164063
 20
21.5
 11
100.7516174316406
 21
21.5
  0
LINE
  8
0
  6
CONTINUOUS
 62
     7
 10
99.75161743164063
 20
15.5
 11
100.7516174316406
 21
15.5
  0
LINE
  8
0
  6
CONTINUOUS
 62
     7
 10
100.7516174316406
 20
14.75
 11
101.1516265869141
 21
14.75
  0
LINE
  8
0
  6
CONTINUOUS
 62
     7
 10
100.7516174316406
 20
22.25
 11
101.1516265869141
 21
22.25
  0
LINE
  8
0
  6
CENTER
 62
     7
 10
73.35162353515625
 20
14.02349853515625
 11
73.35162353515625
 21
-1.032180786132813
  0
LINE
  8
0
  6
DASHED
 62
     7
 10
71.10162353515625
 20
7.700004577636719
 11
71.10162353515625
 21
0
  0
LINE
  8
0
  6
DASHED
 62
     7
 10
75.60162353515625
 20
7.700004577636719
 11
75.60162353515625
 21
0
  0
LINE
  8
0
  6
DASHED
 62
     7
 10
69.60162353515625
 20
7.700004577636719
 11
77.10162353515625
 21
7.700004577636719
  0
LINE
  8
0
  6
DASHED
 62
     7
 10
69.60162353515625
 20
13
 11
69.60162353515625
 21
7.700004577636719
  0
LINE
  8
0
  6
DASHED
 62
     7
 10
77.10162353515625
 20
13
 11
77.10162353515625
 21
7.700004577636719
  0
LINE
  8
0
  6
CONTINUOUS
 62
     7
 10
53.35162734985352
 20
2.699996948242188
 11
213.3516235351563
 21
2.699996948242188
  0
LINE
  8
0
  6
CONTINUOUS
 62
     7
 10
53.35162734985352
 20
0
 11
213.3516235351563
 21
0
  0
LINE
  8
0
  6
DASHED
 62
     7
 10
3.75
 20
13
 11
3.75
 21
7.700003623962402
  0
LINE
  8
0
  6
DASHED
 62
     7
 10
2.25
 20
7.700003623962402
 11
2.25
 21
0.1000076606869698
  0
LINE
  8
0
  6
DASHED
 62
     7
 10
3.75
 20
7.700003623962402
 11
-3.75
 21
7.700003623962402
  0
LINE
  8
0
  6
CONTINUOUS
 62
     7
 10
-7.412129402160645
 20
2.787869691848755
 11
-5.587020397186279
 21
4.612978935241699
  0
LINE
  8
0
  6
CONTINUOUS
 62
     7
 10
-5.587862491607666
 20
8.00856876373291
 11
-5.717178821563721
 21
8.137885093688965
  0
LINE
  8
0
  6
CONTINUOUS
 62
     7
 10
-5.5
 20
7.79809045791626
 11
-5.5
 21
4.822610378265381
  0
LINE
  8
0
  6
DASHED
 62
     7
 10
-3.75
 20
13.00000381469727
 11
-3.75
 21
7.700003623962402
  0
LINE
  8
0
  6
DASHED
 62
     7
 10
-2.25
 20
7.700003623962402
 11
-2.25
 21
0.1000089421868324
  0
LINE
  8
0
  6
CONTINUOUS
 62
     7
 10
-5.599995136260986
 20
13.00000381469727
 11
0
 21
13.00000381469727
  0
LINE
  8
0
  6
CONTINUOUS
 62
     7
 10
-7.5
 20
10.78714275360107
 11
-7.5
 21
10.31328964233398
  0
LINE
  8
0
  6
CONTINUOUS
 62
     7
 10
-7.5
 20
2.575736999511719
 11
-7.5
 21
0.7142283320426941
  0
LINE
  8
0
  6
CONTINUOUS
 62
     7
 10
-7.407104969024658
 20
0.6071159243583679
 11
-6.892014503479004
 21
0.09202549606561661
  0
LINE
  8
0
  6
CONTINUOUS
 62
     7
 10
0
 20
0.2999992370605469
 11
-1.842903137207031
 21
0.2999992370605469
  0
LINE
  8
0
  6
CONTINUOUS
 62
     7
 10
-7.5
 20
10.78714179992676
 11
-7.264542579650879
 21
11.29208278656006
  0
LINE
  8
0
  6
CONTINUOUS
 62
     7
 10
2.364227294921875
 20
0
 11
6.785776615142822
 21
0
  0
LINE
  8
0
  6
CONTINUOUS
 62
     7
 10
7.405935287475586
 20
0.6059510111808777
 11
6.890857219696045
 21
0.09087269753217697
  0
LINE
  8
0
  6
CONTINUOUS
 62
     7
 10
7.5
 20
2.577391147613525
 11
7.5
 21
0.7142283320426941
  0
LINE
  8
0
  6
CONTINUOUS
 62
     7
 10
5.599998474121094
 20
13.00000381469727
 11
0
 21
13.00000381469727
  0
LINE
  8
0
  6
CONTINUOUS
 62
     7
 10
5.5
 20
7.796440124511719
 11
5.5
 21
4.824264526367188
  0
LINE
  8
0
  6
CONTINUOUS
 62
     7
 10
-2.364227294921875
 20
0
 11
-4.099998474121094
 21
0
  0
LINE
  8
0
  6
CONTINUOUS
 62
     7
 10
7.411436080932617
 20
2.788567066192627
 11
5.587871074676514
 21
4.612132549285889
  0
LINE
  8
0
  6
CONTINUOUS
 62
     7
 10
7.5
 20
10.31328964233398
 11
7.5
 21
10.7871150970459
  0
LINE
  8
0
  6
CENTER
 62
     7
 10
0
 20
24.7196044921875
 11
0
 21
-1.246677398681641
  0
LINE
  8
0
  6
CONTINUOUS
 62
     7
 10
0
 20
0.2999992370605469
 11
1.842903137207031
 21
0.2999992370605469
  0
LINE
  8
0
  6
CONTINUOUS
 62
     7
 10
-2.257116079330444
 20
0.0928928330540657
 11
-2.196459770202637
 21
0.1535492241382599
  0
LINE
  8
0
  6
CONTINUOUS
 62
     7
 10
-4.900001525878906
 20
0
 11
-6.785776615142822
 21
0
  0
LINE
  8
0
  6
CONTINUOUS
 62
     7
 10
2.257117509841919
 20
0.09289013594388962
 11
2.196458339691162
 21
0.1535492241382599
  0
LINE
  8
0
  6
CONTINUOUS
 62
     7
 10
12.99290466308594
 20
23.70000076293945
 11
5.007110595703125
 21
23.70000076293945
  0
LINE
  8
0
  6
CONTINUOUS
 62
     7
 10
13.49999523162842
 20
24
 11
13.34643745422363
 21
23.8464412689209
  0
LINE
  8
0
  6
CONTINUOUS
 62
     7
 10
22.5000057220459
 20
24
 11
23.45355796813965
 21
23.04644966125488
  0
LINE
  8
0
  6
CONTINUOUS
 62
     7
 10
22.49998474121094
 20
24
 11
13.49998474121094
 21
24
  0
LINE
  8
0
  6
CONTINUOUS
 62
     7
 10
4.653553009033203
 20
23.84644317626953
 11
4.499995231628418
 21
24
  0
LINE
  8
0
  6
CONTINUOUS
 62
     7
 10
4.499995708465576
 20
24
 11
0
 21
24
  0
LINE
  8
0
  6
CONTINUOUS
 62
     7
 10
15.19999694824219
 20
3
 11
16.13850402832031
 21
3
  0
LINE
  8
0
  6
CENTER
 62
     7
 10
19
 20
24.96478271484375
 11
19
 21
11.47163772583008
  0
LINE
  8
0
  6
CONTINUOUS
 62
     7
 10
19.61475944519043
 20
14.6840410232544
 11
17.22060012817383
 21
8.106139183044434
  0
LINE
  8
0
  6
CONTINUOUS
 62
     7
 10
23.45354461669922
 20
17.94644927978516
 11
23.34643173217773
 21
17.83933448791504
  0
LINE
  8
0
  6
CONTINUOUS
 62
     7
 10
22.19998168945313
 20
16
 11
21.49415588378906
 21
16
  0
LINE
  8
0
  6
CONTINUOUS
 62
     7
 10
-4.653554916381836
 20
23.8464469909668
 11
-4.500000953674316
 21
24
  0
LINE
  8
0
  6
CONTINUOUS
 62
     7
 10
-13.50000286102295
 20
24
 11
-13.34442234039307
 21
23.84441947937012
  0
LINE
  8
0
  6
CONTINUOUS
 62
     7
 10
-4.500000953674316
 20
24
 11
0
 21
24
  0
LINE
  8
0
  6
CONTINUOUS
 62
     7
 10
-12.99290466308594
 20
23.69999694824219
 11
-5.007110595703125
 21
23.69999694824219
  0
LINE
  8
0
  6
CONTINUOUS
 62
     7
 10
-22.49999618530273
 20
24
 11
-23.45458030700684
 21
23.0454158782959
  0
LINE
  8
0
  6
CONTINUOUS
 62
     7
 10
-22.49999618530273
 20
24
 11
-13.50000286102295
 21
24
  0
LINE
  8
0
  6
CONTINUOUS
 62
     7
 10
-15.19999694824219
 20
3
 11
-16.13850402832031
 21
3
  0
LINE
  8
0
  6
CENTER
 62
     7
 10
-19
 20
24.96478271484375
 11
-19
 21
11.68462371826172
  0
LINE
  8
0
  6
DASHED
 62
     7
 10
-21.49415588378906
 20
16
 11
-15
 21
16
  0
LINE
  8
0
  6
CONTINUOUS
 62
     7
 10
-19.61475372314453
 20
14.68404293060303
 11
-19.50338745117188
 21
14.37806510925293
  0
LINE
  8
0
  6
CONTINUOUS
 62
     7
 10
-22.19999694824219
 20
16
 11
-21.49415588378906
 21
16
  0
LINE
  8
0
  6
CONTINUOUS
 62
     7
 10
-23.45355224609375
 20
17.94643783569336
 11
-23.34644317626953
 21
17.83933067321777
  0
LINE
  8
0
  6
CONTINUOUS
 62
     7
 10
-19.05093765258789
 20
13.13496780395508
 11
-17.22061538696289
 21
8.106201171875
  0
LINE
  8
0
  6
CONTINUOUS
 62
     7
 10
-23.5
 20
22.99288940429688
 11
-23.5
 21
18
  0
LINE
  8
0
  6
CENTER
 62
     7
 10
3.253608703613281
 20
18.5
 11
-3.524894714355469
 21
18.5
  0
LINE
  8
0
  6
CONTINUOUS
 62
     7
 10
-15.20000743865967
 20
23.49999809265137
 11
-16.70000267028809
 21
22.00000190734863
  0
LINE
  8
0
  6
CONTINUOUS
 62
     7
 10
0
 20
23.5
 11
-15.19999694824219
 21
23.5
  0
LINE
  8
0
  6
CONTINUOUS
 62
     7
 10
-16.69999694824219
 20
22
 11
-16.69999694824219
 21
4.500002384185791
  0
LINE
  8
0
  6
CONTINUOUS
 62
     7
 10
7.499999046325684
 20
5.528430461883545
 11
10.02842712402344
 21
3.000002861022949
  0
LINE
  8
0
  6
CONTINUOUS
 62
     7
 10
6.560905456542969
 20
15
 11
1.346291184425354
 21
15
  0
LINE
  8
0
  6
CONTINUOUS
 62
     7
 10
9.34999942779541
 20
11.68158626556397
 11
6.560904026031494
 21
14.99999523162842
  0
LINE
  8
0
  6
CONTINUOUS
 62
     7
 10
9.349998474121094
 20
11.68159484863281
 11
9.349998474121094
 21
9.418853759765625
  0
LINE
  8
0
  6
CONTINUOUS
 62
     7
 10
5.587870121002197
 20
8.008572578430176
 11
5.716871738433838
 21
8.137574195861816
  0
LINE
  8
0
  6
CONTINUOUS
 62
     7
 10
7.264549255371094
 20
9.80836296081543
 11
7.5
 21
10.31328868865967
  0
LINE
  8
0
  6
CONTINUOUS
 62
     7
 10
7.265339374542236
 20
11.29034614562988
 11
7.5
 21
10.7871150970459
  0
LINE
  8
0
  6
CONTINUOUS
 62
     7
 10
7.5
 20
7.217769622802734
 11
7.5
 21
5.528427124023438
  0
LINE
  8
0
  6
CONTINUOUS
 62
     7
 10
9.349991798400879
 20
9.418857574462891
 11
7.499997615814209
 21
7.217771530151367
  0
LINE
  8
0
  6
CENTER
 62
     7
 10
9.449981689453125
 20
20
 11
12.94998168945313
 21
20
  0
LINE
  8
0
  6
CENTER
 62
     7
 10
11.19998168945313
 20
21.75
 11
11.19998168945313
 21
18.25
  0
LINE
  8
0
  6
CONTINUOUS
 62
     7
 10
15.20000457763672
 20
23.5
 11
16.70000076293945
 21
22.00000381469727
  0
LINE
  8
0
  6
CONTINUOUS
 62
     7
 10
0
 20
23.5
 11
15.19999694824219
 21
23.5
  0
LINE
  8
0
  6
CONTINUOUS
 62
     7
 10
16.69999694824219
 20
22
 11
16.69999694824219
 21
4.500003814697266
  0
LINE
  8
0
  6
CONTINUOUS
 62
     7
 10
109.3516235351563
 20
16
 11
157.3516235351563
 21
16
  0
LINE
  8
0
  6
CENTER
 62
     7
 10
148.3516235351563
 20
25.00718688964844
 11
148.3516235351563
 21
2.599998474121094
  0
LINE
  8
0
  6
CENTER
 62
     7
 10
118.3516235351563
 20
24.96478271484375
 11
118.3516235351563
 21
2.051338195800781
  0
LINE
  8
0
  6
CONTINUOUS
 62
     7
 10
121.8716201782227
 20
7.774795532226563
 11
144.8316345214844
 21
7.774795532226563
  0
LINE
  8
0
  6
CONTINUOUS
 62
     7
 10
109.3516235351563
 20
7.774795532226563
 11
114.8316268920898
 21
7.774795532226563
  0
LINE
  8
0
  6
CONTINUOUS
 62
     7
 10
151.8716278076172
 20
7.774795532226563
 11
157.3516235351563
 21
7.774795532226563
  0
LINE
  8
0
  6
CONTINUOUS
 62
     7
 10
-5.724828243255615
 20
12.87517070770264
 11
-5.599995136260986
 21
13.00000381469727
  0
LINE
  8
0
  6
CONTINUOUS
 62
     7
 10
5.600005626678467
 20
12.99999713897705
 11
5.724493503570557
 21
12.87550926208496
  0
LINE
  8
0
  6
CONTINUOUS
 62
     7
 10
157.3516235351563
 20
3
 11
165.5516204833984
 21
3
  0
LINE
  8
0
  6
CENTER
 62
     7
 10
106.1016159057617
 20
20.71219635009766
 11
106.1016159057617
 21
19.22293853759766
  0
LINE
  8
0
  6
CONTINUOUS
 62
     7
 10
-7.199995517730713
 20
3.000003814697266
 11
-15.19999694824219
 21
3.000003814697266
  0
LINE
  8
0
  6
CONTINUOUS
 62
     7
 10
7.199999332427979
 20
3.000003814697266
 11
15.19999694824219
 21
3.000003814697266
  0
LINE
  8
0
  6
CONTINUOUS
 62
     7
 10
-15.19999408721924
 20
2.999999761581421
 11
-16.69999694824219
 21
4.500002384185791
  0
LINE
  8
0
  6
CONTINUOUS
 62
     7
 10
-17.09999847412109
 20
7.422161102294922
 11
-17.09999847412109
 21
4.400001525878906
  0
LINE
  8
0
  6
CONTINUOUS
 62
     7
 10
15.90000438690186
 20
3.700000286102295
 11
15.20000457763672
 21
3
  0
LINE
  8
0
  6
CONTINUOUS
 62
     7
 10
17.09998321533203
 20
7.422100067138672
 11
17.09998321533203
 21
4.400001525878906
  0
LINE
  8
0
  6
CONTINUOUS
 62
     7
 10
15.90000247955322
 20
3.700005054473877
 11
16.69999885559082
 21
4.500000953674316
  0
LINE
  8
0
  6
CONTINUOUS
 62
     7
 10
-23.19999694824219
 20
17.48577880859375
 11
-23.19999694824219
 21
17
  0
LINE
  8
0
  6
CONTINUOUS
 62
     7
 10
23.19998168945313
 20
17.48578262329102
 11
23.19998168945313
 21
17
  0
LINE
  8
0
  6
DASHED
 62
     7
 10
-15
 20
16
 11
-15
 21
3.000003814697266
  0
LINE
  8
0
  6
CONTINUOUS
 62
     7
 10
114.8316268920898
 20
7.774795532226563
 11
114.8316268920898
 21
3.950004577636719
  0
LINE
  8
0
  6
CONTINUOUS
 62
     7
 10
114.3516235351563
 20
16
 11
114.3516235351563
 21
13
  0
LINE
  8
0
  6
CONTINUOUS
 62
     7
 10
121.8716201782227
 20
7.774795532226563
 11
121.8716201782227
 21
3.950004577636719
  0
LINE
  8
0
  6
CONTINUOUS
 62
     7
 10
122.3516235351563
 20
16
 11
122.3516235351563
 21
12.99500274658203
  0
LINE
  8
0
  6
CONTINUOUS
 62
     7
 10
144.8316345214844
 20
7.774795532226563
 11
144.8316345214844
 21
3.949984073638916
  0
LINE
  8
0
  6
CONTINUOUS
 62
     7
 10
152.3516235351563
 20
16
 11
152.3516235351563
 21
12.99500274658203
  0
LINE
  8
0
  6
CONTINUOUS
 62
     7
 10
144.3516235351563
 20
16
 11
144.3516235351563
 21
12.99500274658203
  0
LINE
  8
0
  6
CONTINUOUS
 62
     7
 10
151.8716278076172
 20
7.774795532226563
 11
151.8716278076172
 21
3.950004577636719
  0
LINE
  8
0
  6
CONTINUOUS
 62
     7
 10
101.1516265869141
 20
23.5
 11
101.1516265869141
 21
3
  0
LINE
  8
0
  6
CONTINUOUS
 62
     7
 10
165.5516204833984
 20
23.5
 11
165.5516204833984
 21
3
  0
LINE
  8
0
  6
DASHED
 62
     7
 10
-16.5
 20
24
 11
-16.5
 21
16
  0
LINE
  8
0
  6
DASHED
 62
     7
 10
-21.5
 20
24
 11
-21.5
 21
16
  0
LINE
  8
0
  6
DASHED
 62
     7
 10
-21.20000076293945
 20
24
 11
-21.20000076293945
 21
16
  0
LINE
  8
0
  6
DASHED
 62
     7
 10
-16.79999923706055
 20
24
 11
-16.79999923706055
 21
16
  0
LINE
  8
0
  6
CONTINUOUS
 62
     7
 10
109.3516311645508
 20
23.45000076293945
 11
109.9016342163086
 21
24
  0
LINE
  8
0
  6
CONTINUOUS
 62
     7
 10
156.8016204833984
 20
23.99999809265137
 11
157.3516235351563
 21
23.44999885559082
  0
LINE
  8
0
  6
CONTINUOUS
 62
     7
 10
53.35162734985352
 20
11.45020294189453
 11
101.1516265869141
 21
11.45020294189453
  0
LINE
  8
0
  6
CONTINUOUS
 62
     7
 10
53.35162734985352
 20
13
 11
101.1516265869141
 21
13
  0
LINE
  8
0
  6
CONTINUOUS
 62
     7
 10
53.35162734985352
 20
9.650238037109375
 11
101.1516265869141
 21
9.650238037109375
  0
LINE
  8
0
  6
CONTINUOUS
 62
     7
 10
53.35162734985352
 20
7.920692443847656
 11
101.1516265869141
 21
7.920692443847656
  0
LINE
  8
0
  6
CONTINUOUS
 62
     7
 10
53.35162734985352
 20
4.719985961914063
 11
101.1516265869141
 21
4.719985961914063
  0
LINE
  8
0
  6
CONTINUOUS
 62
     7
 10
53.35162734985352
 20
13
 11
53.35162734985352
 21
0
  0
LINE
  8
0
  6
CENTER
 62
     7
 10
133.3516235351563
 20
3
 11
133.3516235351563
 21
-1.032180786132813
  0
LINE
  8
0
  6
CENTER
 62
     7
 10
193.3516235351563
 20
14.02349853515625
 11
193.3516235351563
 21
-1.032180786132813
  0
LINE
  8
0
  6
CENTER
 62
     7
 10
-9.449981689453125
 20
20
 11
-12.94998168945313
 21
20
  0
LINE
  8
0
  6
CENTER
 62
     7
 10
-11.19998168945313
 20
21.75
 11
-11.19998168945313
 21
18.25
  0
LINE
  8
0
  6
CONTINUOUS
 62
     7
 10
-7.264212608337402
 20
9.80764102935791
 11
-7.5
 21
10.31328868865967
  0
LINE
  8
0
  6
CONTINUOUS
 62
     7
 10
-7.499999046325684
 20
5.528430461883545
 11
-10.02842712402344
 21
3.000002861022949
  0
LINE
  8
0
  6
CONTINUOUS
 62
     7
 10
-6.560905456542969
 20
15
 11
-1.346291184425354
 21
15
  0
LINE
  8
0
  6
CONTINUOUS
 62
     7
 10
-9.349998474121094
 20
11.68158721923828
 11
-6.560904026031494
 21
14.99999523162842
  0
LINE
  8
0
  6
CONTINUOUS
 62
     7
 10
-9.349998474121094
 20
11.68158721923828
 11
-9.349998474121094
 21
9.418865203857422
  0
LINE
  8
0
  6
CONTINUOUS
 62
     7
 10
-7.5
 20
7.217769622802734
 11
-7.5
 21
5.528427124023438
  0
LINE
  8
0
  6
CONTINUOUS
 62
     7
 10
-9.349998474121094
 20
9.418865203857422
 11
-7.499997615814209
 21
7.217771530151367
  0
LINE
  8
0
  6
CONTINUOUS
 62
     7
 10
101.1516265869141
 20
86.69999694824219
 11
101.1516265869141
 21
53.30000305175781
  0
LINE
  8
0
  6
CONTINUOUS
 62
     7
 10
109.3516235351563
 20
93.5
 11
109.3516235351563
 21
46.50001525878906
  0
LINE
  8
0
  6
CONTINUOUS
 62
     7
 10
157.3516235351563
 20
93.5
 11
157.3516235351563
 21
46.50001525878906
  0
LINE
  8
0
  6
CONTINUOUS
 62
     7
 10
109.3516235351563
 20
93.5
 11
157.3516235351563
 21
93.5
  0
LINE
  8
0
  6
CENTER
 62
     7
 10
52.06217193603516
 20
70
 11
215.3682861328125
 21
70
  0
LINE
  8
0
  6
CONTINUOUS
 62
     7
 10
101.1516265869141
 20
86.69999694824219
 11
109.3516235351563
 21
86.69999694824219
  0
LINE
  8
0
  6
CONTINUOUS
 62
     7
 10
101.1516265869141
 20
53.30000305175781
 11
109.3516235351563
 21
53.30000305175781
  0
LINE
  8
0
  6
CONTINUOUS
 62
     7
 10
53.35162734985352
 20
77.5
 11
101.1516265869141
 21
77.5
  0
LINE
  8
0
  6
CONTINUOUS
 62
     7
 10
53.35162734985352
 20
62.5
 11
101.1516265869141
 21
62.5
  0
LINE
  8
0
  6
CONTINUOUS
 62
     7
 10
53.35162734985352
 20
75.59999847412109
 11
101.1516265869141
 21
75.59999847412109
  0
LINE
  8
0
  6
CONTINUOUS
 62
     7
 10
53.35162734985352
 20
64.40000152587891
 11
101.1516265869141
 21
64.40000152587891
  0
LINE
  8
0
  6
CONTINUOUS
 62
     7
 10
53.35162734985352
 20
77.5
 11
53.35162734985352
 21
62.5
  0
LINE
  8
0
  6
CONTINUOUS
 62
     7
 10
213.3516235351563
 20
77.5
 11
213.3516235351563
 21
62.5
  0
LINE
  8
0
  6
CENTER
 62
     7
 10
118.3516235351563
 20
55.69000244140625
 11
118.3516235351563
 21
46.30999755859375
  0
LINE
  8
0
  6
CENTER
 62
     7
 10
113.6616287231445
 20
51
 11
123.0416259765625
 21
51
  0
LINE
  8
0
  6
CENTER
 62
     7
 10
148.3516235351563
 20
55.69000244140625
 11
148.3516235351563
 21
46.30999755859375
  0
LINE
  8
0
  6
CENTER
 62
     7
 10
143.66162109375
 20
51
 11
153.0416259765625
 21
51
  0
LINE
  8
0
  6
CENTER
 62
     7
 10
148.3516235351563
 20
93.69000244140625
 11
148.3516235351563
 21
84.30999755859375
  0
LINE
  8
0
  6
CENTER
 62
     7
 10
143.66162109375
 20
89
 11
153.0416259765625
 21
89
  0
LINE
  8
0
  6
CENTER
 62
     7
 10
118.3516235351563
 20
93.69000244140625
 11
118.3516235351563
 21
84.30999755859375
  0
LINE
  8
0
  6
CENTER
 62
     7
 10
113.6616287231445
 20
89
 11
123.0416259765625
 21
89
  0
LINE
  8
0
  6
CONTINUOUS
 62
     7
 10
165.5516204833984
 20
86.69999694824219
 11
165.5516204833984
 21
53.30000305175781
  0
LINE
  8
0
  6
CONTINUOUS
 62
     7
 10
165.5516204833984
 20
53.30000305175781
 11
157.3516235351563
 21
53.30000305175781
  0
LINE
  8
0
  6
CONTINUOUS
 62
     7
 10
165.5516204833984
 20
86.69999694824219
 11
157.3516235351563
 21
86.69999694824219
  0
LINE
  8
0
  6
CONTINUOUS
 62
     7
 10
165.5516204833984
 20
77.5
 11
213.3516235351563
 21
77.5
  0
LINE
  8
0
  6
CONTINUOUS
 62
     7
 10
165.5516204833984
 20
75.59999847412109
 11
213.3516235351563
 21
75.59999847412109
  0
LINE
  8
0
  6
CONTINUOUS
 62
     7
 10
165.5516204833984
 20
64.40000152587891
 11
213.3516235351563
 21
64.40000152587891
  0
LINE
  8
0
  6
CONTINUOUS
 62
     7
 10
165.5516204833984
 20
62.5
 11
213.3516235351563
 21
62.5
  0
LINE
  8
0
  6
CONTINUOUS
 62
     7
 10
109.3516235351563
 20
56.50000381469727
 11
157.3516235351563
 21
56.50000381469727
  0
LINE
  8
0
  6
CONTINUOUS
 62
     7
 10
109.3516235351563
 20
65.5
 11
157.3516235351563
 21
65.5
  0
LINE
  8
0
  6
CONTINUOUS
 62
     7
 10
109.3516235351563
 20
83.5
 11
157.3516235351563
 21
83.5
  0
LINE
  8
0
  6
CONTINUOUS
 62
     7
 10
109.3516235351563
 20
74.5
 11
157.3516235351563
 21
74.5
  0
LINE
  8
0
  6
CONTINUOUS
 62
     7
 10
100.7516174316406
 20
66.25
 11
101.1516265869141
 21
66.25
  0
LINE
  8
0
  6
CONTINUOUS
 62
     7
 10
100.7516174316406
 20
73.75
 11
101.1516265869141
 21
73.75
  0
LINE
  8
0
  6
CONTINUOUS
 62
     7
 10
99.75161743164063
 20
73
 11
100.7516174316406
 21
73
  0
LINE
  8
0
  6
CONTINUOUS
 62
     7
 10
100.7516174316406
 20
73.75
 11
100.7516174316406
 21
66.25
  0
LINE
  8
0
  6
CONTINUOUS
 62
     7
 10
99.75161743164063
 20
67
 11
100.7516174316406
 21
67
  0
LINE
  8
0
  6
CENTER
 62
     7
 10
73.35162353515625
 20
76.29000091552734
 11
73.35162353515625
 21
63.70999908447266
  0
LINE
  8
0
  6
CENTER
 62
     7
 10
105.3516159057617
 20
22.50022125244141
 11
105.3516159057617
 21
17.50022125244141
  0
LINE
  8
0
  6
CENTER
 62
     7
 10
102.8516159057617
 20
20.00022125244141
 11
107.8516159057617
 21
20.00022125244141
  0
LINE
  8
0
  6
CENTER
 62
     7
 10
161.3516387939453
 20
22.50022125244141
 11
161.3516387939453
 21
17.50022125244141
  0
LINE
  8
0
  6
CENTER
 62
     7
 10
163.8516387939453
 20
20.00022125244141
 11
158.8516387939453
 21
20.00022125244141
  0
LINE
  8
0
  6
CENTER
 62
     7
 10
133.3516235351563
 20
76.29000091552734
 11
133.3516235351563
 21
63.70999908447266
  0
LINE
  8
0
  6
CENTER
 62
     7
 10
193.3516235351563
 20
76.29000091552734
 11
193.3516235351563
 21
63.70999908447266
  0
LINE
  8
0
  6
DASHED
 62
     7
 10
115.8516235351563
 20
24
 11
115.8516235351563
 21
16
  0
LINE
  8
0
  6
DASHED
 62
     7
 10
116.1516265869141
 20
24
 11
116.1516265869141
 21
16
  0
LINE
  8
0
  6
DASHED
 62
     7
 10
120.8516235351563
 20
24
 11
120.8516235351563
 21
16
  0
LINE
  8
0
  6
DASHED
 62
     7
 10
120.5516204833984
 20
24
 11
120.5516204833984
 21
16
  0
LINE
  8
0
  6
CONTINUOUS
 62
     7
 10
23.49998474121094
 20
22.9929084777832
 11
23.49998474121094
 21
17.99998474121094
  0
LINE
  8
0
  6
DASHED
 62
     7
 10
101.1516265869141
 20
13
 11
165.5516204833984
 21
13
  0
LINE
  8
0
  6
CONTINUOUS
 62
     7
 10
109.3516235351563
 20
46.50001525878906
 11
157.3516235351563
 21
46.50001525878906
  0
CIRCLE
  8
0
  6
CONTINUOUS
 62
     7
 10
105.3516159057617
 20
20.00022125244141
 40
1.5
  0
CIRCLE
  8
0
  6
CONTINUOUS
 62
     7
 10
106.1016159057617
 20
20.00022125244141
 40
0.5
  0
ARC
  8
0
  6
CONTINUOUS
 62
     7
 10
99.75161743164063
 20
18.5
 40
3
 50
90.0000025044782
 51
270.0000006832455
  0
ARC
  8
0
  6
CONTINUOUS
 62
     7
 10
2.964225769042969
 20
0.7999992370605469
 40
1
 50
224.9999996583774
 51
233.1300967708486
  0
ARC
  8
0
  6
CONTINUOUS
 62
     7
 10
-1.842903137207031
 20
-0.2000007629394531
 40
0.4999999999999999
 50
90.00000250447816
 51
135.0000003416227
  0
ARC
  8
0
  6
CONTINUOUS
 62
     7
 10
6.699996948242188
 20
1.314224243164063
 40
1
 50
314.9054142881346
 51
323.130392973461
  0
ARC
  8
0
  6
CONTINUOUS
 62
     7
 10
1.842903137207031
 20
-0.2000007629394531
 40
0.5
 50
45.00000125223908
 51
89.999995674289
  0
ARC
  8
0
  6
CONTINUOUS
 62
     7
 10
-4.5
 20
-0.2999992370605469
 40
0.4999999999999997
 50
36.8698973095787
 51
143.1300974540939
  0
ARC
  8
0
  6
CONTINUOUS
 62
     7
 10
-5.799995422363281
 20
7.796436309814453
 40
0.2999999821186066
 50
359.684100949442
 51
45.00000125223906
  0
ARC
  8
0
  6
CONTINUOUS
 62
     7
 10
-5.799995422363281
 20
4.824264526367188
 40
0.2999999821186062
 50
314.7718431087258
 51
0.3158990505577935
  0
ARC
  8
0
  6
CONTINUOUS
 62
     7
 10
5.800003051757813
 20
7.796440124511719
 40
0.2999999821186058
 50
135.0000003416227
 51
180.0000050089563
  0
ARC
  8
0
  6
CONTINUOUS
 62
     7
 10
5.800003051757813
 20
4.824264526367188
 40
0.2999999821186064
 50
179.999991348578
 51
224.9999960159117
  0
ARC
  8
0
  6
CONTINUOUS
 62
     7
 10
-6.992645263671875
 20
11.1652946472168
 40
0.299999982118606
 50
97.86473993750525
 51
154.9999963447141
  0
ARC
  8
0
  6
CONTINUOUS
 62
     7
 10
-7.199996948242188
 20
2.575736999511719
 40
0.2999999821186064
 50
135.0000003416226
 51
180.0000050089563
  0
ARC
  8
0
  6
CONTINUOUS
 62
     7
 10
-6.992645263671875
 20
9.935153961181641
 40
0.2999999821186064
 50
205.0000036552859
 51
262.1354308172241
  0
ARC
  8
0
  6
CONTINUOUS
 62
     7
 10
-5.503509521484375
 20
8.348468780517578
 40
0.2999999821186067
 50
184.2317752951085
 51
225.4166958392615
  0
ARC
  8
0
  6
CONTINUOUS
 62
     7
 10
-7.229461669921875
 20
8.220760345458984
 40
1.430669903755188
 50
4.231776888970185
 51
82.13542899599116
  0
ARC
  8
0
  6
CONTINUOUS
 62
     7
 10
-7.229461669921875
 20
12.87968826293945
 40
1.430669903755189
 50
277.8647349285489
 51
352.8199702482465
  0
ARC
  8
0
  6
CONTINUOUS
 62
     7
 10
7.229461669921875
 20
12.87968826293945
 40
1.430669903755188
 50
187.1800264503445
 51
262.1352600624948
  0
ARC
  8
0
  6
CONTINUOUS
 62
     7
 10
7.229461669921875
 20
8.220760345458984
 40
1.430669903755189
 50
97.86473993750521
 51
175.7682247048915
  0
ARC
  8
0
  6
CONTINUOUS
 62
     7
 10
5.503509521484375
 20
8.348468780517578
 40
0.2999999821186062
 50
314.6667982143856
 51
355.7682231110297
  0
ARC
  8
0
  6
CONTINUOUS
 62
     7
 10
6.992645263671875
 20
9.935153961181641
 40
0.2999999821186068
 50
277.864734928549
 51
334.9999998734941
  0
ARC
  8
0
  6
CONTINUOUS
 62
     7
 10
7.200004577636719
 20
2.575736999511719
 40
0.2999999821186066
 50
359.6841009494422
 51
45.18888330354659
  0
ARC
  8
0
  6
CONTINUOUS
 62
     7
 10
6.992645263671875
 20
11.1652946472168
 40
0.2999999821186065
 50
24.63524070407069
 51
82.13526507145103
  0
ARC
  8
0
  6
CONTINUOUS
 62
     7
 10
-2.964225769042969
 20
0.7999992370605469
 40
1
 50
306.8698982201951
 51
314.9999987477609
  0
ARC
  8
0
  6
CONTINUOUS
 62
     7
 10
-6.699996948242188
 20
1.314224243164063
 40
0.9999999999999998
 50
216.8696020175826
 51
224.9999996583774
  0
ARC
  8
0
  6
CONTINUOUS
 62
     7
 10
-6.185775756835938
 20
0.7999992370605469
 40
1
 50
224.9297033514395
 51
233.1300284689569
  0
ARC
  8
0
  6
CONTINUOUS
 62
     7
 10
6.185775756835938
 20
0.7999992370605469
 40
1
 50
306.8699699371814
 51
315.1638788916116
  0
ARC
  8
0
  6
CONTINUOUS
 62
     7
 10
5.007110595703125
 20
24.20000076293945
 40
0.4999999999999991
 50
224.9999996583772
 51
270.000004325711
  0
ARC
  8
0
  6
CONTINUOUS
 62
     7
 10
12.99290466308594
 20
24.20000076293945
 40
0.5000000000000014
 50
270.0000043257109
 51
314.999998747761
  0
ARC
  8
0
  6
CONTINUOUS
 62
     7
 10
23.09999084472656
 20
22.69290161132813
 40
0.4999999999999994
 50
36.87099013984567
 51
45.0000012522392
  0
ARC
  8
0
  6
CONTINUOUS
 62
     7
 10
15.59999084472656
 20
4.400001525878906
 40
1.499999999999999
 50
291.039309233668
 51
0
  0
ARC
  8
0
  6
CONTINUOUS
 62
     7
 10
21.49415588378906
 20
14
 40
2
 50
89.999995674289
 51
159.9999953454867
  0
ARC
  8
0
  6
CONTINUOUS
 62
     7
 10
23.09999084472656
 20
18.29999160766602
 40
0.4999999999999991
 50
314.9999987477608
 51
323.129009860154
  0
ARC
  8
0
  6
CONTINUOUS
 62
     7
 10
-12.99290466308594
 20
24.19999694824219
 40
0.4999999999999991
 50
224.9999996583772
 51
269.9999974955217
  0
ARC
  8
0
  6
CONTINUOUS
 62
     7
 10
-5.007110595703125
 20
24.19999694824219
 40
0.5000000000000004
 50
269.9999974955218
 51
314.9999987477609
  0
ARC
  8
0
  6
CONTINUOUS
 62
     7
 10
-23.09999084472656
 20
22.69290161132813
 40
0.4999999999999991
 50
135.0000003416228
 51
143.130097454094
  0
ARC
  8
0
  6
CONTINUOUS
 62
     7
 10
-15.59999084472656
 20
4.400001525878906
 40
1.499999999999999
 50
179.999991348578
 51
248.9606138130182
  0
ARC
  8
0
  6
CONTINUOUS
 62
     7
 10
-23.09999084472656
 20
18.29999542236328
 40
0.5000000000000003
 50
216.869902545906
 51
224.9999996583772
  0
ARC
  8
0
  6
CONTINUOUS
 62
     7
 10
-19.98193359375
 20
13.5
 40
1.000000000000001
 50
338.5903776031705
 51
61.40962294074845
  0
ARC
  8
0
  6
CONTINUOUS
 62
     7
 10
-21.49415588378906
 20
14
 40
1.999999999999999
 50
19.99999941818585
 51
90.00000250447816
  0
CIRCLE
  8
0
  6
CONTINUOUS
 62
     7
 10
0
 20
18.5
 40
3
  0
CIRCLE
  8
0
  6
CONTINUOUS
 62
     7
 10
0
 20
18.5
 40
3.75
  0
ARC
  8
0
  6
CONTINUOUS
 62
     7
 10
-5.512359619140625
 20
12.66337585449219
 40
0.3000000119209286
 50
134.9090085614997
 51
172.8199735496556
  0
ARC
  8
0
  6
CONTINUOUS
 62
     7
 10
5.512359619140625
 20
12.66337585449219
 40
0.3000000119209291
 50
7.180029751753575
 51
45.00000125223918
  0
ARC
  8
0
  6
CONTINUOUS
 62
     7
 10
-19.09999847412109
 20
7.422161102294922
 40
2
 50
0
 51
20.00000112573311
  0
ARC
  8
0
  6
CONTINUOUS
 62
     7
 10
19.09998321533203
 20
7.422100067138672
 40
1.999999999999999
 50
159.9999953454867
 51
180.0000050089563
  0
ARC
  8
0
  6
CONTINUOUS
 62
     7
 10
-22.19999694824219
 20
17
 40
1.000000000000001
 50
179.999991348578
 51
270.0000006832452
  0
ARC
  8
0
  6
CONTINUOUS
 62
     7
 10
-23.69999694824219
 20
17.48577880859375
 40
0.5
 50
0
 51
45.0000012522392
  0
ARC
  8
0
  6
CONTINUOUS
 62
     7
 10
22.19998168945313
 20
17
 40
1.000000000000001
 50
269.9999974955217
 51
0
  0
ARC
  8
0
  6
CONTINUOUS
 62
     7
 10
23.69998168945313
 20
17.48578262329102
 40
0.4999999999999991
 50
135.0000003416228
 51
180.0000050089561
  0
ARC
  8
0
  6
CONTINUOUS
 62
     7
 10
118.3516235351563
 20
6.362693786621094
 40
4.26749229431153
 50
214.427686445898
 51
231.9971186517051
  0
ARC
  8
0
  6
CONTINUOUS
 62
     7
 10
142.9776000976563
 20
12.99500274658203
 40
28.62597274780274
 50
179.9899919516331
 51
190.5071991978888
  0
ARC
  8
0
  6
CONTINUOUS
 62
     7
 10
93.72564697265625
 20
12.99500274658203
 40
28.62597274780273
 50
349.4927981271048
 51
3.555433756033488E-014
  0
ARC
  8
0
  6
CONTINUOUS
 62
     7
 10
118.3516235351563
 20
6.362693786621094
 40
4.267492294311523
 50
308.0028865846222
 51
325.5723153753348
  0
ARC
  8
0
  6
CONTINUOUS
 62
     7
 10
172.9776000976563
 20
12.99500274658203
 40
28.62597274780272
 50
179.999991348578
 51
190.5071991978888
  0
ARC
  8
0
  6
CONTINUOUS
 62
     7
 10
123.7256469726563
 20
12.99500274658203
 40
28.62597274780273
 50
349.4928041035203
 51
3.555433756033488E-014
  0
ARC
  8
0
  6
CONTINUOUS
 62
     7
 10
148.3516235351563
 20
6.362693786621094
 40
4.26749229431153
 50
214.427686445898
 51
231.9971186517053
  0
ARC
  8
0
  6
CONTINUOUS
 62
     7
 10
148.3516235351563
 20
6.362693786621094
 40
4.267492294311523
 50
308.0028865846222
 51
325.5723153753348
  0
CIRCLE
  8
0
  6
CONTINUOUS
 62
     7
 10
-11.19998168945313
 20
20
 40
0.800000011920929
  0
CIRCLE
  8
0
  6
CONTINUOUS
 62
     7
 10
118.3516235351563
 20
51
 40
2.5
  0
ARC
  8
0
  6
CONTINUOUS
 62
     7
 10
99.75161743164063
 20
70
 40
3.000000000000003
 50
90.0000025044782
 51
270.0000006832455
  0
CIRCLE
  8
0
  6
CONTINUOUS
 62
     7
 10
73.35162353515625
 20
70
 40
3.75
  0
CIRCLE
  8
0
  6
CONTINUOUS
 62
     7
 10
73.35162353515625
 20
70
 40
2.25
  0
CIRCLE
  8
0
  6
CONTINUOUS
 62
     7
 10
118.3516235351563
 20
51
 40
2.200000047683716
  0
TEXT
  8
0
  6
CONTINUOUS
 62
     7
 10
-10.3564544916153
 20
-15.12397360801697
 40
3.599999904632568
 41
1.039215751203318
  1
SHS15C
  0
ENDSEC
  0
EOF
