  0
SECTION
  2
HEADER
  0
ENDSEC
  0
SECTION
  2
TABLES
  0
TABLE
  2
LTYPE
 70
    22
  0
LTYPE
  2
CONTINUOUS
 70
    64
  3
Solid line
 72
    65
 73
     0
 40
0.000000
  0
LTYPE
  2
DASHED
 70
    64
  3
__ __ __ __ __ __ __ __ __ __ __ __ __ __ __
 72
    65
 73
     2
 40
3.500000
 49
2.000000
 49
-1.500000
  0
LTYPE
  2
CENTER
 70
    64
  3
____ _ ____ _ ____ _ ____ _ ____ _ ____ _ ____
 72
    65
 73
     4
 40
17.500000
 49
13.000000
 49
-1.500000
 49
1.500000
 49
-1.500000
  0
LTYPE
  2
PHANTOM
 70
    64
  3
_____ _ _ _____ _ _ _____ _ _ _____ _ _ ____  
 72
    65
 73
     6
 40
15.500000
 49
8.000000
 49
-1.500000
 49
1.500000
 49
-1.500000
 49
1.500000
 49
-1.500000
  0
LTYPE
  2
DOT
 70
    64
  3
. . . . . . . . . . . . . . . . . . . . . . . .
 72
    65
 73
     2
 40
0.25
 49
0.0
 49
-0.25
  0
ENDTAB
  0
TABLE
  2
LAYER
 70
     1
  0
LAYER
  2
0
 70
     0
 62
     7
  6
CONTINUOUS
  0
ENDTAB
  0
TABLE
  2
STYLE
 70
     1
  0
STYLE
  2
STANDARD
 70
     0
 40
0.000000
 41
1.000000
 50
0.000000
 71
     0
 42
0.200000
  3
txt
  0
ENDTAB
  0
TABLE
  2
VIEW
 70
     0
  0
ENDTAB
  0
ENDSEC
  0
SECTION
  2
BLOCKS
  0
ENDSEC
  0
SECTION
  2
ENTITIES
  0
LINE
  8
0
  6
CENTER
 62
     7
 10
18.99996948242188
 20
31.15000152587891
 11
18.99996948242188
 21
22.65000152587891
  0
LINE
  8
0
  6
CONTINUOUS
 62
     7
 10
23.69995880126953
 20
32.99996948242188
 11
21.69995498657227
 21
34.99996948242188
  0
LINE
  8
0
  6
CONTINUOUS
 62
     7
 10
23.69998168945313
 20
33
 11
23.69998168945313
 21
7.800003051757813
  0
LINE
  8
0
  6
CONTINUOUS
 62
     7
 10
21.69998168945313
 20
35
 11
-21.69998168945313
 21
35
  0
LINE
  8
0
  6
CENTER
 62
     7
 10
14.74996948242188
 20
26.90000152587891
 11
23.24996948242188
 21
26.90000152587891
  0
LINE
  8
0
  6
CONTINUOUS
 62
     7
 10
15.32544612884522
 20
5.799999713897705
 11
11.79996871948242
 21
9.325477600097656
  0
LINE
  8
0
  6
CONTINUOUS
 62
     7
 10
11.79995727539063
 20
11.78400421142578
 11
11.79995727539063
 21
9.325477600097656
  0
LINE
  8
0
  6
CONTINUOUS
 62
     7
 10
14.35011672973633
 20
18.98054695129395
 11
10.60191440582275
 21
23.00000190734863
  0
LINE
  8
0
  6
CONTINUOUS
 62
     7
 10
10.60186767578125
 20
23
 11
-10.60186767578125
 21
23
  0
LINE
  8
0
  6
CONTINUOUS
 62
     7
 10
14.35007858276367
 20
14.5186767578125
 11
11.79995250701904
 21
11.78400135040283
  0
LINE
  8
0
  6
CONTINUOUS
 62
     7
 10
14.35009765625
 20
18.98053741455078
 11
14.35009765625
 21
14.51868438720703
  0
LINE
  8
0
  6
CONTINUOUS
 62
     7
 10
24
 20
8.10004997253418
 11
21.69997406005859
 21
5.800023078918457
  0
LINE
  8
0
  6
CONTINUOUS
 62
     7
 10
21.69998168945313
 20
5.800003051757813
 11
10.79998779296875
 21
5.800003051757813
  0
LINE
  8
0
  6
CONTINUOUS
 62
     7
 10
10.2857666015625
 20
0
 11
3.764170408248901
 21
0
  0
LINE
  8
0
  6
CONTINUOUS
 62
     7
 10
11.5001220703125
 20
15.759521484375
 11
11.5001220703125
 21
16.49964904785156
  0
LINE
  8
0
  6
CONTINUOUS
 62
     7
 10
9.3232421875
 20
20.00001525878906
 11
-9.3232421875
 21
20.00001525878906
  0
LINE
  8
0
  6
CONTINUOUS
 62
     7
 10
11.5001220703125
 20
17.73976135253906
 11
11.5001220703125
 21
16.49964904785156
  0
LINE
  8
0
  6
CONTINUOUS
 62
     7
 10
9.540497779846191
 20
13.62055587768555
 11
8.946379661560059
 21
13.02643775939941
  0
LINE
  8
0
  6
CONTINUOUS
 62
     7
 10
11.5
 20
4.892913818359375
 11
11.5
 21
1.214248657226563
  0
LINE
  8
0
  6
CONTINUOUS
 62
     7
 10
11.35353851318359
 20
5.246493816375732
 11
8.946423530578613
 21
7.653608798980713
  0
LINE
  8
0
  6
DASHED
 62
     7
 10
5.5
 20
11.00001525878906
 11
-5.5
 21
11.00001525878906
  0
LINE
  8
0
  6
DASHED
 62
     7
 10
3.5
 20
11.00001525878906
 11
3.5
 21
0.249928891658783
  0
LINE
  8
0
  6
DASHED
 62
     7
 10
5.5
 20
20.00001525878906
 11
5.5
 21
11.00001525878906
  0
LINE
  8
0
  6
CONTINUOUS
 62
     7
 10
10.39287376403809
 20
0.09289614111185074
 11
11.40709590911865
 21
1.107118248939514
  0
LINE
  8
0
  6
CONTINUOUS
 62
     7
 10
8.799957275390625
 20
12.67288208007813
 11
8.799957275390625
 21
8.007179260253906
  0
LINE
  8
0
  6
CONTINUOUS
 62
     7
 10
3.657041072845459
 20
0.09288777410984039
 11
3.396364450454712
 21
0.3535643517971039
  0
LINE
  8
0
  6
CONTINUOUS
 62
     7
 10
3.0428466796875
 20
0.5000152587890625
 11
-3.04290771484375
 21
0.5000152587890625
  0
LINE
  8
0
  6
CONTINUOUS
 62
     7
 10
-10.28578662872315
 20
0
 11
-3.764200925827026
 21
0
  0
LINE
  8
0
  6
CONTINUOUS
 62
     7
 10
-11.5001220703125
 20
17.73976135253906
 11
-11.5001220703125
 21
15.759521484375
  0
LINE
  8
0
  6
CONTINUOUS
 62
     7
 10
-9.540530204772949
 20
13.62053489685059
 11
-8.946455001831055
 21
13.02645969390869
  0
LINE
  8
0
  6
CONTINUOUS
 62
     7
 10
-11.5
 20
4.89288330078125
 11
-11.5
 21
1.214248657226563
  0
LINE
  8
0
  6
CONTINUOUS
 62
     7
 10
-11.35356998443604
 20
5.246472358703613
 11
-8.946455001831055
 21
7.653587341308594
  0
LINE
  8
0
  6
DASHED
 62
     7
 10
-5.5
 20
20.00001525878906
 11
-5.5
 21
11.00001525878906
  0
LINE
  8
0
  6
CONTINUOUS
 62
     7
 10
-10.39292716979981
 20
0.0929231122136116
 11
-11.40714931488037
 21
1.107144951820374
  0
LINE
  8
0
  6
CONTINUOUS
 62
     7
 10
-8.79998779296875
 20
12.67291259765625
 11
-8.79998779296875
 21
8.007110595703125
  0
LINE
  8
0
  6
CONTINUOUS
 62
     7
 10
-3.657094717025757
 20
0.09288777410984039
 11
-3.39641809463501
 21
0.3535643517971039
  0
LINE
  8
0
  6
CENTER
 62
     7
 10
0
 20
41
 11
0
 21
-1
  0
LINE
  8
0
  6
DASHED
 62
     7
 10
-3.5
 20
11.00001525878906
 11
-3.5
 21
0.2499823570251465
  0
LINE
  8
0
  6
DASHED
 62
     7
 10
-20.5
 20
32
 11
-14.5
 21
32
  0
LINE
  8
0
  6
DASHED
 62
     7
 10
-20.10000610351563
 20
28
 11
-14.89999389648438
 21
28
  0
LINE
  8
0
  6
DASHED
 62
     7
 10
-20.5
 20
40
 11
-20.5
 21
32
  0
LINE
  8
0
  6
DASHED
 62
     7
 10
-14.5
 20
40
 11
-14.5
 21
32
  0
LINE
  8
0
  6
DASHED
 62
     7
 10
-14.89999389648438
 20
40
 11
-14.89999389648438
 21
28
  0
LINE
  8
0
  6
DASHED
 62
     7
 10
-20.10000610351563
 20
40
 11
-20.10000610351563
 21
28
  0
LINE
  8
0
  6
DASHED
 62
     7
 10
-14.50001239776611
 20
32.00000762939453
 11
-14.90000629425049
 21
31.30719757080078
  0
LINE
  8
0
  6
CENTER
 62
     7
 10
-17.5
 20
41
 11
-17.5
 21
25.67054748535156
  0
LINE
  8
0
  6
DASHED
 62
     7
 10
-17.50000762939453
 20
26.49889945983887
 11
-14.89999008178711
 21
28.00002098083496
  0
LINE
  8
0
  6
DASHED
 62
     7
 10
-17.49996566772461
 20
26.49888229370117
 11
-20.09997177124023
 21
27.99999618530273
  0
LINE
  8
0
  6
CONTINUOUS
 62
     7
 10
-23.85712623596191
 20
8.007116317749023
 11
-23.69998168945313
 21
7.849972248077393
  0
LINE
  8
0
  6
CONTINUOUS
 62
     7
 10
-22.49996566772461
 20
40
 11
-23.99999809265137
 21
38.49996566772461
  0
LINE
  8
0
  6
CONTINUOUS
 62
     7
 10
-8.807065010070801
 20
39.95709991455078
 11
-8.496410369873047
 21
39.64644622802734
  0
LINE
  8
0
  6
CONTINUOUS
 62
     7
 10
-23.75
 20
31.62576293945313
 11
-23.75
 21
14.67424774169922
  0
LINE
  8
0
  6
CONTINUOUS
 62
     7
 10
-23.9999885559082
 20
32.00002288818359
 11
-23.83786392211914
 21
31.83790016174316
  0
LINE
  8
0
  6
CONTINUOUS
 62
     7
 10
-8.142852783203125
 20
39.5
 11
8.142852783203125
 21
39.5
  0
LINE
  8
0
  6
CONTINUOUS
 62
     7
 10
-24
 20
38.5
 11
-24
 21
32.00002288818359
  0
LINE
  8
0
  6
CONTINUOUS
 62
     7
 10
-22.5
 20
40
 11
-8.852752685546875
 21
40
  0
LINE
  8
0
  6
CONTINUOUS
 62
     7
 10
-23.99999809265137
 20
14.29998779296875
 11
-23.83786392211914
 21
14.46212291717529
  0
LINE
  8
0
  6
CONTINUOUS
 62
     7
 10
-24
 20
14.29998779296875
 11
-24
 21
8.18743896484375
  0
LINE
  8
0
  6
CONTINUOUS
 62
     7
 10
22.49997520446777
 20
40
 11
24
 21
38.49997711181641
  0
LINE
  8
0
  6
CONTINUOUS
 62
     7
 10
8.807085990905762
 20
39.95711135864258
 11
8.496421813964844
 21
39.64644622802734
  0
LINE
  8
0
  6
CONTINUOUS
 62
     7
 10
23.99999809265137
 20
32.00004577636719
 11
23.74997138977051
 21
31.7500171661377
  0
LINE
  8
0
  6
CONTINUOUS
 62
     7
 10
24
 20
14.29999732971191
 11
23.8378849029541
 21
14.4621114730835
  0
LINE
  8
0
  6
CONTINUOUS
 62
     7
 10
22.5
 20
40
 11
8.852752685546875
 21
40
  0
LINE
  8
0
  6
CONTINUOUS
 62
     7
 10
23.75
 20
31.75003814697266
 11
23.75
 21
14.67425537109375
  0
LINE
  8
0
  6
DASHED
 62
     7
 10
-20.49999809265137
 20
31.99999809265137
 11
-20.10000419616699
 21
31.30718803405762
  0
LINE
  8
0
  6
CONTINUOUS
 62
     7
 10
224
 20
6.500040531158447
 11
223.8000030517578
 21
6.300045013427734
  0
LINE
  8
0
  6
CONTINUOUS
 62
     7
 10
234.4999847412109
 20
35.00003051757813
 11
223.9999847412109
 21
35.00003051757813
  0
LINE
  8
0
  6
CONTINUOUS
 62
     7
 10
234.4999847412109
 20
35.00003051757813
 11
234.4999847412109
 21
5.800018310546875
  0
LINE
  8
0
  6
CONTINUOUS
 62
     7
 10
234.4999847412109
 20
5.800018310546875
 11
223.9999847412109
 21
5.800018310546875
  0
LINE
  8
0
  6
CENTER
 62
     7
 10
229.9999847412109
 20
33.00003051757813
 11
229.9999847412109
 21
28.00003051757813
  0
LINE
  8
0
  6
CENTER
 62
     7
 10
232.4999847412109
 20
30.50003051757813
 11
227.4999847412109
 21
30.50003051757813
  0
LINE
  8
0
  6
CONTINUOUS
 62
     7
 10
122.300048828125
 20
24.50003051757813
 11
125.300048828125
 21
24.50003051757813
  0
LINE
  8
0
  6
CONTINUOUS
 62
     7
 10
124.900016784668
 20
28.49999618530273
 11
123.400016784668
 21
32
  0
LINE
  8
0
  6
CONTINUOUS
 62
     7
 10
124.0000457763672
 20
28.50006484985352
 11
122.4000473022461
 21
32.00004577636719
  0
LINE
  8
0
  6
CONTINUOUS
 62
     7
 10
123.4000244140625
 20
32.00003051757813
 11
118.2000122070313
 21
32.00003051757813
  0
LINE
  8
0
  6
CONTINUOUS
 62
     7
 10
118.2000274658203
 20
31.99995231628418
 11
117.8000259399414
 21
31.41994667053223
  0
LINE
  8
0
  6
CONTINUOUS
 62
     7
 10
118.2000122070313
 20
24.99996757507324
 11
117.8000106811523
 21
25.5799732208252
  0
LINE
  8
0
  6
CONTINUOUS
 62
     7
 10
124.0001220703125
 20
28.50000762939453
 11
122.4001235961914
 21
25.00002479553223
  0
LINE
  8
0
  6
CONTINUOUS
 62
     7
 10
124.900016784668
 20
28.50002098083496
 11
123.400016784668
 21
25.00003051757813
  0
LINE
  8
0
  6
CONTINUOUS
 62
     7
 10
123.4000244140625
 20
24.96002197265625
 11
123.4000244140625
 21
25.00003051757813
  0
LINE
  8
0
  6
CONTINUOUS
 62
     7
 10
123.4000244140625
 20
25.00003051757813
 11
118.2000122070313
 21
25.00003051757813
  0
LINE
  8
0
  6
CONTINUOUS
 62
     7
 10
125.3000183105469
 20
32.62000274658203
 11
125.5000152587891
 21
32.81999969482422
  0
LINE
  8
0
  6
CONTINUOUS
 62
     7
 10
125.4999923706055
 20
24.18001174926758
 11
125.2999954223633
 21
24.38000869750977
  0
LINE
  8
0
  6
CONTINUOUS
 62
     7
 10
122.300048828125
 20
32.50003051757813
 11
125.300048828125
 21
32.50003051757813
  0
LINE
  8
0
  6
CONTINUOUS
 62
     7
 10
125.300048828125
 20
24.38003540039063
 11
125.300048828125
 21
32.6199951171875
  0
LINE
  8
0
  6
CENTER
 62
     7
 10
114.337890625
 20
28.50003051757813
 11
128.5391235351563
 21
28.50003051757813
  0
LINE
  8
0
  6
CENTER
 62
     7
 10
127.5
 20
30.50003051757813
 11
132.5
 21
30.50003051757813
  0
LINE
  8
0
  6
CENTER
 62
     7
 10
130
 20
33.00003051757813
 11
130
 21
28.00003051757813
  0
LINE
  8
0
  6
CONTINUOUS
 62
     7
 10
125.5
 20
5.800018310546875
 11
136
 21
5.800018310546875
  0
LINE
  8
0
  6
CONTINUOUS
 62
     7
 10
125.5
 20
35.00003051757813
 11
125.5
 21
5.800018310546875
  0
LINE
  8
0
  6
CONTINUOUS
 62
     7
 10
125.5
 20
35.00003051757813
 11
136
 21
35.00003051757813
  0
LINE
  8
0
  6
CONTINUOUS
 62
     7
 10
234.5000152587891
 20
20
 11
290
 21
20
  0
LINE
  8
0
  6
CONTINUOUS
 62
     7
 10
70
 20
0
 11
290
 21
0
  0
LINE
  8
0
  6
CONTINUOUS
 62
     7
 10
70
 20
20
 11
125.5
 21
20
  0
LINE
  8
0
  6
CONTINUOUS
 62
     7
 10
136.0500183105469
 20
14.55000305175781
 11
224
 21
14.55000305175781
  0
LINE
  8
0
  6
CONTINUOUS
 62
     7
 10
223.1500091552734
 20
40.00002288818359
 11
224
 21
39.15003967285156
  0
LINE
  8
0
  6
CONTINUOUS
 62
     7
 10
136.8500061035156
 20
40.00002288818359
 11
136
 21
39.15001678466797
  0
LINE
  8
0
  6
DASHED
 62
     7
 10
151.9999847412109
 20
32.00004196166992
 11
152.3999786376953
 21
31.30722999572754
  0
LINE
  8
0
  6
DASHED
 62
     7
 10
155.0000305175781
 20
26.4989128112793
 11
152.4000244140625
 21
28.00002670288086
  0
LINE
  8
0
  6
DASHED
 62
     7
 10
154.9999694824219
 20
26.49892234802246
 11
157.5999755859375
 21
28.00004386901856
  0
LINE
  8
0
  6
CENTER
 62
     7
 10
155
 20
41.00003051757813
 11
155
 21
25.67057800292969
  0
LINE
  8
0
  6
DASHED
 62
     7
 10
157.9999847412109
 20
32.00004577636719
 11
157.5999908447266
 21
31.30723381042481
  0
LINE
  8
0
  6
DASHED
 62
     7
 10
152.3999938964844
 20
40.00003051757813
 11
152.3999938964844
 21
28.00003051757813
  0
LINE
  8
0
  6
DASHED
 62
     7
 10
157.6000061035156
 20
40.00003051757813
 11
157.6000061035156
 21
28.00003051757813
  0
LINE
  8
0
  6
DASHED
 62
     7
 10
158
 20
40.00003051757813
 11
158
 21
32.00003051757813
  0
LINE
  8
0
  6
DASHED
 62
     7
 10
152
 20
40.00003051757813
 11
152
 21
32.00003051757813
  0
LINE
  8
0
  6
DASHED
 62
     7
 10
152.3999938964844
 20
28.00003051757813
 11
157.6000061035156
 21
28.00003051757813
  0
LINE
  8
0
  6
CONTINUOUS
 62
     7
 10
224
 20
39.15003967285156
 11
224
 21
5.800033569335938
  0
LINE
  8
0
  6
CONTINUOUS
 62
     7
 10
136.8500061035156
 20
40.00003051757813
 11
223.1499938964844
 21
40.00003051757813
  0
LINE
  8
0
  6
CONTINUOUS
 62
     7
 10
136.2000122070313
 20
6.300075531005859
 11
136.0000152587891
 21
6.500071525573731
  0
LINE
  8
0
  6
CONTINUOUS
 62
     7
 10
136.199951171875
 20
6.300048828125
 11
223.7999420166016
 21
6.300048828125
  0
LINE
  8
0
  6
DASHED
 62
     7
 10
152
 20
32.00003051757813
 11
158
 21
32.00003051757813
  0
LINE
  8
0
  6
CONTINUOUS
 62
     7
 10
136
 20
39.15003967285156
 11
136
 21
5.800033569335938
  0
LINE
  8
0
  6
CONTINUOUS
 62
     7
 10
224
 20
31.75007629394531
 11
136
 21
31.75007629394531
  0
LINE
  8
0
  6
CENTER
 62
     7
 10
-18.99996948242188
 20
31.15000152587891
 11
-18.99996948242188
 21
22.65000152587891
  0
LINE
  8
0
  6
CONTINUOUS
 62
     7
 10
-23.69995880126953
 20
32.99996948242188
 11
-21.69995498657227
 21
34.99996948242188
  0
LINE
  8
0
  6
CONTINUOUS
 62
     7
 10
-23.69998168945313
 20
33
 11
-23.69998168945313
 21
7.800031185150147
  0
LINE
  8
0
  6
CENTER
 62
     7
 10
-14.74996948242188
 20
26.90000152587891
 11
-23.24996948242188
 21
26.90000152587891
  0
LINE
  8
0
  6
CONTINUOUS
 62
     7
 10
-15.32544612884522
 20
5.799999713897705
 11
-11.79996871948242
 21
9.325477600097656
  0
LINE
  8
0
  6
CONTINUOUS
 62
     7
 10
-11.79995727539063
 20
11.78400421142578
 11
-11.79995727539063
 21
9.325477600097656
  0
LINE
  8
0
  6
CONTINUOUS
 62
     7
 10
-14.35011672973633
 20
18.98054695129395
 11
-10.60191440582275
 21
23.00000190734863
  0
LINE
  8
0
  6
CONTINUOUS
 62
     7
 10
-14.35007858276367
 20
14.5186767578125
 11
-11.79995250701904
 21
11.78400135040283
  0
LINE
  8
0
  6
CONTINUOUS
 62
     7
 10
-14.35009765625
 20
18.98053741455078
 11
-14.35009765625
 21
14.51868438720703
  0
LINE
  8
0
  6
CONTINUOUS
 62
     7
 10
-23.69998168945313
 20
7.800032138824463
 11
-21.69997406005859
 21
5.800023078918457
  0
LINE
  8
0
  6
CONTINUOUS
 62
     7
 10
-21.69998168945313
 20
5.800003051757813
 11
-10.80003929138184
 21
5.800003051757813
  0
LINE
  8
0
  6
CENTER
 62
     7
 10
17.5
 20
41
 11
17.5
 21
25.67054748535156
  0
LINE
  8
0
  6
CENTER
 62
     7
 10
205
 20
41.00003051757813
 11
205
 21
25.67057800292969
  0
LINE
  8
0
  6
CENTER
 62
     7
 10
-6.3699951171875
 20
28.5
 11
13.30998229980469
 21
28.5
  0
LINE
  8
0
  6
CONTINUOUS
 62
     7
 10
1.779998779296875
 20
32
 11
5.8599853515625
 21
32
  0
LINE
  8
0
  6
CONTINUOUS
 62
     7
 10
1.779998779296875
 20
25
 11
5.8599853515625
 21
25
  0
LINE
  8
0
  6
CONTINUOUS
 62
     7
 10
1.129988789558411
 20
28.49996185302734
 11
1.779982686042786
 21
24.99996185302734
  0
LINE
  8
0
  6
CONTINUOUS
 62
     7
 10
1.129988551139832
 20
28.49997901916504
 11
1.779979586601257
 21
31.99996376037598
  0
LINE
  8
0
  6
CONTINUOUS
 62
     7
 10
3.440002918243408
 20
28.49995994567871
 11
4.090013980865479
 21
24.99994659423828
  0
LINE
  8
0
  6
CONTINUOUS
 62
     7
 10
3.439975500106812
 20
28.49997329711914
 11
4.089986801147461
 21
31.99998474121094
  0
LINE
  8
0
  6
CONTINUOUS
 62
     7
 10
5.950003623962402
 20
25.46998023986816
 11
5.859991550445557
 21
24.99997711181641
  0
LINE
  8
0
  6
CONTINUOUS
 62
     7
 10
5.950027942657471
 20
31.52000236511231
 11
5.860020160675049
 21
31.9999942779541
  0
LINE
  8
0
  6
CONTINUOUS
 62
     7
 10
7.765949249267578
 20
25.25428771972656
 11
10.51997947692871
 21
25.99996376037598
  0
LINE
  8
0
  6
CONTINUOUS
 62
     7
 10
7.749973773956299
 20
31.74999237060547
 11
10.51998615264893
 21
30.99999046325684
  0
LINE
  8
0
  6
CONTINUOUS
 62
     7
 10
0.0004943119129166007
 20
23.88089179992676
 11
1.947719097137451
 21
25
  0
LINE
  8
0
  6
CONTINUOUS
 62
     7
 10
0.0005125203169882298
 20
23.88090324401856
 11
-4.000514984130859
 21
26.19089889526367
  0
LINE
  8
0
  6
CONTINUOUS
 62
     7
 10
-4.000481605529785
 20
26.19089317321777
 11
-4.000998497009277
 21
30.80999183654785
  0
LINE
  8
0
  6
CONTINUOUS
 62
     7
 10
-4.001014709472656
 20
30.81000137329102
 11
-0.0004913969314657152
 21
33.11911010742188
  0
LINE
  8
0
  6
CONTINUOUS
 62
     7
 10
-0.0005162307643331587
 20
33.11909866333008
 11
1.937822103500366
 21
32
  0
LINE
  8
0
  6
CONTINUOUS
 62
     7
 10
70
 20
18.00264167785645
 11
125.5
 21
18.00264167785645
  0
LINE
  8
0
  6
CONTINUOUS
 62
     7
 10
70
 20
15.4966402053833
 11
125.5
 21
15.4966402053833
  0
LINE
  8
0
  6
CONTINUOUS
 62
     7
 10
70
 20
12.88001441955566
 11
125.5
 21
12.88001441955566
  0
LINE
  8
0
  6
CONTINUOUS
 62
     7
 10
70
 20
7.800075054168701
 11
125.5
 21
7.800075054168701
  0
LINE
  8
0
  6
CONTINUOUS
 62
     7
 10
70
 20
5.100032329559326
 11
290
 21
5.100032329559326
  0
LINE
  8
0
  6
CENTER
 62
     7
 10
90
 20
21
 11
90
 21
-1
  0
LINE
  8
0
  6
DASHED
 62
     7
 10
95.5
 20
11
 11
84.5
 21
11
  0
LINE
  8
0
  6
DASHED
 62
     7
 10
86.5
 20
11
 11
86.5
 21
0
  0
LINE
  8
0
  6
DASHED
 62
     7
 10
95.5
 20
20
 11
95.5
 21
11
  0
LINE
  8
0
  6
DASHED
 62
     7
 10
84.5
 20
20
 11
84.5
 21
11
  0
LINE
  8
0
  6
DASHED
 62
     7
 10
93.5
 20
11
 11
93.5
 21
0
  0
LINE
  8
0
  6
CONTINUOUS
 62
     7
 10
70
 20
20
 11
70
 21
0
  0
LINE
  8
0
  6
CENTER
 62
     7
 10
150
 20
7.300048828125
 11
150
 21
-1
  0
LINE
  8
0
  6
CENTER
 62
     7
 10
210
 20
7.300048828125
 11
210
 21
-1
  0
LINE
  8
0
  6
CENTER
 62
     7
 10
270
 20
21
 11
270
 21
-1
  0
LINE
  8
0
  6
CONTINUOUS
 62
     7
 10
290
 20
20
 11
290
 21
0
  0
LINE
  8
0
  6
CONTINUOUS
 62
     7
 10
290
 20
7.800075054168701
 11
234.5
 21
7.800075054168701
  0
LINE
  8
0
  6
CONTINUOUS
 62
     7
 10
290
 20
18.00264167785645
 11
234.5
 21
18.00264167785645
  0
LINE
  8
0
  6
CONTINUOUS
 62
     7
 10
290
 20
15.4966402053833
 11
234.5
 21
15.4966402053833
  0
LINE
  8
0
  6
CONTINUOUS
 62
     7
 10
290
 20
12.88001441955566
 11
234.5
 21
12.88001441955566
  0
LINE
  8
0
  6
CONTINUOUS
 62
     7
 10
24
 20
38.49997711181641
 11
24
 21
32.00004577636719
  0
LINE
  8
0
  6
CONTINUOUS
 62
     7
 10
24
 20
14.29999732971191
 11
24
 21
8.10004997253418
  0
LINE
  8
0
  6
CENTER
 62
     7
 10
70
 20
124.0000305175781
 11
290
 21
124.0000305175781
  0
LINE
  8
0
  6
CONTINUOUS
 62
     7
 10
125.5
 20
100.3000335693359
 11
136
 21
100.3000335693359
  0
LINE
  8
0
  6
CONTINUOUS
 62
     7
 10
70
 20
112.5000305175781
 11
125.5
 21
112.5000305175781
  0
LINE
  8
0
  6
CONTINUOUS
 62
     7
 10
70
 20
114.4014282226563
 11
115.9687881469727
 21
114.4014282226563
  0
LINE
  8
0
  6
CONTINUOUS
 62
     7
 10
136
 20
100.0000305175781
 11
136
 21
148.0000305175781
  0
LINE
  8
0
  6
CONTINUOUS
 62
     7
 10
70
 20
133.5986328125
 11
125.5
 21
133.5986328125
  0
LINE
  8
0
  6
CONTINUOUS
 62
     7
 10
70
 20
135.5000305175781
 11
125.5
 21
135.5000305175781
  0
LINE
  8
0
  6
CONTINUOUS
 62
     7
 10
125.5
 20
147.7000274658203
 11
136
 21
147.7000274658203
  0
LINE
  8
0
  6
CONTINUOUS
 62
     7
 10
70
 20
112.5000305175781
 11
70
 21
135.5000305175781
  0
LINE
  8
0
  6
CONTINUOUS
 62
     7
 10
125.5
 20
100.3000335693359
 11
125.5
 21
147.7000274658203
  0
LINE
  8
0
  6
CONTINUOUS
 62
     7
 10
224
 20
100.0000305175781
 11
136
 21
100.0000305175781
  0
LINE
  8
0
  6
CONTINUOUS
 62
     7
 10
234.5
 20
100.3000335693359
 11
234.5
 21
147.7000274658203
  0
LINE
  8
0
  6
CONTINUOUS
 62
     7
 10
234.5
 20
147.7000274658203
 11
224
 21
147.7000274658203
  0
LINE
  8
0
  6
CONTINUOUS
 62
     7
 10
290
 20
135.5000305175781
 11
234.5
 21
135.5000305175781
  0
LINE
  8
0
  6
CONTINUOUS
 62
     7
 10
290
 20
112.5000305175781
 11
290
 21
135.5000305175781
  0
LINE
  8
0
  6
CONTINUOUS
 62
     7
 10
224
 20
148.0000305175781
 11
136
 21
148.0000305175781
  0
LINE
  8
0
  6
CONTINUOUS
 62
     7
 10
224
 20
100.0000305175781
 11
224
 21
148.0000305175781
  0
LINE
  8
0
  6
CONTINUOUS
 62
     7
 10
290
 20
114.4014282226563
 11
234.5
 21
114.4014282226563
  0
LINE
  8
0
  6
CONTINUOUS
 62
     7
 10
290
 20
133.5986328125
 11
234.5
 21
133.5986328125
  0
LINE
  8
0
  6
CONTINUOUS
 62
     7
 10
290
 20
112.5000305175781
 11
234.5
 21
112.5000305175781
  0
LINE
  8
0
  6
CONTINUOUS
 62
     7
 10
234.5
 20
100.3000335693359
 11
224
 21
100.3000335693359
  0
LINE
  8
0
  6
CENTER
 62
     7
 10
90
 20
130.5000305175781
 11
90
 21
117.5000305175781
  0
LINE
  8
0
  6
CENTER
 62
     7
 10
150
 20
130.5000305175781
 11
150
 21
117.5000305175781
  0
LINE
  8
0
  6
CENTER
 62
     7
 10
210
 20
130.5000305175781
 11
210
 21
117.5000305175781
  0
LINE
  8
0
  6
CENTER
 62
     7
 10
270
 20
130.5000305175781
 11
270
 21
117.5000305175781
  0
LINE
  8
0
  6
CONTINUOUS
 62
     7
 10
136
 20
115.1500701904297
 11
224
 21
115.1500701904297
  0
LINE
  8
0
  6
CONTINUOUS
 62
     7
 10
136
 20
132.8499908447266
 11
224
 21
132.8499908447266
  0
LINE
  8
0
  6
CENTER
 62
     7
 10
155
 20
110.5000305175781
 11
155
 21
102.5000305175781
  0
LINE
  8
0
  6
CENTER
 62
     7
 10
151
 20
106.5000305175781
 11
159
 21
106.5000305175781
  0
LINE
  8
0
  6
CENTER
 62
     7
 10
201
 20
106.5000305175781
 11
209
 21
106.5000305175781
  0
LINE
  8
0
  6
CENTER
 62
     7
 10
205
 20
110.5000305175781
 11
205
 21
102.5000305175781
  0
LINE
  8
0
  6
CENTER
 62
     7
 10
155
 20
110.5000305175781
 11
155
 21
102.5000305175781
  0
LINE
  8
0
  6
CENTER
 62
     7
 10
209
 20
106.5000305175781
 11
201
 21
106.5000305175781
  0
LINE
  8
0
  6
CENTER
 62
     7
 10
159
 20
106.5000305175781
 11
151
 21
106.5000305175781
  0
LINE
  8
0
  6
CENTER
 62
     7
 10
205
 20
110.5000305175781
 11
205
 21
102.5000305175781
  0
LINE
  8
0
  6
CENTER
 62
     7
 10
155
 20
137.5000305175781
 11
155
 21
145.5000305175781
  0
LINE
  8
0
  6
CENTER
 62
     7
 10
209
 20
141.5000305175781
 11
201
 21
141.5000305175781
  0
LINE
  8
0
  6
CENTER
 62
     7
 10
205
 20
137.5000305175781
 11
205
 21
145.5000305175781
  0
LINE
  8
0
  6
CENTER
 62
     7
 10
159
 20
141.5000305175781
 11
151
 21
141.5000305175781
  0
LINE
  8
0
  6
CONTINUOUS
 62
     7
 10
125.3000183105469
 20
120.0000152587891
 11
125.3000183105469
 21
128.0000152587891
  0
LINE
  8
0
  6
CONTINUOUS
 62
     7
 10
122.0001068115234
 20
128.0000305175781
 11
125.3000183105469
 21
128.0000305175781
  0
LINE
  8
0
  6
CONTINUOUS
 62
     7
 10
123.6201324462891
 20
120.0000305175781
 11
125.3000183105469
 21
120.0000305175781
  0
LINE
  8
0
  6
CONTINUOUS
 62
     7
 10
118.0001068115234
 20
124.0000305175781
 11
118.0001068115234
 21
122.3279113769531
  0
LINE
  8
0
  6
CONTINUOUS
 62
     7
 10
125.3000030517578
 20
128.0000305175781
 11
125.5
 21
128.0000305175781
  0
LINE
  8
0
  6
CONTINUOUS
 62
     7
 10
125.3000030517578
 20
120.0000305175781
 11
125.5
 21
120.0000305175781
  0
LINE
  8
0
  6
CENTER
 62
     7
 10
117.5518646240234
 20
112.4779052734375
 11
122.4171676635742
 21
124.2237930297852
  0
LINE
  8
0
  6
CONTINUOUS
 62
     7
 10
115.7827835083008
 20
114.4784622192383
 11
120.217414855957
 21
112.6415863037109
  0
LINE
  8
0
  6
CONTINUOUS
 62
     7
 10
115.9845504760742
 20
117.3173675537109
 11
122.082145690918
 21
114.7916564941406
  0
LINE
  8
0
  6
CONTINUOUS
 62
     7
 10
115.7827835083008
 20
114.4784774780273
 11
115.9845428466797
 21
117.3173751831055
  0
LINE
  8
0
  6
CONTINUOUS
 62
     7
 10
120.217414855957
 20
112.6415939331055
 11
122.082160949707
 21
114.7916641235352
  0
LINE
  8
0
  6
CONTINUOUS
 62
     7
 10
116.723258972168
 20
121.038215637207
 11
117.1379318237305
 21
122.0392913818359
  0
LINE
  8
0
  6
CONTINUOUS
 62
     7
 10
124.1908569335938
 20
117.9450454711914
 11
124.6055068969727
 21
118.9461059570313
  0
LINE
  8
0
  6
CONTINUOUS
 62
     7
 10
117.917366027832
 20
122.3621292114258
 11
117.1379318237305
 21
122.0392684936523
  0
LINE
  8
0
  6
CONTINUOUS
 62
     7
 10
118.3605575561523
 20
119.7106323242188
 11
119.2331390380859
 21
121.8171997070313
  0
LINE
  8
0
  6
CONTINUOUS
 62
     7
 10
122.0943374633789
 20
118.1640396118164
 11
122.966911315918
 21
120.2706069946289
  0
LINE
  8
0
  6
CONTINUOUS
 62
     7
 10
117.9173812866211
 20
122.3621826171875
 11
124.2826843261719
 21
119.7255859375
  0
LINE
  8
0
  6
CONTINUOUS
 62
     7
 10
124.6055068969727
 20
118.9460830688477
 11
124.2826461791992
 21
119.7255401611328
  0
LINE
  8
0
  6
CONTINUOUS
 62
     7
 10
117.1148223876953
 20
118.7395248413086
 11
122.2885360717773
 21
116.5964889526367
  0
LINE
  8
0
  6
CONTINUOUS
 62
     7
 10
116.9530563354492
 20
120.2936325073242
 11
123.4101181030273
 21
117.6190338134766
  0
LINE
  8
0
  6
CONTINUOUS
 62
     7
 10
121.7437133789063
 20
114.4014282226563
 11
125.5
 21
114.4014282226563
  0
ARC
  8
0
  6
CONTINUOUS
 62
     7
 10
9.299957275390625
 20
12.67288208007813
 40
0.5000000000000002
 50
135.0000003416226
 51
180.0000050089563
  0
ARC
  8
0
  6
CONTINUOUS
 62
     7
 10
11
 20
4.892913818359375
 40
0.5
 50
0
 51
45.00000125223906
  0
ARC
  8
0
  6
CONTINUOUS
 62
     7
 10
4.364166259765625
 20
0.8000030517578125
 40
1
 50
224.9999996583774
 51
233.1303972991721
  0
ARC
  8
0
  6
CONTINUOUS
 62
     7
 10
9.685699462890625
 20
0.8000030517578125
 40
0.9999999999999998
 50
306.869898220195
 51
315.0000021628555
  0
ARC
  8
0
  6
CONTINUOUS
 62
     7
 10
9.3232421875
 20
19.70001220703125
 40
0.3000000119209296
 50
8.382590423066088
 51
89.99999567428907
  0
ARC
  8
0
  6
CONTINUOUS
 62
     7
 10
11.20010375976563
 20
17.73976135253906
 40
0.3000000119209283
 50
359.9999949910435
 51
79.12878655354065
  0
ARC
  8
0
  6
CONTINUOUS
 62
     7
 10
11.6422119140625
 20
20.04173278808594
 40
2.044034957885742
 50
188.382590536752
 51
259.1287883747736
  0
ARC
  8
0
  6
CONTINUOUS
 62
     7
 10
11.20010375976563
 20
15.759521484375
 40
0.3000000119209281
 50
280.8713432200535
 51
5.008956135492814E-006
  0
ARC
  8
0
  6
CONTINUOUS
 62
     7
 10
9.328369140625
 20
13.83267211914063
 40
0.300000011920929
 50
314.9999987477607
 51
350.7910932911453
  0
ARC
  8
0
  6
CONTINUOUS
 62
     7
 10
11.6422119140625
 20
13.45755004882813
 40
2.044034957885742
 50
100.8713413988207
 51
170.7910931774599
  0
ARC
  8
0
  6
CONTINUOUS
 62
     7
 10
3.0428466796875
 20
1.52587890625E-005
 40
0.5
 50
45.00000125223908
 51
90.00000250447816
  0
ARC
  8
0
  6
CONTINUOUS
 62
     7
 10
10.69998168945313
 20
1.814239501953125
 40
1
 50
315.0000021628555
 51
323.1301026904213
  0
ARC
  8
0
  6
CONTINUOUS
 62
     7
 10
-11
 20
4.89288330078125
 40
0.5000000000000002
 50
135.0000003416226
 51
180.0000050089563
  0
ARC
  8
0
  6
CONTINUOUS
 62
     7
 10
-9.29998779296875
 20
8.007110595703125
 40
0.5000000000000003
 50
314.999998747761
 51
0
  0
ARC
  8
0
  6
CONTINUOUS
 62
     7
 10
-9.29998779296875
 20
12.67291259765625
 40
0.5
 50
0
 51
45.00000125223906
  0
ARC
  8
0
  6
CONTINUOUS
 62
     7
 10
-4.36419677734375
 20
0.8000030517578125
 40
1
 50
306.8698982201951
 51
314.9999987477609
  0
ARC
  8
0
  6
CONTINUOUS
 62
     7
 10
-9.685791015625
 20
0.8000030517578125
 40
1
 50
224.9999996583774
 51
233.1303972991721
  0
ARC
  8
0
  6
CONTINUOUS
 62
     7
 10
-9.3232421875
 20
19.70001220703125
 40
0.3000000119209292
 50
90.00000250447825
 51
171.6174094632482
  0
ARC
  8
0
  6
CONTINUOUS
 62
     7
 10
-11.20013427734375
 20
17.73976135253906
 40
0.3000000119209295
 50
100.8712116252263
 51
180.0000050089565
  0
ARC
  8
0
  6
CONTINUOUS
 62
     7
 10
-11.6422119140625
 20
20.04173278808594
 40
2.044034957885742
 50
280.8712134464593
 51
351.6174078693863
  0
ARC
  8
0
  6
CONTINUOUS
 62
     7
 10
-11.20013427734375
 20
15.759521484375
 40
0.3000000119209288
 50
179.9999913485781
 51
259.1286617889027
  0
ARC
  8
0
  6
CONTINUOUS
 62
     7
 10
-9.328369140625
 20
13.83267211914063
 40
0.3000000119209286
 50
189.2089068225401
 51
224.9999996583774
  0
ARC
  8
0
  6
CONTINUOUS
 62
     7
 10
-11.6422119140625
 20
13.45755004882813
 40
2.044034957885743
 50
9.208904147533595
 51
79.12865677994648
  0
ARC
  8
0
  6
CONTINUOUS
 62
     7
 10
-3.04290771484375
 20
1.52587890625E-005
 40
0.5
 50
90.00000250447816
 51
135.0000003416227
  0
ARC
  8
0
  6
CONTINUOUS
 62
     7
 10
-10.70004272460938
 20
1.814239501953125
 40
0.9999999999999997
 50
216.8699025459061
 51
224.9999996583774
  0
ARC
  8
0
  6
CONTINUOUS
 62
     7
 10
9.299957275390625
 20
8.007179260253906
 40
0.5000000000000003
 50
179.999991348578
 51
224.9999960159116
  0
ARC
  8
0
  6
CONTINUOUS
 62
     7
 10
9.32318115234375
 20
19.69999694824219
 40
0.2999999821186067
 50
8.382590423066535
 51
89.99999567428898
  0
ARC
  8
0
  6
CONTINUOUS
 62
     7
 10
-9.514251708984375
 20
39.25
 40
1.000000000000001
 50
45.00000125223906
 51
48.59038581210469
  0
ARC
  8
0
  6
CONTINUOUS
 62
     7
 10
9.51416015625
 20
39.25
 40
0.9999999999999983
 50
131.4096157817572
 51
135.0000003416228
  0
ARC
  8
0
  6
CONTINUOUS
 62
     7
 10
-23.14999389648438
 20
8.714218139648438
 40
0.9999999999999999
 50
211.788337426065
 51
224.9999996583774
  0
ARC
  8
0
  6
CONTINUOUS
 62
     7
 10
-8.142852783203125
 20
40
 40
0.4999999999999991
 50
224.9999996583772
 51
269.9999974955217
  0
ARC
  8
0
  6
CONTINUOUS
 62
     7
 10
-24.05001831054688
 20
31.62576293945313
 40
0.300000011920929
 50
0
 51
45.00000125223906
  0
ARC
  8
0
  6
CONTINUOUS
 62
     7
 10
-23.14999389648438
 20
8.714218139648438
 40
0.9999999999999999
 50
211.788337426065
 51
224.9999996583774
  0
ARC
  8
0
  6
CONTINUOUS
 62
     7
 10
-24.05001831054688
 20
14.67424774169922
 40
0.300000011920929
 50
314.9999987477607
 51
0
  0
ARC
  8
0
  6
CONTINUOUS
 62
     7
 10
8.142852783203125
 20
40
 40
0.5000000000000004
 50
269.9999974955217
 51
314.999998747761
  0
ARC
  8
0
  6
CONTINUOUS
 62
     7
 10
24.05001831054688
 20
14.67425537109375
 40
0.3000000119209288
 50
179.9999913485781
 51
224.9999960159118
  0
ARC
  8
0
  6
CONTINUOUS
 62
     7
 10
122.3001098632813
 20
28.50009155273438
 40
3.982465744018556
 50
241.5040862782025
 51
269.9999087030625
  0
ARC
  8
0
  6
CONTINUOUS
 62
     7
 10
122.3001098632813
 20
28.50009155273438
 40
3.999999999999998
 50
89.99998201391055
 51
118.4958044387707
  0
CIRCLE
  8
0
  6
CONTINUOUS
 62
     7
 10
130
 20
30.50003051757813
 40
0.5195000171661377
  0
CIRCLE
  8
0
  6
CONTINUOUS
 62
     7
 10
130
 20
30.50003051757813
 40
1.5
  0
CIRCLE
  8
0
  6
CONTINUOUS
 62
     7
 10
-18.99996948242188
 20
26.90000152587891
 40
1.25
  0
ARC
  8
0
  6
CONTINUOUS
 62
     7
 10
7.610000610351563
 20
26.20999145507813
 40
0.9683421850204466
 50
215.3314570768741
 51
278.2972225067941
  0
ARC
  8
0
  6
CONTINUOUS
 62
     7
 10
6.620010375976563
 20
24.41999816894531
 40
1.246148109436035
 50
80.76452806729958
 51
142.1250351177266
  0
ARC
  8
0
  6
CONTINUOUS
 62
     7
 10
6.620010375976563
 20
32.58000183105469
 40
1.254199028015136
 50
217.8749648822735
 51
279.2353626496737
  0
ARC
  8
0
  6
CONTINUOUS
 62
     7
 10
7.610000610351563
 20
30.78999328613281
 40
0.9701611399650563
 50
81.7028867762326
 51
144.668542923126
  0
ARC
  8
0
  6
CONTINUOUS
 62
     7
 10
0
 20
28.5
 40
4
 50
240.0000239814524
 51
241.0449882829511
  0
ARC
  8
0
  6
CONTINUOUS
 62
     7
 10
0
 20
28.5
 40
3.998106002807619
 50
61.09402038976974
 51
298.9059076658729
  0
CIRCLE
  8
0
  6
CONTINUOUS
 62
     7
 10
90
 20
124.0000305175781
 40
3.5
  0
CIRCLE
  8
0
  6
CONTINUOUS
 62
     7
 10
90
 20
124.0000305175781
 40
5.5
  0
CIRCLE
  8
0
  6
CONTINUOUS
 62
     7
 10
155
 20
106.5000305175781
 40
2.600006103515625
  0
CIRCLE
  8
0
  6
CONTINUOUS
 62
     7
 10
155
 20
106.5000305175781
 40
3
  0
ARC
  8
0
  6
CONTINUOUS
 62
     7
 10
119.0333557128906
 20
116.0545043945313
 40
3.299999237060547
 50
131.5803705110074
 51
157.4999548639652
  0
ARC
  8
0
  6
CONTINUOUS
 62
     7
 10
119.0333557128906
 20
116.0545043945313
 40
3.29999923706055
 50
337.5000181569006
 51
3.419602296415172
  0
ARC
  8
0
  6
CONTINUOUS
 62
     7
 10
111.1170043945313
 20
118.9006042480469
 40
5.999999999999996
 50
2.433650829345525
 51
20.87173987704918
  0
ARC
  8
0
  6
CONTINUOUS
 62
     7
 10
126.6435394287109
 20
112.4692993164063
 40
6.000000000000004
 50
114.1278165022774
 51
132.5663219780771
  0
ARC
  8
0
  6
CONTINUOUS
 62
     7
 10
116.3123016357422
 20
119.1213989257813
 40
0.7999999523162822
 50
311.5798327472963
 51
2.433049772698627
  0
ARC
  8
0
  6
CONTINUOUS
 62
     7
 10
123.1260375976563
 20
116.2990570068359
 40
0.7999999523162843
 50
132.566977676238
 51
183.4201402735703
  0
ARC
  8
0
  6
CONTINUOUS
 62
     7
 10
122.0001068115234
 20
124.0000305175781
 40
3.999999999999998
 50
89.99998201391055
 51
180.0000186693347
  0
POLYLINE
  8
0
  6
CONTINUOUS
 62
     7
 66
     1
 10
0
 20
0
  0
VERTEX
  8
0
  6
CONTINUOUS
 62
     7
 10
116.8760261421202
 20
26.31897838974832
 42
0.06283213418168554
  0
VERTEX
  8
0
  6
CONTINUOUS
 62
     7
 10
117.4403251794601
 20
25.79280629343996
 42
0.06649696782206999
  0
VERTEX
  8
0
  6
CONTINUOUS
 62
     7
 10
118.1203258266976
 20
25.42830184468945
 42
0.06915530640486271
  0
VERTEX
  8
0
  6
CONTINUOUS
 62
     7
 10
118.8726806266227
 20
25.25944309224327
 42
0.06975292789615571
  0
VERTEX
  8
0
  6
CONTINUOUS
 62
     7
 10
119.6414357087889
 20
25.30344054724819
 42
0.06816351238708743
  0
VERTEX
  8
0
  6
CONTINUOUS
 62
     7
 10
120.3692794539654
 20
25.55526181083197
 42
0.06499588736579127
  0
VERTEX
  8
0
  6
CONTINUOUS
 62
     7
 10
121.0058455054261
 20
25.99009301547482
 42
0.06129088363911577
  0
VERTEX
  8
0
  6
CONTINUOUS
 62
     7
 10
121.5139033900205
 20
26.57019388680654
 42
0.0580795888015753
  0
VERTEX
  8
0
  6
CONTINUOUS
 62
     7
 10
121.870900949283
 20
27.25418779559408
 42
0.05590536149023242
  0
VERTEX
  8
0
  6
CONTINUOUS
 62
     7
 10
122.0645601335374
 20
28.00133178754389
 42
0.0549637679286892
  0
VERTEX
  8
0
  6
CONTINUOUS
 62
     7
 10
122.0895754646026
 20
28.77205443087426
 42
0.05547385381163144
  0
VERTEX
  8
0
  6
CONTINUOUS
 62
     7
 10
121.9454968684942
 20
29.52994395442428
 42
0.05728039135585237
  0
VERTEX
  8
0
  6
CONTINUOUS
 62
     7
 10
121.6360876432252
 20
30.23638599151236
 42
0.06026827515032552
  0
VERTEX
  8
0
  6
CONTINUOUS
 62
     7
 10
121.1708490214824
 20
30.85169549691443
 42
0.06395242811427544
  0
VERTEX
  8
0
  6
CONTINUOUS
 62
     7
 10
120.5686427987917
 20
31.33407454868568
 42
0.06744494178857585
  0
VERTEX
  8
0
  6
CONTINUOUS
 62
     7
 10
119.8619855502189
 20
31.64353696967464
 42
0.06944155422162872
  0
VERTEX
  8
0
  6
CONTINUOUS
 62
     7
 10
119.10009765625
 20
31.75009155273438
 42
0
  0
SEQEND
  8
0
  0
POLYLINE
  8
0
  6
CONTINUOUS
 62
     7
 66
     1
 10
0
 20
0
  0
VERTEX
  8
0
  6
CONTINUOUS
 62
     7
 10
119.10009765625
 20
31.75009155273438
 42
0.01434916522131729
  0
VERTEX
  8
0
  6
CONTINUOUS
 62
     7
 10
118.9412165738622
 20
31.74553057551154
 42
0.01426051712382774
  0
VERTEX
  8
0
  6
CONTINUOUS
 62
     7
 10
118.7836054645597
 20
31.73195527332156
 42
0.01417564288734625
  0
VERTEX
  8
0
  6
CONTINUOUS
 62
     7
 10
118.6275063297327
 20
31.70951267342177
 42
0.01415084163370547
  0
VERTEX
  8
0
  6
CONTINUOUS
 62
     7
 10
118.4725440881155
 20
31.6781894922323
 42
0.01410156072739333
  0
VERTEX
  8
0
  6
CONTINUOUS
 62
     7
 10
118.3192820080687
 20
31.6380820075786
 42
0.01402956434708829
  0
VERTEX
  8
0
  6
CONTINUOUS
 62
     7
 10
118.1682650749179
 20
31.5893380366719
 42
0.01393699154218852
  0
VERTEX
  8
0
  6
CONTINUOUS
 62
     7
 10
118.0200145113135
 20
31.53215272309647
 42
0.01382627909829241
  0
VERTEX
  8
0
  6
CONTINUOUS
 62
     7
 10
117.8750231574197
 20
31.46676354680999
 42
0.01370007684472442
  0
VERTEX
  8
0
  6
CONTINUOUS
 62
     7
 10
117.7337518282652
 20
31.39344477467594
 42
0.01356116105664808
  0
VERTEX
  8
0
  6
CONTINUOUS
 62
     7
 10
117.596626712216
 20
31.31250158573047
 42
0.01332240669446836
  0
VERTEX
  8
0
  6
CONTINUOUS
 62
     7
 10
117.4649165312044
 20
31.22488321602758
 42
0.01328784039951894
  0
VERTEX
  8
0
  6
CONTINUOUS
 62
     7
 10
117.3368954767181
 20
31.12952005472972
 42
0.01315490948590202
  0
VERTEX
  8
0
  6
CONTINUOUS
 62
     7
 10
117.213843034069
 20
31.0273146409112
 42
0.01293837558473162
  0
VERTEX
  8
0
  6
CONTINUOUS
 62
     7
 10
117.0967986162144
 20
30.91930020434168
 42
0.01278038768568914
  0
VERTEX
  8
0
  6
CONTINUOUS
 62
     7
 10
116.9854620800347
 20
30.80541109556901
 42
0.01262538015441305
  0
VERTEX
  8
0
  6
CONTINUOUS
 62
     7
 10
116.8800525494028
 20
30.68601388559353
 42
0
  0
SEQEND
  8
0
  0
POLYLINE
  8
0
  6
CONTINUOUS
 62
     7
 66
     1
 10
0
 20
0
 70
     1
  0
VERTEX
  8
0
  6
CONTINUOUS
 62
     7
 10
118.0000610351563
 20
31.00009155273438
 42
0.110378866714189
  0
VERTEX
  8
0
  6
CONTINUOUS
 62
     7
 10
117.0879018532056
 20
30.79507257152832
 42
0.1025060965774807
  0
VERTEX
  8
0
  6
CONTINUOUS
 62
     7
 10
116.3405677275597
 20
30.23106019758234
 42
0.0932894513509584
  0
VERTEX
  8
0
  6
CONTINUOUS
 62
     7
 10
115.862963069098
 20
29.42416451106515
 42
0.08782100737241405
  0
VERTEX
  8
0
  6
CONTINUOUS
 62
     7
 10
115.7000732421875
 20
28.50006103515625
 42
0.08777565149881539
  0
VERTEX
  8
0
  6
CONTINUOUS
 62
     7
 10
115.8628042578467
 20
27.57644130847557
 42
0.09326211158879373
  0
VERTEX
  8
0
  6
CONTINUOUS
 62
     7
 10
116.3401139702775
 20
26.76963984046104
 42
0.1026295993033237
  0
VERTEX
  8
0
  6
CONTINUOUS
 62
     7
 10
117.0883307359133
 20
26.20491723120021
 42
0.1103290420482765
  0
VERTEX
  8
0
  6
CONTINUOUS
 62
     7
 10
118.0001220703125
 20
26.00009155273437
 42
0.1103773010443691
  0
VERTEX
  8
0
  6
CONTINUOUS
 62
     7
 10
118.9122823113417
 20
26.20510694912496
 42
0.1025068237340553
  0
VERTEX
  8
0
  6
CONTINUOUS
 62
     7
 10
119.6596194865271
 20
26.76911514473092
 42
0.09329107463295672
  0
VERTEX
  8
0
  6
CONTINUOUS
 62
     7
 10
120.1372243530014
 20
27.57601046791525
 42
0.08781957860579827
  0
VERTEX
  8
0
  6
CONTINUOUS
 62
     7
 10
120.3001098632813
 20
28.50009155273438
 42
0.08777405615749749
  0
VERTEX
  8
0
  6
CONTINUOUS
 62
     7
 10
120.1373781832954
 20
29.4237112995291
 42
0.0932594071614189
  0
VERTEX
  8
0
  6
CONTINUOUS
 62
     7
 10
119.6600750877745
 20
30.23051703501973
 42
0.1026283769204145
  0
VERTEX
  8
0
  6
CONTINUOUS
 62
     7
 10
118.9118676058563
 20
30.79525246620503
 42
0.1103336632663562
  0
SEQEND
  8
0
  0
POLYLINE
  8
0
  6
CONTINUOUS
 62
     7
 66
     1
 10
0
 20
0
  0
VERTEX
  8
0
  6
CONTINUOUS
 62
     7
 10
6.819992065429688
 20
31.3499755859375
 42
0.1885745464292788
  0
VERTEX
  8
0
  6
CONTINUOUS
 62
     7
 10
6.460261538522269
 20
31.19028703984911
 42
0.07574466113821897
  0
VERTEX
  8
0
  6
CONTINUOUS
 62
     7
 10
6.216026985965466
 20
30.87245062832676
 42
0.03933594534519085
  0
VERTEX
  8
0
  6
CONTINUOUS
 62
     7
 10
6.046165317503697
 20
30.50711706913912
 42
0.02577125752717286
  0
VERTEX
  8
0
  6
CONTINUOUS
 62
     7
 10
5.924010893244023
 20
30.12296641807139
 42
0.01950521772353509
  0
VERTEX
  8
0
  6
CONTINUOUS
 62
     7
 10
5.836520256462827
 20
29.72875464113596
 42
0.0162146106057349
  0
VERTEX
  8
0
  6
CONTINUOUS
 62
     7
 10
5.777160254708038
 20
29.32916366168362
 42
0.01446653763776212
  0
VERTEX
  8
0
  6
CONTINUOUS
 62
     7
 10
5.74229278684315
 20
28.92663897834304
 42
0.01369126526825587
  0
VERTEX
  8
0
  6
CONTINUOUS
 62
     7
 10
5.730044907543697
 20
28.5224948995088
 42
0.01360481565905638
  0
VERTEX
  8
0
  6
CONTINUOUS
 62
     7
 10
5.739761797781866
 20
28.11964974889296
 42
0.01431525852916586
  0
VERTEX
  8
0
  6
CONTINUOUS
 62
     7
 10
5.771912195952455
 20
27.71739843680845
 42
0.01598185402868817
  0
VERTEX
  8
0
  6
CONTINUOUS
 62
     7
 10
5.828423911626819
 20
27.31658057188146
 42
0.0190267548397789
  0
VERTEX
  8
0
  6
CONTINUOUS
 62
     7
 10
5.912486364333772
 20
26.92142739773305
 42
0.02487977718038538
  0
VERTEX
  8
0
  6
CONTINUOUS
 62
     7
 10
6.03050285131564
 20
26.5350316284218
 42
0.03729615370148749
  0
VERTEX
  8
0
  6
CONTINUOUS
 62
     7
 10
6.194578623268982
 20
26.16584860095528
 42
0.06998284816479604
  0
VERTEX
  8
0
  6
CONTINUOUS
 62
     7
 10
6.430164842897742
 20
25.83851861784649
 42
0.1738206340214664
  0
VERTEX
  8
0
  6
CONTINUOUS
 62
     7
 10
6.779932678960284
 20
25.6519216751302
 42
0
  0
SEQEND
  8
0
  0
POLYLINE
  8
0
  6
CONTINUOUS
 62
     7
 66
     1
 10
0
 20
0
 70
     1
  0
VERTEX
  8
0
  6
CONTINUOUS
 62
     7
 10
10.52000427246094
 20
31
 42
0.2551592727856527
  0
VERTEX
  8
0
  6
CONTINUOUS
 62
     7
 10
9.990194421972644
 20
30.57511190027379
 42
0.06319138472290355
  0
VERTEX
  8
0
  6
CONTINUOUS
 62
     7
 10
9.736099333476973
 20
29.9122252544633
 42
0.03518638918172878
  0
VERTEX
  8
0
  6
CONTINUOUS
 62
     7
 10
9.609369637790104
 20
29.21217549301894
 42
0.0279853126153652
  0
VERTEX
  8
0
  6
CONTINUOUS
 62
     7
 10
9.57000732421875
 20
28.5
 42
0.02789942790997536
  0
VERTEX
  8
0
  6
CONTINUOUS
 62
     7
 10
9.609140981222661
 20
27.78985243969201
 42
0.03516017990497822
  0
VERTEX
  8
0
  6
CONTINUOUS
 62
     7
 10
9.735634869873794
 20
27.08956192317742
 42
0.06315573245377605
  0
VERTEX
  8
0
  6
CONTINUOUS
 62
     7
 10
9.989666863013211
 20
26.42582168183449
 42
0.2552844263599811
  0
VERTEX
  8
0
  6
CONTINUOUS
 62
     7
 10
10.52000427246094
 20
26
 42
0.2551594730478418
  0
VERTEX
  8
0
  6
CONTINUOUS
 62
     7
 10
11.04981459858741
 20
26.42488747333301
 42
0.06319156037851795
  0
VERTEX
  8
0
  6
CONTINUOUS
 62
     7
 10
11.30390981534024
 20
27.08777405749937
 42
0.035186473565797
  0
VERTEX
  8
0
  6
CONTINUOUS
 62
     7
 10
11.4306393075316
 20
27.7878238524152
 42
0.02798539198551069
  0
VERTEX
  8
0
  6
CONTINUOUS
 62
     7
 10
11.47000122070313
 20
28.5
 42
0.02789946216538289
  0
VERTEX
  8
0
  6
CONTINUOUS
 62
     7
 10
11.4308677871041
 20
29.2101475710854
 42
0.03516022448295442
  0
VERTEX
  8
0
  6
CONTINUOUS
 62
     7
 10
11.3043740106433
 20
29.91043810603362
 42
0.06315580443697305
  0
VERTEX
  8
0
  6
CONTINUOUS
 62
     7
 10
11.05034197507806
 20
30.57417832508457
 42
0.2552843239603432
  0
SEQEND
  8
0
  0
TEXT
  8
0
  6
CONTINUOUS
 62
     7
 10
-11.28550004959106
 20
-31.79999995231628
 40
3.599999904632568
 41
0.8463235853572091
  1
ＳＨＳ２５ＬＲ
  0
ENDSEC
  0
EOF
