  0
SECTION
  2
HEADER
  0
ENDSEC
  0
SECTION
  2
TABLES
  0
TABLE
  2
LTYPE
 70
    22
  0
LTYPE
  2
CONTINUOUS
 70
    64
  3
Solid line
 72
    65
 73
     0
 40
0.000000
  0
LTYPE
  2
DASHED
 70
    64
  3
__ __ __ __ __ __ __ __ __ __ __ __ __ __ __
 72
    65
 73
     2
 40
3.500000
 49
2.000000
 49
-1.500000
  0
LTYPE
  2
CENTER
 70
    64
  3
____ _ ____ _ ____ _ ____ _ ____ _ ____ _ ____
 72
    65
 73
     4
 40
17.500000
 49
13.000000
 49
-1.500000
 49
1.500000
 49
-1.500000
  0
LTYPE
  2
PHANTOM
 70
    64
  3
_____ _ _ _____ _ _ _____ _ _ _____ _ _ ____  
 72
    65
 73
     6
 40
15.500000
 49
8.000000
 49
-1.500000
 49
1.500000
 49
-1.500000
 49
1.500000
 49
-1.500000
  0
LTYPE
  2
DOT
 70
    64
  3
. . . . . . . . . . . . . . . . . . . . . . . .
 72
    65
 73
     2
 40
0.25
 49
0.0
 49
-0.25
  0
ENDTAB
  0
TABLE
  2
LAYER
 70
     1
  0
LAYER
  2
0
 70
     0
 62
     7
  6
CONTINUOUS
  0
ENDTAB
  0
TABLE
  2
STYLE
 70
     1
  0
STYLE
  2
STANDARD
 70
     0
 40
0.000000
 41
1.000000
 50
0.000000
 71
     0
 42
0.200000
  3
txt
  0
ENDTAB
  0
TABLE
  2
VIEW
 70
     0
  0
ENDTAB
  0
ENDSEC
  0
SECTION
  2
BLOCKS
  0
ENDSEC
  0
SECTION
  2
ENTITIES
  0
LINE
  8
0
  6
CENTER
 62
     7
 10
199.0999755859375
 20
36.00002288818359
 11
189.8999786376953
 21
36.00002288818359
  0
LINE
  8
0
  6
CONTINUOUS
 62
     7
 10
187
 20
41.00001525878906
 11
187
 21
7.000007629394531
  0
LINE
  8
0
  6
CONTINUOUS
 62
     7
 10
187
 20
41.00001525878906
 11
200.0000305175781
 21
41.00001525878906
  0
LINE
  8
0
  6
CENTER
 62
     7
 10
194.5
 20
40.60002136230469
 11
194.5
 21
31.4000244140625
  0
LINE
  8
0
  6
CENTER
 62
     7
 10
196.4999694824219
 20
37.50002288818359
 11
192.4999847412109
 21
37.50002288818359
  0
LINE
  8
0
  6
CENTER
 62
     7
 10
175.7001037597656
 20
34.00000762939453
 11
191.300048828125
 21
34.00000762939453
  0
LINE
  8
0
  6
CONTINUOUS
 62
     7
 10
184.3000183105469
 20
38.00001525878906
 11
187
 21
38.00001525878906
  0
LINE
  8
0
  6
CONTINUOUS
 62
     7
 10
185.4000244140625
 20
30.50001525878906
 11
180.2000122070313
 21
30.50001525878906
  0
LINE
  8
0
  6
CONTINUOUS
 62
     7
 10
186.9000396728516
 20
34.00001525878906
 11
185.4000396728516
 21
30.5000171661377
  0
LINE
  8
0
  6
CONTINUOUS
 62
     7
 10
186.0001220703125
 20
34
 11
184.4001159667969
 21
30.50000381469727
  0
LINE
  8
0
  6
CONTINUOUS
 62
     7
 10
180.1999969482422
 20
30.5000171661377
 11
179.7999725341797
 21
31.08004760742188
  0
LINE
  8
0
  6
CONTINUOUS
 62
     7
 10
180.1999816894531
 20
37.49995803833008
 11
179.7999877929688
 21
36.91994094848633
  0
LINE
  8
0
  6
CONTINUOUS
 62
     7
 10
185.4000244140625
 20
37.50002288818359
 11
180.2000122070313
 21
37.50002288818359
  0
LINE
  8
0
  6
CONTINUOUS
 62
     7
 10
186.0000305175781
 20
34.00006866455078
 11
184.4000091552734
 21
37.50010299682617
  0
LINE
  8
0
  6
CONTINUOUS
 62
     7
 10
186.8999786376953
 20
34.00002670288086
 11
185.3999786376953
 21
37.50004577636719
  0
LINE
  8
0
  6
CONTINUOUS
 62
     7
 10
184.3000183105469
 20
30.00002288818359
 11
187
 21
30.00002288818359
  0
LINE
  8
0
  6
CONTINUOUS
 62
     7
 10
100.0000457763672
 20
0
 11
380.0000610351563
 21
0
  0
LINE
  8
0
  6
CONTINUOUS
 62
     7
 10
100.0000457763672
 20
23.00001525878906
 11
100.0000457763672
 21
0
  0
LINE
  8
0
  6
DASHED
 62
     7
 10
124.5000152587891
 20
11.00001525878906
 11
124.5000152587891
 21
0
  0
LINE
  8
0
  6
DASHED
 62
     7
 10
112.9999847412109
 20
11.00001525878906
 11
127.0000457763672
 21
11.00001525878906
  0
LINE
  8
0
  6
DASHED
 62
     7
 10
115.5000152587891
 20
11.00001525878906
 11
115.5000152587891
 21
0
  0
LINE
  8
0
  6
DASHED
 62
     7
 10
127.0000457763672
 20
23.00001525878906
 11
127.0000457763672
 21
11.00001525878906
  0
LINE
  8
0
  6
DASHED
 62
     7
 10
112.9999847412109
 20
23.00001525878906
 11
112.9999847412109
 21
11.00001525878906
  0
LINE
  8
0
  6
CENTER
 62
     7
 10
285.5000305175781
 20
40.60002136230469
 11
285.5000305175781
 21
31.4000244140625
  0
LINE
  8
0
  6
CONTINUOUS
 62
     7
 10
293.0000305175781
 20
41.00001525878906
 11
280
 21
41.00001525878906
  0
LINE
  8
0
  6
CONTINUOUS
 62
     7
 10
293.0000305175781
 20
41.00001525878906
 11
293.0000305175781
 21
7.000007629394531
  0
LINE
  8
0
  6
CONTINUOUS
 62
     7
 10
293.0000305175781
 20
7.000007629394531
 11
280
 21
7.000007629394531
  0
LINE
  8
0
  6
CENTER
 62
     7
 10
280.9000549316406
 20
36.00002288818359
 11
290.1000366210938
 21
36.00002288818359
  0
LINE
  8
0
  6
CONTINUOUS
 62
     7
 10
-9.500015258789063
 20
41.5
 11
9.500015258789063
 21
41.5
  0
LINE
  8
0
  6
CONTINUOUS
 62
     7
 10
9.999984741210938
 20
42.00000381469727
 11
28.00007629394531
 21
42.00000381469727
  0
LINE
  8
0
  6
CONTINUOUS
 62
     7
 10
30
 20
40.00006866455078
 11
30
 21
34
  0
LINE
  8
0
  6
CONTINUOUS
 62
     7
 10
9.50001335144043
 20
41.50001525878906
 11
10.00001335144043
 21
42.00001525878906
  0
LINE
  8
0
  6
CONTINUOUS
 62
     7
 10
29.49998474121094
 20
33.50000762939453
 11
29.49998474121094
 21
9
  0
LINE
  8
0
  6
CONTINUOUS
 62
     7
 10
29.50003433227539
 20
33.50000762939453
 11
30.00005149841309
 21
34.00002288818359
  0
LINE
  8
0
  6
CONTINUOUS
 62
     7
 10
28.00000381469727
 20
42.00006484985352
 11
30.0000057220459
 21
40.00006484985352
  0
LINE
  8
0
  6
DASHED
 62
     7
 10
-15.99998474121094
 20
42.00000381469727
 11
-15.99998474121094
 21
34
  0
LINE
  8
0
  6
CONTINUOUS
 62
     7
 10
280.0000305175781
 20
41.00001525878906
 11
280.0000305175781
 21
7.000007629394531
  0
LINE
  8
0
  6
CONTINUOUS
 62
     7
 10
279.0000305175781
 20
42
 11
280
 21
41.00003433227539
  0
LINE
  8
0
  6
CONTINUOUS
 62
     7
 10
200.0000305175781
 20
7.000007629394531
 11
280.0000305175781
 21
7.000007629394531
  0
LINE
  8
0
  6
CONTINUOUS
 62
     7
 10
200.0000305175781
 20
41.00001525878906
 11
200.0000305175781
 21
7.000007629394531
  0
LINE
  8
0
  6
DASHED
 62
     7
 10
224.0000305175781
 20
42
 11
224.0000305175781
 21
34.00000762939453
  0
LINE
  8
0
  6
DASHED
 62
     7
 10
223.375
 20
42
 11
223.375
 21
31.5
  0
LINE
  8
0
  6
CENTER
 62
     7
 10
220
 20
43
 11
220
 21
28.55150413513184
  0
LINE
  8
0
  6
DASHED
 62
     7
 10
216.6249694824219
 20
32.91748428344727
 11
215.9999847412109
 21
33.9999885559082
  0
LINE
  8
0
  6
DASHED
 62
     7
 10
216.0000152587891
 20
42
 11
216.0000152587891
 21
34.00000762939453
  0
LINE
  8
0
  6
DASHED
 62
     7
 10
216.0000152587891
 20
34.00000762939453
 11
224.0000305175781
 21
34.00000762939453
  0
LINE
  8
0
  6
DASHED
 62
     7
 10
219.9999694824219
 20
29.55148506164551
 11
223.3749542236328
 21
31.50003242492676
  0
LINE
  8
0
  6
DASHED
 62
     7
 10
223.3749847412109
 20
32.91750335693359
 11
223.9999847412109
 21
34.00003433227539
  0
LINE
  8
0
  6
DASHED
 62
     7
 10
216.625
 20
31.5
 11
223.375
 21
31.5
  0
LINE
  8
0
  6
DASHED
 62
     7
 10
216.625
 20
42
 11
216.625
 21
31.5
  0
LINE
  8
0
  6
DASHED
 62
     7
 10
219.9999542236328
 20
29.55146598815918
 11
216.6249847412109
 21
31.5000057220459
  0
LINE
  8
0
  6
CONTINUOUS
 62
     7
 10
-29.99999046325684
 20
40.00000381469727
 11
-27.9999885559082
 21
42.00000381469727
  0
LINE
  8
0
  6
CONTINUOUS
 62
     7
 10
201.0000152587891
 20
42
 11
279
 21
42
  0
LINE
  8
0
  6
CONTINUOUS
 62
     7
 10
-29.99999618530273
 20
34.00004196166992
 11
-29.49999618530273
 21
33.50003814697266
  0
LINE
  8
0
  6
DASHED
 62
     7
 10
-16.62501525878906
 20
42.00000381469727
 11
-16.62501525878906
 21
31.5000057220459
  0
LINE
  8
0
  6
CONTINUOUS
 62
     7
 10
-29.49998474121094
 20
33.50000762939453
 11
-29.49998474121094
 21
8.988940238952637
  0
LINE
  8
0
  6
CONTINUOUS
 62
     7
 10
-9.999959945678711
 20
42
 11
-9.499958992004395
 21
41.5
  0
LINE
  8
0
  6
DASHED
 62
     7
 10
-16.62500190734863
 20
32.91751480102539
 11
-16
 21
34.00004959106445
  0
LINE
  8
0
  6
DASHED
 62
     7
 10
-23.37501525878906
 20
42.00000381469727
 11
-23.37501525878906
 21
31.5000057220459
  0
LINE
  8
0
  6
DASHED
 62
     7
 10
-19.9999942779541
 20
29.55147552490234
 11
-23.37500381469727
 21
31.50003814697266
  0
LINE
  8
0
  6
DASHED
 62
     7
 10
-24
 20
42.00000381469727
 11
-24
 21
34
  0
LINE
  8
0
  6
DASHED
 62
     7
 10
-20.00005722045898
 20
29.55149459838867
 11
-16.62506675720215
 21
31.50004577636719
  0
LINE
  8
0
  6
DASHED
 62
     7
 10
-23.37507057189941
 20
32.91748428344727
 11
-24.00007820129395
 21
34.00002670288086
  0
LINE
  8
0
  6
CENTER
 62
     7
 10
-20.00001525878906
 20
43.00000381469727
 11
-20.00001525878906
 21
28.5515193939209
  0
LINE
  8
0
  6
DASHED
 62
     7
 10
-24
 20
34
 11
-15.99998474121094
 21
34
  0
LINE
  8
0
  6
DASHED
 62
     7
 10
-23.37501525878906
 20
31.5000057220459
 11
-16.62501525878906
 21
31.5000057220459
  0
LINE
  8
0
  6
CONTINUOUS
 62
     7
 10
-27.99998474121094
 20
42.00000381469727
 11
-9.999984741210938
 21
42.00000381469727
  0
LINE
  8
0
  6
CONTINUOUS
 62
     7
 10
-30
 20
40.00006866455078
 11
-30
 21
34
  0
LINE
  8
0
  6
CONTINUOUS
 62
     7
 10
0
 20
41.00000762939453
 11
28.00003242492676
 21
41.00000762939453
  0
LINE
  8
0
  6
CENTER
 62
     7
 10
0
 20
43.00000381469727
 11
0
 21
-1
  0
LINE
  8
0
  6
CONTINUOUS
 62
     7
 10
14.00000095367432
 20
6.999996185302734
 11
27.49996948242188
 21
6.999996185302734
  0
LINE
  8
0
  6
CONTINUOUS
 62
     7
 10
29.00002098083496
 20
8.999983787536621
 11
27.00001907348633
 21
6.999982357025147
  0
LINE
  8
0
  6
CONTINUOUS
 62
     7
 10
28.00002098083496
 20
41.00001525878906
 11
29.00002098083496
 21
40.00001525878906
  0
LINE
  8
0
  6
CONTINUOUS
 62
     7
 10
10.80001831054688
 20
14.41205406188965
 11
10.80001831054688
 21
10.48995208740234
  0
LINE
  8
0
  6
CONTINUOUS
 62
     7
 10
14.00001525878906
 20
20.14843940734863
 11
14.00001525878906
 21
18.3515796661377
  0
LINE
  8
0
  6
CONTINUOUS
 62
     7
 10
0
 20
26.50000190734863
 11
13.0477294921875
 21
26.50000190734863
  0
LINE
  8
0
  6
CONTINUOUS
 62
     7
 10
17.50003814697266
 20
22.04775428771973
 11
13.04777717590332
 21
26.50001525878906
  0
LINE
  8
0
  6
CONTINUOUS
 62
     7
 10
17.50003051757813
 20
22.0477466583252
 11
17.50003051757813
 21
16.45226097106934
  0
LINE
  8
0
  6
CONTINUOUS
 62
     7
 10
17.50007057189941
 20
16.45219612121582
 11
14.3000602722168
 21
13.2521858215332
  0
LINE
  8
0
  6
CONTINUOUS
 62
     7
 10
14.29998779296875
 20
13.25224113464356
 11
14.29998779296875
 21
11.64976501464844
  0
LINE
  8
0
  6
CONTINUOUS
 62
     7
 10
14.30002784729004
 20
11.64976978302002
 11
18.94980239868164
 21
6.99999475479126
  0
LINE
  8
0
  6
CENTER
 62
     7
 10
22.00003051757813
 20
35.5
 11
22.00003051757813
 21
26.50000190734863
  0
LINE
  8
0
  6
CONTINUOUS
 62
     7
 10
-10.80001831054688
 20
14.41206550598145
 11
-10.80001831054688
 21
10.48992919921875
  0
LINE
  8
0
  6
CONTINUOUS
 62
     7
 10
-14.00001525878906
 20
20.14843940734863
 11
-14.00001525878906
 21
18.3515682220459
  0
LINE
  8
0
  6
DASHED
 62
     7
 10
-7.000030517578125
 20
10.99999237060547
 11
7.000030517578125
 21
10.99999237060547
  0
LINE
  8
0
  6
CONTINUOUS
 62
     7
 10
-27.50001525878906
 20
7.000001907348633
 11
-13.9999885559082
 21
7.000001907348633
  0
LINE
  8
0
  6
CONTINUOUS
 62
     7
 10
14.00001525878906
 20
6.710048675537109
 11
14.00001525878906
 21
1.5
  0
LINE
  8
0
  6
CONTINUOUS
 62
     7
 10
11.00503158569336
 20
9.994964599609375
 11
14.00000095367432
 21
6.999996185302734
  0
LINE
  8
0
  6
CONTINUOUS
 62
     7
 10
14.0000057220459
 20
1.500009179115295
 11
12.49998760223389
 21
-8.619030268164352E-006
  0
LINE
  8
0
  6
CONTINUOUS
 62
     7
 10
11.45817852020264
 20
15.36013793945313
 11
11.00503158569336
 21
14.90699100494385
  0
LINE
  8
0
  6
DASHED
 62
     7
 10
4.5
 20
10.99999237060547
 11
4.5
 21
0.4999923706054688
  0
LINE
  8
0
  6
DASHED
 62
     7
 10
7.000030517578125
 20
23.00000953674316
 11
7.000030517578125
 21
10.99999237060547
  0
LINE
  8
0
  6
CONTINUOUS
 62
     7
 10
5.000008583068848
 20
-2.849126940418501E-005
 11
4.50000810623169
 21
0.4999720454216003
  0
LINE
  8
0
  6
CONTINUOUS
 62
     7
 10
5.000015258789063
 20
0
 11
12.50001525878906
 21
0
  0
LINE
  8
0
  6
CONTINUOUS
 62
     7
 10
-4.5
 20
0.4999923706054688
 11
4.5
 21
0.4999923706054688
  0
LINE
  8
0
  6
CONTINUOUS
 62
     7
 10
-5.000034332275391
 20
3.877510152960895E-006
 11
-4.500033855438232
 21
0.5000044107437134
  0
LINE
  8
0
  6
DASHED
 62
     7
 10
-7.000030517578125
 20
23.00000953674316
 11
-7.000030517578125
 21
10.99999237060547
  0
LINE
  8
0
  6
CONTINUOUS
 62
     7
 10
-11.4581880569458
 20
15.36015510559082
 11
-11.00505828857422
 21
14.90702438354492
  0
LINE
  8
0
  6
CONTINUOUS
 62
     7
 10
-14.00001525878906
 20
6.710048675537109
 11
-14.00001525878906
 21
1.5
  0
LINE
  8
0
  6
CONTINUOUS
 62
     7
 10
-13.9999885559082
 20
7.000001907348633
 11
-11.0050573348999
 21
9.994932174682617
  0
LINE
  8
0
  6
DASHED
 62
     7
 10
-4.500045776367188
 20
10.99999237060547
 11
-4.500045776367188
 21
0.4999923706054688
  0
LINE
  8
0
  6
CONTINUOUS
 62
     7
 10
-12.50001525878906
 20
0
 11
-5.000015258789063
 21
0
  0
LINE
  8
0
  6
CONTINUOUS
 62
     7
 10
-14.00003051757813
 20
1.500032663345337
 11
-12.50002861022949
 21
3.116759398835711E-005
  0
LINE
  8
0
  6
CONTINUOUS
 62
     7
 10
-11.14453125
 20
23.00000953674316
 11
11.14453125
 21
23.00000953674316
  0
LINE
  8
0
  6
CONTINUOUS
 62
     7
 10
29.00001525878906
 20
40.00002670288086
 11
29.00001525878906
 21
9
  0
LINE
  8
0
  6
CONTINUOUS
 62
     7
 10
187
 20
7.000007629394531
 11
200.0000305175781
 21
7.000007629394531
  0
LINE
  8
0
  6
CENTER
 62
     7
 10
17.50003051757813
 20
31.00000190734863
 11
26.50003051757813
 21
31.00000190734863
  0
LINE
  8
0
  6
CONTINUOUS
 62
     7
 10
0
 20
41.00000762939453
 11
-28.00003242492676
 21
41.00000762939453
  0
LINE
  8
0
  6
CONTINUOUS
 62
     7
 10
-29.00002098083496
 20
8.999983787536621
 11
-27.00001907348633
 21
6.999982357025147
  0
LINE
  8
0
  6
CONTINUOUS
 62
     7
 10
-28.00002098083496
 20
41.00001525878906
 11
-29.00002098083496
 21
40.00001525878906
  0
LINE
  8
0
  6
CONTINUOUS
 62
     7
 10
0
 20
26.50000190734863
 11
-13.0477294921875
 21
26.50000190734863
  0
LINE
  8
0
  6
CONTINUOUS
 62
     7
 10
-17.50003814697266
 20
22.04775428771973
 11
-13.04777717590332
 21
26.50001525878906
  0
LINE
  8
0
  6
CONTINUOUS
 62
     7
 10
-17.50003051757813
 20
22.0477466583252
 11
-17.50003051757813
 21
16.45226097106934
  0
LINE
  8
0
  6
CONTINUOUS
 62
     7
 10
-17.50007057189941
 20
16.45219612121582
 11
-14.3000602722168
 21
13.2521858215332
  0
LINE
  8
0
  6
CONTINUOUS
 62
     7
 10
-14.29998779296875
 20
13.25224113464356
 11
-14.29998779296875
 21
11.64976501464844
  0
LINE
  8
0
  6
CONTINUOUS
 62
     7
 10
-14.30002784729004
 20
11.64976978302002
 11
-18.94980239868164
 21
6.99999475479126
  0
LINE
  8
0
  6
CENTER
 62
     7
 10
-22.00003051757813
 20
35.5
 11
-22.00003051757813
 21
26.50000190734863
  0
LINE
  8
0
  6
CONTINUOUS
 62
     7
 10
-29.00001525878906
 20
40.00002670288086
 11
-29.00001525878906
 21
9
  0
LINE
  8
0
  6
DASHED
 62
     7
 10
-17.50003051757813
 20
31.00000190734863
 11
-26.50003051757813
 21
31.00000190734863
  0
LINE
  8
0
  6
CENTER
 62
     7
 10
-6.3699951171875
 20
34
 11
13.30998229980469
 21
34
  0
LINE
  8
0
  6
CONTINUOUS
 62
     7
 10
1.779998779296875
 20
37.5
 11
5.8599853515625
 21
37.5
  0
LINE
  8
0
  6
CONTINUOUS
 62
     7
 10
1.779998779296875
 20
30.5
 11
5.8599853515625
 21
30.5
  0
LINE
  8
0
  6
CONTINUOUS
 62
     7
 10
1.1299889087677
 20
33.99996185302734
 11
1.779982328414917
 21
30.49996376037598
  0
LINE
  8
0
  6
CONTINUOUS
 62
     7
 10
1.129988431930542
 20
33.99997711181641
 11
1.779979467391968
 21
37.49996185302734
  0
LINE
  8
0
  6
CONTINUOUS
 62
     7
 10
3.440003156661987
 20
33.99995803833008
 11
4.090014457702637
 21
30.49994659423828
  0
LINE
  8
0
  6
CONTINUOUS
 62
     7
 10
3.439975261688232
 20
33.99997329711914
 11
4.089986801147461
 21
37.49998474121094
  0
LINE
  8
0
  6
CONTINUOUS
 62
     7
 10
5.950003623962402
 20
30.9699821472168
 11
5.859991550445557
 21
30.49997711181641
  0
LINE
  8
0
  6
CONTINUOUS
 62
     7
 10
5.950026988983154
 20
37.02000427246094
 11
5.860019207000732
 21
37.49999618530273
  0
LINE
  8
0
  6
CONTINUOUS
 62
     7
 10
7.765948295593262
 20
30.7542896270752
 11
10.51998138427734
 21
31.49996376037598
  0
LINE
  8
0
  6
CONTINUOUS
 62
     7
 10
7.749973297119141
 20
37.24999237060547
 11
10.51998519897461
 21
36.4999885559082
  0
LINE
  8
0
  6
CONTINUOUS
 62
     7
 10
0.0004945459659211338
 20
29.38089179992676
 11
1.947718501091003
 21
30.5
  0
LINE
  8
0
  6
CONTINUOUS
 62
     7
 10
0.0005122591974213719
 20
29.38090324401856
 11
-4.000514984130859
 21
31.69089889526367
  0
LINE
  8
0
  6
CONTINUOUS
 62
     7
 10
-4.000481605529785
 20
31.69089508056641
 11
-4.000998497009277
 21
36.30999374389648
  0
LINE
  8
0
  6
CONTINUOUS
 62
     7
 10
-4.001014709472656
 20
36.31000518798828
 11
-0.0004930421710014343
 21
38.61911010742188
  0
LINE
  8
0
  6
CONTINUOUS
 62
     7
 10
-0.0005155382677912712
 20
38.61910247802734
 11
1.937821865081787
 21
37.50000381469727
  0
LINE
  8
0
  6
CENTER
 62
     7
 10
120.0000152587891
 20
24.00001525878906
 11
120.0000152587891
 21
-1
  0
LINE
  8
0
  6
CENTER
 62
     7
 10
260
 20
43
 11
260
 21
28.55150413513184
  0
LINE
  8
0
  6
CONTINUOUS
 62
     7
 10
200.0000305175781
 20
33.49995803833008
 11
280.0000305175781
 21
33.49995803833008
  0
LINE
  8
0
  6
CONTINUOUS
 62
     7
 10
380.0000610351563
 20
23.00001525878906
 11
380.0000610351563
 21
0
  0
LINE
  8
0
  6
CENTER
 62
     7
 10
200.0000152587891
 20
8.000007629394531
 11
200.0000152587891
 21
-1
  0
LINE
  8
0
  6
CENTER
 62
     7
 10
280
 20
8.000007629394531
 11
280
 21
-1
  0
LINE
  8
0
  6
CENTER
 62
     7
 10
360
 20
24.00001525878906
 11
360
 21
-1
  0
LINE
  8
0
  6
CONTINUOUS
 62
     7
 10
100.0000457763672
 20
6.999982357025147
 11
187
 21
6.999982357025147
  0
LINE
  8
0
  6
CONTINUOUS
 62
     7
 10
293.0000305175781
 20
6.999982357025147
 11
380.0000610351563
 21
6.999982357025147
  0
LINE
  8
0
  6
CENTER
 62
     7
 10
20.00001525878906
 20
43.00000381469727
 11
20.00001525878906
 21
28.5515193939209
  0
LINE
  8
0
  6
CONTINUOUS
 62
     7
 10
200.0000305175781
 20
122
 11
280.0000305175781
 21
122
  0
LINE
  8
0
  6
CENTER
 62
     7
 10
99.00004577636719
 20
152
 11
381.0000610351563
 21
152
  0
LINE
  8
0
  6
CONTINUOUS
 62
     7
 10
200.9999542236328
 20
41.9999885559082
 11
200
 21
41.00003051757813
  0
LINE
  8
0
  6
CONTINUOUS
 62
     7
 10
200.0000305175781
 20
182
 11
280.0000305175781
 21
182
  0
LINE
  8
0
  6
CONTINUOUS
 62
     7
 10
187
 20
181.0000152587891
 11
200.0000305175781
 21
181.0000152587891
  0
LINE
  8
0
  6
CONTINUOUS
 62
     7
 10
187
 20
122.9999847412109
 11
200.0000305175781
 21
122.9999847412109
  0
LINE
  8
0
  6
CONTINUOUS
 62
     7
 10
187
 20
181.0000152587891
 11
187
 21
122.9999847412109
  0
LINE
  8
0
  6
CONTINUOUS
 62
     7
 10
200.0000305175781
 20
182
 11
200.0000305175781
 21
122
  0
LINE
  8
0
  6
CONTINUOUS
 62
     7
 10
280.0000305175781
 20
182
 11
280.0000305175781
 21
122
  0
LINE
  8
0
  6
CONTINUOUS
 62
     7
 10
293.0000305175781
 20
181.0000152587891
 11
293.0000305175781
 21
122.9999847412109
  0
LINE
  8
0
  6
CONTINUOUS
 62
     7
 10
280.0000305175781
 20
122.9999847412109
 11
293.0000305175781
 21
122.9999847412109
  0
LINE
  8
0
  6
CONTINUOUS
 62
     7
 10
280.0000305175781
 20
181.0000152587891
 11
293.0000305175781
 21
181.0000152587891
  0
LINE
  8
0
  6
CENTER
 62
     7
 10
225
 20
131.9999847412109
 11
215
 21
131.9999847412109
  0
LINE
  8
0
  6
CENTER
 62
     7
 10
220
 20
136.9999847412109
 11
220
 21
126.9999847412109
  0
LINE
  8
0
  6
CENTER
 62
     7
 10
255.0000457763672
 20
131.9999847412109
 11
265.0000610351563
 21
131.9999847412109
  0
LINE
  8
0
  6
CENTER
 62
     7
 10
260.0000610351563
 20
136.9999847412109
 11
260.0000610351563
 21
126.9999847412109
  0
LINE
  8
0
  6
CENTER
 62
     7
 10
225
 20
172.0000152587891
 11
215
 21
172.0000152587891
  0
LINE
  8
0
  6
CENTER
 62
     7
 10
260.0000610351563
 20
167.0000152587891
 11
260.0000610351563
 21
177.0000152587891
  0
LINE
  8
0
  6
CENTER
 62
     7
 10
220
 20
167.0000152587891
 11
220
 21
177.0000152587891
  0
LINE
  8
0
  6
CENTER
 62
     7
 10
255.0000457763672
 20
172.0000152587891
 11
265.0000610351563
 21
172.0000152587891
  0
LINE
  8
0
  6
CONTINUOUS
 62
     7
 10
100.0000457763672
 20
137.9999847412109
 11
187
 21
137.9999847412109
  0
LINE
  8
0
  6
CONTINUOUS
 62
     7
 10
100.0000457763672
 20
140.4066772460938
 11
187
 21
140.4066772460938
  0
LINE
  8
0
  6
CONTINUOUS
 62
     7
 10
100.0000457763672
 20
163.5933227539063
 11
187
 21
163.5933227539063
  0
LINE
  8
0
  6
CONTINUOUS
 62
     7
 10
100.0000457763672
 20
166.0000152587891
 11
187
 21
166.0000152587891
  0
LINE
  8
0
  6
CONTINUOUS
 62
     7
 10
100.0000457763672
 20
166.0000152587891
 11
100.0000457763672
 21
137.9999847412109
  0
LINE
  8
0
  6
CONTINUOUS
 62
     7
 10
380.0000610351563
 20
166.0000152587891
 11
380.0000610351563
 21
137.9999847412109
  0
LINE
  8
0
  6
CONTINUOUS
 62
     7
 10
293.0000305175781
 20
166.0000152587891
 11
380.0000610351563
 21
166.0000152587891
  0
LINE
  8
0
  6
CONTINUOUS
 62
     7
 10
293.0000305175781
 20
163.5933227539063
 11
380.0000610351563
 21
163.5933227539063
  0
LINE
  8
0
  6
CONTINUOUS
 62
     7
 10
293.0000305175781
 20
140.4066772460938
 11
380.0000610351563
 21
140.4066772460938
  0
LINE
  8
0
  6
CONTINUOUS
 62
     7
 10
293.0000305175781
 20
137.9999847412109
 11
380.0000610351563
 21
137.9999847412109
  0
LINE
  8
0
  6
CENTER
 62
     7
 10
120.0000152587891
 20
160
 11
120.0000152587891
 21
144
  0
LINE
  8
0
  6
CENTER
 62
     7
 10
360
 20
160
 11
360
 21
144
  0
LINE
  8
0
  6
CONTINUOUS
 62
     7
 10
184.0001373291016
 20
156
 11
187
 21
156
  0
LINE
  8
0
  6
CONTINUOUS
 62
     7
 10
185.6201629638672
 20
148
 11
187
 21
148
  0
LINE
  8
0
  6
CONTINUOUS
 62
     7
 10
180.0001373291016
 20
152
 11
180.0001373291016
 21
150.327880859375
  0
LINE
  8
0
  6
CENTER
 62
     7
 10
179.5518951416016
 20
140.4778747558594
 11
184.4171905517578
 21
152.2237701416016
  0
LINE
  8
0
  6
CONTINUOUS
 62
     7
 10
177.7828216552734
 20
142.4784393310547
 11
182.2174377441406
 21
140.6415557861328
  0
LINE
  8
0
  6
CONTINUOUS
 62
     7
 10
177.9845733642578
 20
145.3173370361328
 11
184.0821685791016
 21
142.7916259765625
  0
LINE
  8
0
  6
CONTINUOUS
 62
     7
 10
177.7828063964844
 20
142.4784545898438
 11
177.9845733642578
 21
145.3173370361328
  0
LINE
  8
0
  6
CONTINUOUS
 62
     7
 10
182.2174530029297
 20
140.6415557861328
 11
184.0821990966797
 21
142.7916412353516
  0
LINE
  8
0
  6
CONTINUOUS
 62
     7
 10
178.7232971191406
 20
149.0381927490234
 11
179.1379699707031
 21
150.0392608642578
  0
LINE
  8
0
  6
CONTINUOUS
 62
     7
 10
186.1908874511719
 20
145.9450073242188
 11
186.6055297851563
 21
146.9460754394531
  0
LINE
  8
0
  6
CONTINUOUS
 62
     7
 10
179.9173889160156
 20
150.3620758056641
 11
179.137939453125
 21
150.0392303466797
  0
LINE
  8
0
  6
CONTINUOUS
 62
     7
 10
180.3605804443359
 20
147.7105865478516
 11
181.2331695556641
 21
149.8171539306641
  0
LINE
  8
0
  6
CONTINUOUS
 62
     7
 10
184.0943603515625
 20
146.1640167236328
 11
184.9669342041016
 21
148.2705841064453
  0
LINE
  8
0
  6
CONTINUOUS
 62
     7
 10
179.9174041748047
 20
150.3621520996094
 11
186.28271484375
 21
147.7255554199219
  0
LINE
  8
0
  6
CONTINUOUS
 62
     7
 10
186.6055450439453
 20
146.9460601806641
 11
186.2826843261719
 21
147.7255096435547
  0
LINE
  8
0
  6
CONTINUOUS
 62
     7
 10
179.1148529052734
 20
146.7394866943359
 11
184.2885589599609
 21
144.5964508056641
  0
LINE
  8
0
  6
CONTINUOUS
 62
     7
 10
178.9530792236328
 20
148.2935943603516
 11
185.5018768310547
 21
145.5809936523438
  0
LINE
  8
0
  6
CONTINUOUS
 62
     7
 10
100.0000457763672
 20
23.00001525878906
 11
187
 21
23.00001525878906
  0
LINE
  8
0
  6
CONTINUOUS
 62
     7
 10
100.0000457763672
 20
20.59800529479981
 11
187
 21
20.59800529479981
  0
LINE
  8
0
  6
CONTINUOUS
 62
     7
 10
100.0000457763672
 20
17.90200233459473
 11
187
 21
17.90200233459473
  0
LINE
  8
0
  6
CONTINUOUS
 62
     7
 10
100.0000457763672
 20
14.70197772979736
 11
187
 21
14.70197772979736
  0
LINE
  8
0
  6
CONTINUOUS
 62
     7
 10
100.0000457763672
 20
10.19997882843018
 11
187
 21
10.19997882843018
  0
LINE
  8
0
  6
CONTINUOUS
 62
     7
 10
293.0000305175781
 20
23.00001525878906
 11
380.0000610351563
 21
23.00001525878906
  0
LINE
  8
0
  6
CONTINUOUS
 62
     7
 10
293.0000305175781
 20
20.59800529479981
 11
380.0000610351563
 21
20.59800529479981
  0
LINE
  8
0
  6
CONTINUOUS
 62
     7
 10
293.0000305175781
 20
17.90200233459473
 11
380.0000610351563
 21
17.90200233459473
  0
LINE
  8
0
  6
CONTINUOUS
 62
     7
 10
293.0000305175781
 20
14.70197772979736
 11
380.0000610351563
 21
14.70197772979736
  0
LINE
  8
0
  6
CONTINUOUS
 62
     7
 10
293.0000305175781
 20
10.19997882843018
 11
380.0000610351563
 21
10.19997882843018
  0
LINE
  8
0
  6
CONTINUOUS
 62
     7
 10
200.0000152587891
 20
161.9999847412109
 11
280
 21
161.9999847412109
  0
LINE
  8
0
  6
CONTINUOUS
 62
     7
 10
200.0000305175781
 20
142.0000152587891
 11
280.0000305175781
 21
142.0000152587891
  0
CIRCLE
  8
0
  6
CONTINUOUS
 62
     7
 10
194.5
 20
37.50002288818359
 40
1
  0
CIRCLE
  8
0
  6
CONTINUOUS
 62
     7
 10
194.5
 20
36.00002288818359
 40
2.599990844726563
  0
ARC
  8
0
  6
CONTINUOUS
 62
     7
 10
184.3001098632813
 20
34.00007629394531
 40
3.999999999999998
 50
89.99998201391055
 51
118.4958044387709
  0
ARC
  8
0
  6
CONTINUOUS
 62
     7
 10
184.3001098632813
 20
34.00007629394531
 40
3.982465982437136
 50
241.5040862782026
 51
269.9999087030625
  0
ARC
  8
0
  6
CONTINUOUS
 62
     7
 10
27.50001525878906
 20
9
 40
2
 50
269.9999974955218
 51
0
  0
ARC
  8
0
  6
CONTINUOUS
 62
     7
 10
-27.50001525878906
 20
9
 40
2.000000000000001
 50
179.999991348578
 51
270.0000006832453
  0
ARC
  8
0
  6
CONTINUOUS
 62
     7
 10
14.04574584960938
 20
23.05052375793457
 40
2.452944993972779
 50
190.744456291364
 51
259.3503119001246
  0
ARC
  8
0
  6
CONTINUOUS
 62
     7
 10
14.04574584960938
 20
15.44948387145996
 40
2.452944993972779
 50
100.6496880998754
 51
174.8658747532628
  0
ARC
  8
0
  6
CONTINUOUS
 62
     7
 10
13.5
 20
18.3515796661377
 40
0.4999999999999992
 50
280.6496899211084
 51
0
  0
ARC
  8
0
  6
CONTINUOUS
 62
     7
 10
11.14453125
 20
22.5000057220459
 40
0.499999999999999
 50
10.74445020126288
 51
90.00000250447806
  0
ARC
  8
0
  6
CONTINUOUS
 62
     7
 10
13.5
 20
20.14843940734863
 40
0.5
 50
0
 51
79.35031007889168
  0
ARC
  8
0
  6
CONTINUOUS
 62
     7
 10
-13.5
 20
20.14843940734863
 40
0.4999999999999986
 50
100.6495788168487
 51
180.0000050089561
  0
ARC
  8
0
  6
CONTINUOUS
 62
     7
 10
11.50003051757813
 20
14.41205406188965
 40
0.6999999880790704
 50
135.0000003416226
 51
180.0000050089563
  0
ARC
  8
0
  6
CONTINUOUS
 62
     7
 10
13.30000305175781
 20
6.710048675537109
 40
0.699999988079071
 50
0
 51
45.00000125223912
  0
ARC
  8
0
  6
CONTINUOUS
 62
     7
 10
11.50003051757813
 20
10.48995208740234
 40
0.6999999880790719
 50
179.9999913485779
 51
224.9999960159117
  0
ARC
  8
0
  6
CONTINUOUS
 62
     7
 10
11.1046142578125
 20
15.71371650695801
 40
0.5000000000000003
 50
314.999998747761
 51
354.8661685650826
  0
ARC
  8
0
  6
CONTINUOUS
 62
     7
 10
-11.50003051757813
 20
10.48992919921875
 40
0.6999999880790705
 50
314.9999987477609
 51
0
  0
ARC
  8
0
  6
CONTINUOUS
 62
     7
 10
-14.04574584960938
 20
23.05052375793457
 40
2.452944993972779
 50
280.6495806380815
 51
349.2554507609941
  0
ARC
  8
0
  6
CONTINUOUS
 62
     7
 10
-14.04574584960938
 20
15.44948387145996
 40
2.452944993972778
 50
5.133831434917342
 51
79.35041936191848
  0
ARC
  8
0
  6
CONTINUOUS
 62
     7
 10
-11.14453125
 20
22.5000057220459
 40
0.5000000000000004
 50
90.00000250447806
 51
169.2554480859874
  0
ARC
  8
0
  6
CONTINUOUS
 62
     7
 10
-13.300048828125
 20
6.710048675537109
 40
0.6999999880790704
 50
135.0000003416226
 51
180.0000050089563
  0
ARC
  8
0
  6
CONTINUOUS
 62
     7
 10
-11.1046142578125
 20
15.71371650695801
 40
0.5000000000000002
 50
185.1338247184137
 51
224.9999996583774
  0
ARC
  8
0
  6
CONTINUOUS
 62
     7
 10
-13.5
 20
18.3515682220459
 40
0.5000000000000003
 50
179.9999913485778
 51
259.3504243708748
  0
ARC
  8
0
  6
CONTINUOUS
 62
     7
 10
-11.50003051757813
 20
14.41206550598145
 40
0.699999988079071
 50
0
 51
45.00000125223906
  0
CIRCLE
  8
0
  6
CONTINUOUS
 62
     7
 10
-22.00003051757813
 20
31.00000190734863
 40
1.299999952316284
  0
ARC
  8
0
  6
CONTINUOUS
 62
     7
 10
7.610000610351563
 20
31.70999145507813
 40
0.9683421850204466
 50
215.3314570768741
 51
278.2972225067941
  0
ARC
  8
0
  6
CONTINUOUS
 62
     7
 10
6.620010375976563
 20
29.91999816894531
 40
1.246148109436035
 50
80.76452806729958
 51
142.1250351177266
  0
ARC
  8
0
  6
CONTINUOUS
 62
     7
 10
6.620010375976563
 20
38.08000183105469
 40
1.254199028015138
 50
217.8749648822736
 51
279.2353626496737
  0
ARC
  8
0
  6
CONTINUOUS
 62
     7
 10
7.610000610351563
 20
36.28999328613281
 40
0.9701611399650598
 50
81.70288677623263
 51
144.668542923126
  0
ARC
  8
0
  6
CONTINUOUS
 62
     7
 10
0
 20
34
 40
4
 50
240.0000239814524
 51
241.0449882829511
  0
ARC
  8
0
  6
CONTINUOUS
 62
     7
 10
0
 20
34
 40
3.998106002807619
 50
61.09402038976974
 51
298.9059076658729
  0
CIRCLE
  8
0
  6
CONTINUOUS
 62
     7
 10
220
 20
131.9999847412109
 40
3.375
  0
CIRCLE
  8
0
  6
CONTINUOUS
 62
     7
 10
220
 20
131.9999847412109
 40
3.999984741210938
  0
CIRCLE
  8
0
  6
CONTINUOUS
 62
     7
 10
120.0000152587891
 20
152
 40
4.5
  0
CIRCLE
  8
0
  6
CONTINUOUS
 62
     7
 10
120.0000152587891
 20
152
 40
7.000030517578125
  0
ARC
  8
0
  6
CONTINUOUS
 62
     7
 10
181.0333862304688
 20
144.0544738769531
 40
3.299999237060546
 50
131.5803705110077
 51
157.4999548639651
  0
ARC
  8
0
  6
CONTINUOUS
 62
     7
 10
181.0333862304688
 20
144.0544738769531
 40
3.299999237060545
 50
337.5000181569009
 51
3.419602296415186
  0
ARC
  8
0
  6
CONTINUOUS
 62
     7
 10
173.1170349121094
 20
146.9005737304688
 40
6.00000000000001
 50
2.43365082934552
 51
20.87173987704925
  0
ARC
  8
0
  6
CONTINUOUS
 62
     7
 10
188.6435699462891
 20
140.4692687988281
 40
6.000000000000011
 50
114.1278165022775
 51
132.5663219780772
  0
ARC
  8
0
  6
CONTINUOUS
 62
     7
 10
178.3123321533203
 20
147.1213684082031
 40
0.7999999523162822
 50
311.5798327472963
 51
2.433049772698627
  0
ARC
  8
0
  6
CONTINUOUS
 62
     7
 10
185.1260681152344
 20
144.2990264892578
 40
0.7999999523162747
 50
132.5669776762372
 51
183.4201402735692
  0
ARC
  8
0
  6
CONTINUOUS
 62
     7
 10
184.0001373291016
 20
152
 40
3.999999999999998
 50
89.99998201391055
 51
180.0000186693345
  0
POLYLINE
  8
0
  6
CONTINUOUS
 62
     7
 66
     1
 10
0
 20
0
 70
     1
  0
VERTEX
  8
0
  6
CONTINUOUS
 62
     7
 10
180.0000610351563
 20
36.50008392333984
 42
0.1103796968055773
  0
VERTEX
  8
0
  6
CONTINUOUS
 62
     7
 10
179.0878989680837
 20
36.2950625027888
 42
0.1025062491564223
  0
VERTEX
  8
0
  6
CONTINUOUS
 62
     7
 10
178.3405641943685
 20
35.73104522809894
 42
0.09328930777895533
  0
VERTEX
  8
0
  6
CONTINUOUS
 62
     7
 10
177.8629606972601
 20
34.92414476359745
 42
0.08781947809060205
  0
VERTEX
  8
0
  6
CONTINUOUS
 62
     7
 10
177.7000732421875
 20
34.00005340576172
 42
0.08777702221350449
  0
VERTEX
  8
0
  6
CONTINUOUS
 62
     7
 10
177.8628107513717
 20
33.07643149725355
 42
0.09326066051927962
  0
VERTEX
  8
0
  6
CONTINUOUS
 62
     7
 10
178.3401272018821
 20
32.26962983225089
 42
0.1026270265371102
  0
VERTEX
  8
0
  6
CONTINUOUS
 62
     7
 10
179.0883456619555
 20
31.7049029002347
 42
0.1103308282189006
  0
VERTEX
  8
0
  6
CONTINUOUS
 62
     7
 10
180.0001525878906
 20
31.50006866455078
 42
0.1103796808515218
  0
VERTEX
  8
0
  6
CONTINUOUS
 62
     7
 10
180.9123147117015
 20
31.70508984850379
 42
0.1025062891179113
  0
VERTEX
  8
0
  6
CONTINUOUS
 62
     7
 10
181.6596495974299
 20
32.26910696676323
 42
0.09328936331978695
  0
VERTEX
  8
0
  6
CONTINUOUS
 62
     7
 10
182.1372530956037
 20
33.07600742306013
 42
0.08781954905459888
  0
VERTEX
  8
0
  6
CONTINUOUS
 62
     7
 10
182.3001403808594
 20
34.00009918212891
 42
0.08777700375729847
  0
VERTEX
  8
0
  6
CONTINUOUS
 62
     7
 10
182.1374025325792
 20
34.92372103328437
 42
0.09326059252520655
  0
VERTEX
  8
0
  6
CONTINUOUS
 62
     7
 10
181.6600859276348
 20
35.73052261634698
 42
0.1026269729672233
  0
VERTEX
  8
0
  6
CONTINUOUS
 62
     7
 10
180.9118674989473
 20
36.29524961574491
 42
0.1103308409068267
  0
SEQEND
  8
0
  0
POLYLINE
  8
0
  6
CONTINUOUS
 62
     7
 66
     1
 10
0
 20
0
  0
VERTEX
  8
0
  6
CONTINUOUS
 62
     7
 10
181.1000671386719
 20
37.25008392333984
 42
0.01434930807282814
  0
VERTEX
  8
0
  6
CONTINUOUS
 62
     7
 10
180.9411861318808
 20
37.24552290221492
 42
0.01426064272110703
  0
VERTEX
  8
0
  6
CONTINUOUS
 62
     7
 10
180.7835751413801
 20
37.23194747894259
 42
0.01417575046630253
  0
VERTEX
  8
0
  6
CONTINUOUS
 62
     7
 10
180.6274761686106
 20
37.20950469622744
 42
0.01415093410268579
  0
VERTEX
  8
0
  6
CONTINUOUS
 62
     7
 10
180.4725140976094
 20
37.17818127629104
 42
0.01410163681856418
  0
VERTEX
  8
0
  6
CONTINUOUS
 62
     7
 10
180.3192522016693
 20
37.13807350717425
 42
0.01402962319027034
  0
VERTEX
  8
0
  6
CONTINUOUS
 62
     7
 10
180.1682354695139
 20
37.08932921741015
 42
0.01393703266646439
  0
VERTEX
  8
0
  6
CONTINUOUS
 62
     7
 10
180.0199851254651
 20
37.03214356255674
 42
0.01382630242942561
  0
VERTEX
  8
0
  6
CONTINUOUS
 62
     7
 10
179.8749940095435
 20
36.96675403471748
 42
0.01370008268190031
  0
VERTEX
  8
0
  6
CONTINUOUS
 62
     7
 10
179.7337229348353
 20
36.89343491259996
 42
0.0135611500579344
  0
VERTEX
  8
0
  6
CONTINUOUS
 62
     7
 10
179.5965980860777
 20
36.81249138634315
 42
0.01332236760873189
  0
VERTEX
  8
0
  6
CONTINUOUS
 62
     7
 10
179.4648882995079
 20
36.72487278943471
 42
0.01328778952971843
  0
VERTEX
  8
0
  6
CONTINUOUS
 62
     7
 10
179.336867606395
 20
36.62950942023159
 42
0.01315485096995369
  0
VERTEX
  8
0
  6
CONTINUOUS
 62
     7
 10
179.2138154597742
 20
36.52730379945249
 42
0.01293830895915801
  0
VERTEX
  8
0
  6
CONTINUOUS
 62
     7
 10
179.0967712889797
 20
36.41928917324447
 42
0.01278031090574661
  0
VERTEX
  8
0
  6
CONTINUOUS
 62
     7
 10
178.9854349766169
 20
36.30539991980443
 42
0.01262529492108417
  0
VERTEX
  8
0
  6
CONTINUOUS
 62
     7
 10
178.8800256381383
 20
36.18600261092453
 42
0
  0
SEQEND
  8
0
  0
POLYLINE
  8
0
  6
CONTINUOUS
 62
     7
 66
     1
 10
0
 20
0
  0
VERTEX
  8
0
  6
CONTINUOUS
 62
     7
 10
178.8759986965198
 20
31.8189597974036
 42
0.06283187911262245
  0
VERTEX
  8
0
  6
CONTINUOUS
 62
     7
 10
179.4402971747457
 20
31.29278613144057
 42
0.06649706330781136
  0
VERTEX
  8
0
  6
CONTINUOUS
 62
     7
 10
180.120297535387
 20
30.92827978783871
 42
0.06915583917949807
  0
VERTEX
  8
0
  6
CONTINUOUS
 62
     7
 10
180.8726527268031
 20
30.75942008635836
 42
0.06975337668017061
  0
VERTEX
  8
0
  6
CONTINUOUS
 62
     7
 10
181.6414083201604
 20
30.80341853821217
 42
0.06816369206578249
  0
VERTEX
  8
0
  6
CONTINUOUS
 62
     7
 10
182.3692520084962
 20
31.05524178920305
 42
0.06499584862736606
  0
VERTEX
  8
0
  6
CONTINUOUS
 62
     7
 10
183.0058173824293
 20
31.49007508094219
 42
0.06129070891053733
  0
VERTEX
  8
0
  6
CONTINUOUS
 62
     7
 10
183.5138743567755
 20
32.0701775803934
 42
0.05807938938624638
  0
VERTEX
  8
0
  6
CONTINUOUS
 62
     7
 10
183.8708711788065
 20
32.75417258839548
 42
0.05590523796368358
  0
VERTEX
  8
0
  6
CONTINUOUS
 62
     7
 10
184.0645298946133
 20
33.50131735494001
 42
0.05496368951280582
  0
VERTEX
  8
0
  6
CONTINUOUS
 62
     7
 10
184.0895448351967
 20
34.27204061616874
 42
0.0554737580043111
  0
VERTEX
  8
0
  6
CONTINUOUS
 62
     7
 10
183.9454659274157
 20
35.02993071072665
 42
0.05728018226452524
  0
VERTEX
  8
0
  6
CONTINUOUS
 62
     7
 10
183.6360567160097
 20
35.73637343305122
 42
0.06026805848846308
  0
VERTEX
  8
0
  6
CONTINUOUS
 62
     7
 10
183.1708184811693
 20
36.35168402587845
 42
0.06395232771022792
  0
VERTEX
  8
0
  6
CONTINUOUS
 62
     7
 10
182.5686126833916
 20
36.83406462962913
 42
0.06744507163958442
  0
VERTEX
  8
0
  6
CONTINUOUS
 62
     7
 10
181.8619554466468
 20
37.14352862732553
 42
0.06944194060593732
  0
VERTEX
  8
0
  6
CONTINUOUS
 62
     7
 10
181.1000671386719
 20
37.25008392333984
 42
0
  0
SEQEND
  8
0
  0
POLYLINE
  8
0
  6
CONTINUOUS
 62
     7
 66
     1
 10
0
 20
0
  0
VERTEX
  8
0
  6
CONTINUOUS
 62
     7
 10
6.819992065429688
 20
36.8499755859375
 42
0.1885745464290747
  0
VERTEX
  8
0
  6
CONTINUOUS
 62
     7
 10
6.460261538522269
 20
36.69028703984911
 42
0.07574466113810308
  0
VERTEX
  8
0
  6
CONTINUOUS
 62
     7
 10
6.216026985965466
 20
36.37245062832676
 42
0.03933594534512024
  0
VERTEX
  8
0
  6
CONTINUOUS
 62
     7
 10
6.046165317503697
 20
36.00711706913912
 42
0.02577125752707987
  0
VERTEX
  8
0
  6
CONTINUOUS
 62
     7
 10
5.924010893244023
 20
35.62296641807139
 42
0.01950521772355042
  0
VERTEX
  8
0
  6
CONTINUOUS
 62
     7
 10
5.836520256462827
 20
35.22875464113596
 42
0.01621461060566161
  0
VERTEX
  8
0
  6
CONTINUOUS
 62
     7
 10
5.777160254708038
 20
34.82916366168362
 42
0.01446653763771293
  0
VERTEX
  8
0
  6
CONTINUOUS
 62
     7
 10
5.742292786843149
 20
34.42663897834303
 42
0.0136912652681687
  0
VERTEX
  8
0
  6
CONTINUOUS
 62
     7
 10
5.730044907543697
 20
34.02249489950879
 42
0.0136048156590747
  0
VERTEX
  8
0
  6
CONTINUOUS
 62
     7
 10
5.739761797781866
 20
33.61964974889296
 42
0.01431525852922272
  0
VERTEX
  8
0
  6
CONTINUOUS
 62
     7
 10
5.771912195952455
 20
33.21739843680845
 42
0.01598185402871327
  0
VERTEX
  8
0
  6
CONTINUOUS
 62
     7
 10
5.828423911626819
 20
32.81658057188146
 42
0.01902675483985298
  0
VERTEX
  8
0
  6
CONTINUOUS
 62
     7
 10
5.912486364333772
 20
32.42142739773305
 42
0.02487977718038205
  0
VERTEX
  8
0
  6
CONTINUOUS
 62
     7
 10
6.030502851315641
 20
32.0350316284218
 42
0.03729615370142334
  0
VERTEX
  8
0
  6
CONTINUOUS
 62
     7
 10
6.194578623268982
 20
31.66584860095528
 42
0.06998284816472397
  0
VERTEX
  8
0
  6
CONTINUOUS
 62
     7
 10
6.430164842897742
 20
31.33851861784649
 42
0.1738206340220973
  0
VERTEX
  8
0
  6
CONTINUOUS
 62
     7
 10
6.779932678960284
 20
31.1519216751302
 42
0
  0
SEQEND
  8
0
  0
POLYLINE
  8
0
  6
CONTINUOUS
 62
     7
 66
     1
 10
0
 20
0
 70
     1
  0
VERTEX
  8
0
  6
CONTINUOUS
 62
     7
 10
10.52000427246094
 20
36.5
 42
0.2551592727854475
  0
VERTEX
  8
0
  6
CONTINUOUS
 62
     7
 10
9.990194421972644
 20
36.07511190027379
 42
0.06319138472291447
  0
VERTEX
  8
0
  6
CONTINUOUS
 62
     7
 10
9.736099333476973
 20
35.4122252544633
 42
0.03518638918172723
  0
VERTEX
  8
0
  6
CONTINUOUS
 62
     7
 10
9.609369637790104
 20
34.71217549301894
 42
0.0279853126153712
  0
VERTEX
  8
0
  6
CONTINUOUS
 62
     7
 10
9.57000732421875
 20
34
 42
0.02789942790996414
  0
VERTEX
  8
0
  6
CONTINUOUS
 62
     7
 10
9.609140981222661
 20
33.28985243969201
 42
0.03516017990494275
  0
VERTEX
  8
0
  6
CONTINUOUS
 62
     7
 10
9.735634869873794
 20
32.58956192317742
 42
0.06315573245365287
  0
VERTEX
  8
0
  6
CONTINUOUS
 62
     7
 10
9.989666863013211
 20
31.92582168183448
 42
0.2552844263598675
  0
VERTEX
  8
0
  6
CONTINUOUS
 62
     7
 10
10.52000427246094
 20
31.5
 42
0.2551594730479082
  0
VERTEX
  8
0
  6
CONTINUOUS
 62
     7
 10
11.04981459858741
 20
31.92488747333301
 42
0.06319156037845418
  0
VERTEX
  8
0
  6
CONTINUOUS
 62
     7
 10
11.30390981534024
 20
32.58777405749937
 42
0.03518647356580211
  0
VERTEX
  8
0
  6
CONTINUOUS
 62
     7
 10
11.4306393075316
 20
33.2878238524152
 42
0.02798539198551647
  0
VERTEX
  8
0
  6
CONTINUOUS
 62
     7
 10
11.47000122070313
 20
34
 42
0.02789946216533967
  0
VERTEX
  8
0
  6
CONTINUOUS
 62
     7
 10
11.4308677871041
 20
34.71014757108541
 42
0.03516022448292396
  0
VERTEX
  8
0
  6
CONTINUOUS
 62
     7
 10
11.3043740106433
 20
35.41043810603362
 42
0.06315580443710027
  0
VERTEX
  8
0
  6
CONTINUOUS
 62
     7
 10
11.05034197507806
 20
36.07417832508457
 42
0.2552843239601089
  0
SEQEND
  8
0
  0
TEXT
  8
0
  6
CONTINUOUS
 62
     7
 10
-11.28550004959106
 20
-31.79999995231628
 40
3.599999904632568
 41
0.8473801845190025
  1
ＳＨＳ３０Ｖ
  0
ENDSEC
  0
EOF
