  0
SECTION
  2
HEADER
  0
ENDSEC
  0
SECTION
  2
TABLES
  0
TABLE
  2
LTYPE
 70
    22
  0
LTYPE
  2
CONTINUOUS
 70
    64
  3
Solid line
 72
    65
 73
     0
 40
0.000000
  0
LTYPE
  2
DASHED
 70
    64
  3
__ __ __ __ __ __ __ __ __ __ __ __ __ __ __
 72
    65
 73
     2
 40
3.500000
 49
2.000000
 49
-1.500000
  0
LTYPE
  2
CENTER
 70
    64
  3
____ _ ____ _ ____ _ ____ _ ____ _ ____ _ ____
 72
    65
 73
     4
 40
17.500000
 49
13.000000
 49
-1.500000
 49
1.500000
 49
-1.500000
  0
LTYPE
  2
PHANTOM
 70
    64
  3
_____ _ _ _____ _ _ _____ _ _ _____ _ _ ____  
 72
    65
 73
     6
 40
15.500000
 49
8.000000
 49
-1.500000
 49
1.500000
 49
-1.500000
 49
1.500000
 49
-1.500000
  0
LTYPE
  2
DOT
 70
    64
  3
. . . . . . . . . . . . . . . . . . . . . . . .
 72
    65
 73
     2
 40
0.25
 49
0.0
 49
-0.25
  0
ENDTAB
  0
TABLE
  2
LAYER
 70
     1
  0
LAYER
  2
0
 70
     0
 62
     7
  6
CONTINUOUS
  0
ENDTAB
  0
TABLE
  2
STYLE
 70
     1
  0
STYLE
  2
STANDARD
 70
     0
 40
0.000000
 41
1.000000
 50
0.000000
 71
     0
 42
0.200000
  3
txt
  0
ENDTAB
  0
TABLE
  2
VIEW
 70
     0
  0
ENDTAB
  0
ENDSEC
  0
SECTION
  2
BLOCKS
  0
ENDSEC
  0
SECTION
  2
ENTITIES
  0
LINE
  8
0
  6
CONTINUOUS
 62
     7
 10
9.5
 20
0
 11
15.5
 21
0
  0
LINE
  8
0
  6
CONTINUOUS
 62
     7
 10
17
 20
6.585784912109375
 11
17
 21
1.5
  0
LINE
  8
0
  6
DASHED
 62
     7
 10
7
 20
26
 11
7
 21
14
  0
LINE
  8
0
  6
CONTINUOUS
 62
     7
 10
13.79288482666016
 20
10.20709705352783
 11
16.70711135864258
 21
7.292871475219727
  0
LINE
  8
0
  6
CONTINUOUS
 62
     7
 10
17
 20
22.9312744140625
 11
17
 21
20.0687255859375
  0
LINE
  8
0
  6
CONTINUOUS
 62
     7
 10
-14.018310546875
 20
26
 11
14.018310546875
 21
26
  0
LINE
  8
0
  6
CONTINUOUS
 62
     7
 10
-3.5
 20
0
 11
3.5
 21
0
  0
LINE
  8
0
  6
CONTINUOUS
 62
     7
 10
4.20709228515625
 20
0.5
 11
8.79290771484375
 21
0.5
  0
LINE
  8
0
  6
CONTINUOUS
 62
     7
 10
13.5
 20
15.98578643798828
 11
13.5
 21
10.91421508789063
  0
LINE
  8
0
  6
CONTINUOUS
 62
     7
 10
13.79290676116943
 20
16.69287300109863
 11
14.23635864257813
 21
17.13632583618164
  0
LINE
  8
0
  6
CONTINUOUS
 62
     7
 10
3.499980211257935
 20
-8.76654485182371E-006
 11
3.853533506393433
 21
0.3535446226596832
  0
LINE
  8
0
  6
CONTINUOUS
 62
     7
 10
9.146454811096191
 20
0.3535230457782745
 11
9.500008583068848
 21
-3.034573092008941E-005
  0
LINE
  8
0
  6
CONTINUOUS
 62
     7
 10
16.9999885559082
 20
1.500010371208191
 11
15.49999809265137
 21
1.957721178769134E-005
  0
LINE
  8
0
  6
DASHED
 62
     7
 10
4.5
 20
14
 11
4.5
 21
0.5
  0
LINE
  8
0
  6
CONTINUOUS
 62
     7
 10
100
 20
26
 11
179
 21
26
  0
LINE
  8
0
  6
CONTINUOUS
 62
     7
 10
100
 20
0
 11
380
 21
0
  0
LINE
  8
0
  6
DASHED
 62
     7
 10
115.5
 20
14
 11
115.5
 21
0
  0
LINE
  8
0
  6
DASHED
 62
     7
 10
113
 20
14
 11
127
 21
14
  0
LINE
  8
0
  6
DASHED
 62
     7
 10
124.5
 20
14
 11
124.5
 21
0
  0
LINE
  8
0
  6
CENTER
 62
     7
 10
120
 20
27
 11
120
 21
-1
  0
LINE
  8
0
  6
DASHED
 62
     7
 10
127
 20
26
 11
127
 21
14
  0
LINE
  8
0
  6
DASHED
 62
     7
 10
113
 20
26
 11
113
 21
14
  0
LINE
  8
0
  6
CONTINUOUS
 62
     7
 10
100
 20
26
 11
100
 21
0
  0
LINE
  8
0
  6
CONTINUOUS
 62
     7
 10
-13.79288959503174
 20
10.20711994171143
 11
-16.70711517333984
 21
7.292893886566162
  0
LINE
  8
0
  6
DASHED
 62
     7
 10
-4.5
 20
14
 11
-4.5
 21
0.5
  0
LINE
  8
0
  6
CENTER
 62
     7
 10
0
 20
56
 11
0
 21
-1
  0
LINE
  8
0
  6
CONTINUOUS
 62
     7
 10
-15.5
 20
0
 11
-9.5
 21
0
  0
LINE
  8
0
  6
CONTINUOUS
 62
     7
 10
-17
 20
6.585784912109375
 11
-17
 21
1.5
  0
LINE
  8
0
  6
DASHED
 62
     7
 10
7
 20
14
 11
-7
 21
14
  0
LINE
  8
0
  6
CONTINUOUS
 62
     7
 10
-17
 20
22.9312744140625
 11
-17
 21
20.06601715087891
  0
LINE
  8
0
  6
DASHED
 62
     7
 10
-7
 20
26
 11
-7
 21
14
  0
LINE
  8
0
  6
CONTINUOUS
 62
     7
 10
-8.79290771484375
 20
0.5
 11
-4.20709228515625
 21
0.5
  0
LINE
  8
0
  6
CONTINUOUS
 62
     7
 10
-3.853580713272095
 20
0.3535661995410919
 11
-3.500027418136597
 21
1.281264212593669E-005
  0
LINE
  8
0
  6
CONTINUOUS
 62
     7
 10
-9.499990463256836
 20
1.281264212593669E-005
 11
-9.146437644958496
 21
0.3535661995410919
  0
LINE
  8
0
  6
CONTINUOUS
 62
     7
 10
-13.5
 20
15.98578643798828
 11
-13.5
 21
10.91421508789063
  0
LINE
  8
0
  6
CONTINUOUS
 62
     7
 10
-16.99999237060547
 20
1.499975323677063
 11
-15.50002384185791
 21
6.090218448662199E-006
  0
LINE
  8
0
  6
CONTINUOUS
 62
     7
 10
-13.79288959503174
 20
16.69287300109863
 11
-14.23638534545898
 21
17.1363697052002
  0
LINE
  8
0
  6
CONTINUOUS
 62
     7
 10
33.99997329711914
 20
45.50000381469727
 11
32.49996185302734
 21
47.00001525878906
  0
LINE
  8
0
  6
CONTINUOUS
 62
     7
 10
34.00000762939453
 20
9.000005722045898
 11
32.49999618530273
 21
7.499993324279785
  0
LINE
  8
0
  6
CONTINUOUS
 62
     7
 10
34
 20
45.5
 11
34
 21
9
  0
LINE
  8
0
  6
CONTINUOUS
 62
     7
 10
16.99998474121094
 20
11.94974613189697
 11
21.44974136352539
 21
7.499988555908203
  0
LINE
  8
0
  6
CONTINUOUS
 62
     7
 10
17
 20
14.95025634765625
 11
17
 21
11.94975280761719
  0
LINE
  8
0
  6
CONTINUOUS
 62
     7
 10
-15.59229946136475
 20
29.5
 11
15.59228515625
 21
29.5
  0
LINE
  8
0
  6
CONTINUOUS
 62
     7
 10
16.5
 20
7.5
 11
32.70001220703125
 21
7.5
  0
LINE
  8
0
  6
CONTINUOUS
 62
     7
 10
20.5
 20
24.59233093261719
 11
20.5
 21
18.45025634765625
  0
LINE
  8
0
  6
CONTINUOUS
 62
     7
 10
20.49997711181641
 20
24.59232330322266
 11
15.59230899810791
 21
29.49999046325684
  0
LINE
  8
0
  6
CONTINUOUS
 62
     7
 10
17.0000057220459
 20
14.95022392272949
 11
20.50002098083496
 21
18.45023918151856
  0
LINE
  8
0
  6
CONTINUOUS
 62
     7
 10
301
 20
47
 11
286.5
 21
47
  0
LINE
  8
0
  6
CONTINUOUS
 62
     7
 10
301
 20
7.5
 11
286.5
 21
7.5
  0
LINE
  8
0
  6
CONTINUOUS
 62
     7
 10
179
 20
47
 11
179
 21
7.5
  0
LINE
  8
0
  6
CENTER
 62
     7
 10
293
 20
46.8499755859375
 11
293
 21
38.1500244140625
  0
LINE
  8
0
  6
CENTER
 62
     7
 10
297.3500061035156
 20
42.5
 11
288.6499938964844
 21
42.5
  0
LINE
  8
0
  6
CONTINUOUS
 62
     7
 10
301
 20
26
 11
380
 21
26
  0
LINE
  8
0
  6
CENTER
 62
     7
 10
168.300048828125
 20
40
 11
184.2286376953125
 21
40
  0
LINE
  8
0
  6
CONTINUOUS
 62
     7
 10
176.5
 20
44
 11
179
 21
44
  0
LINE
  8
0
  6
CONTINUOUS
 62
     7
 10
177.6000366210938
 20
36.5
 11
172.4000244140625
 21
36.5
  0
LINE
  8
0
  6
CONTINUOUS
 62
     7
 10
177.6000366210938
 20
36.46002197265625
 11
177.6000366210938
 21
36.5
  0
LINE
  8
0
  6
CONTINUOUS
 62
     7
 10
179.0000152587891
 20
39.76660537719727
 11
177.6000518798828
 21
36.50000381469727
  0
LINE
  8
0
  6
CONTINUOUS
 62
     7
 10
178.2000122070313
 20
40.00003051757813
 11
176.5999908447266
 21
36.50002288818359
  0
LINE
  8
0
  6
CONTINUOUS
 62
     7
 10
172.3999786376953
 20
36.49998474121094
 11
171.9999694824219
 21
37.08001327514648
  0
LINE
  8
0
  6
CONTINUOUS
 62
     7
 10
172.3999786376953
 20
43.49992752075195
 11
171.9999847412109
 21
42.919921875
  0
LINE
  8
0
  6
CONTINUOUS
 62
     7
 10
177.6000366210938
 20
43.5
 11
172.4000244140625
 21
43.5
  0
LINE
  8
0
  6
CONTINUOUS
 62
     7
 10
178.2000274658203
 20
40.00008773803711
 11
176.6000061035156
 21
43.50009536743164
  0
LINE
  8
0
  6
CONTINUOUS
 62
     7
 10
179.0000152587891
 20
40.23331451416016
 11
177.5999908447266
 21
43.50002670288086
  0
LINE
  8
0
  6
CONTINUOUS
 62
     7
 10
176.5
 20
36
 11
179
 21
36
  0
LINE
  8
0
  6
CENTER
 62
     7
 10
182.6500244140625
 20
42.5
 11
191.3499755859375
 21
42.5
  0
LINE
  8
0
  6
CENTER
 62
     7
 10
187
 20
46.8499755859375
 11
187
 21
38.1500244140625
  0
LINE
  8
0
  6
CENTER
 62
     7
 10
185
 20
43.5
 11
189
 21
43.5
  0
LINE
  8
0
  6
CONTINUOUS
 62
     7
 10
301
 20
47
 11
301
 21
7.5
  0
LINE
  8
0
  6
CONTINUOUS
 62
     7
 10
179
 20
7.5
 11
193.5
 21
7.5
  0
LINE
  8
0
  6
CONTINUOUS
 62
     7
 10
-32.70001220703125
 20
7.5
 11
-16.50000762939453
 21
7.5
  0
LINE
  8
0
  6
CONTINUOUS
 62
     7
 10
179
 20
47
 11
193.5
 21
47
  0
LINE
  8
0
  6
DASHED
 62
     7
 10
219
 20
55
 11
219
 21
43
  0
LINE
  8
0
  6
DASHED
 62
     7
 10
211
 20
55
 11
211
 21
43
  0
LINE
  8
0
  6
DASHED
 62
     7
 10
211.550048828125
 20
55
 11
211.550048828125
 21
40.20001220703125
  0
LINE
  8
0
  6
DASHED
 62
     7
 10
218.4500732421875
 20
55
 11
218.4500732421875
 21
40.20001220703125
  0
LINE
  8
0
  6
DASHED
 62
     7
 10
218.4499969482422
 20
42.04739761352539
 11
219
 21
43.00003051757813
  0
LINE
  8
0
  6
DASHED
 62
     7
 10
211.5500030517578
 20
40.20002746582031
 11
215.0000457763672
 21
38.20814514160156
  0
LINE
  8
0
  6
DASHED
 62
     7
 10
211.5500030517578
 20
42.04739761352539
 11
211.0000152587891
 21
43.00000381469727
  0
LINE
  8
0
  6
DASHED
 62
     7
 10
215.0000305175781
 20
38.20812225341797
 11
218.4500122070313
 21
40.19997406005859
  0
LINE
  8
0
  6
CENTER
 62
     7
 10
215
 20
56
 11
215
 21
37.20810699462891
  0
LINE
  8
0
  6
DASHED
 62
     7
 10
211.550048828125
 20
40.20001220703125
 11
218.4500732421875
 21
40.20001220703125
  0
LINE
  8
0
  6
CENTER
 62
     7
 10
265
 20
56
 11
265
 21
37.20810699462891
  0
LINE
  8
0
  6
DASHED
 62
     7
 10
211
 20
43
 11
219
 21
43
  0
LINE
  8
0
  6
CONTINUOUS
 62
     7
 10
286.5000305175781
 20
54.00000381469727
 11
285.5
 21
55.00002670288086
  0
LINE
  8
0
  6
CONTINUOUS
 62
     7
 10
194.4999847412109
 20
55.00001907348633
 11
193.5
 21
54.00003814697266
  0
LINE
  8
0
  6
CONTINUOUS
 62
     7
 10
286.5
 20
54.00003051757813
 11
286.5
 21
7.5
  0
LINE
  8
0
  6
CONTINUOUS
 62
     7
 10
193.5
 20
7.5
 11
286.5
 21
7.5
  0
LINE
  8
0
  6
CONTINUOUS
 62
     7
 10
193.5
 20
40
 11
286.5
 21
40
  0
LINE
  8
0
  6
CONTINUOUS
 62
     7
 10
193.5
 20
54
 11
193.5
 21
7.5
  0
LINE
  8
0
  6
CONTINUOUS
 62
     7
 10
194.5
 20
55
 11
285.5
 21
55
  0
LINE
  8
0
  6
CONTINUOUS
 62
     7
 10
-33.5
 20
55
 11
-16.5
 21
55
  0
LINE
  8
0
  6
CONTINUOUS
 62
     7
 10
5.499959945678711
 20
55.00000762939453
 11
5.853513240814209
 21
54.64645385742188
  0
LINE
  8
0
  6
CONTINUOUS
 62
     7
 10
-5.500008583068848
 20
54.99998474121094
 11
-5.853561878204346
 21
54.64643478393555
  0
LINE
  8
0
  6
CONTINUOUS
 62
     7
 10
-35
 20
53.5
 11
-35
 21
40
  0
LINE
  8
0
  6
CONTINUOUS
 62
     7
 10
16.14644050598145
 20
54.64645385742188
 11
16.4999942779541
 21
55.00000762939453
  0
LINE
  8
0
  6
CONTINUOUS
 62
     7
 10
-34.70001220703125
 20
39.49288940429688
 11
-34.70001220703125
 21
9.5
  0
LINE
  8
0
  6
CONTINUOUS
 62
     7
 10
33.49997711181641
 20
55.0000114440918
 11
35
 21
53.4999885559082
  0
LINE
  8
0
  6
CONTINUOUS
 62
     7
 10
-33.5
 20
55
 11
-35.0000114440918
 21
53.49998474121094
  0
LINE
  8
0
  6
CONTINUOUS
 62
     7
 10
34.8464469909668
 20
39.8464469909668
 11
35
 21
40
  0
LINE
  8
0
  6
CONTINUOUS
 62
     7
 10
34.70001220703125
 20
39.49288940429688
 11
34.70001220703125
 21
9.5
  0
LINE
  8
0
  6
CONTINUOUS
 62
     7
 10
-34.84647369384766
 20
39.8464469909668
 11
-35.00003051757813
 21
40.00000381469727
  0
LINE
  8
0
  6
CONTINUOUS
 62
     7
 10
16.5
 20
55
 11
33.5
 21
55
  0
LINE
  8
0
  6
CONTINUOUS
 62
     7
 10
6.20709228515625
 20
54.5
 11
15.79290771484375
 21
54.5
  0
LINE
  8
0
  6
CONTINUOUS
 62
     7
 10
-6.20709228515625
 20
54.5
 11
-15.79290771484375
 21
54.5
  0
LINE
  8
0
  6
CONTINUOUS
 62
     7
 10
-5.5
 20
55
 11
5.5
 21
55
  0
LINE
  8
0
  6
CONTINUOUS
 62
     7
 10
-16.14646720886231
 20
54.64645385742188
 11
-16.50002098083496
 21
55.00000762939453
  0
LINE
  8
0
  6
CENTER
 62
     7
 10
25
 20
56
 11
25
 21
37.20812225341797
  0
LINE
  8
0
  6
DASHED
 62
     7
 10
-21
 20
55
 11
-21
 21
43
  0
LINE
  8
0
  6
DASHED
 62
     7
 10
-29
 20
55
 11
-29
 21
43
  0
LINE
  8
0
  6
DASHED
 62
     7
 10
-28.45001220703125
 20
55
 11
-28.45001220703125
 21
40.19999694824219
  0
LINE
  8
0
  6
DASHED
 62
     7
 10
-21.54998779296875
 20
55
 11
-21.54998779296875
 21
40.19999694824219
  0
LINE
  8
0
  6
DASHED
 62
     7
 10
-21.54998016357422
 20
42.04735565185547
 11
-20.99997711181641
 21
42.9999885559082
  0
LINE
  8
0
  6
DASHED
 62
     7
 10
-28.44997024536133
 20
40.19998168945313
 11
-24.99998092651367
 21
38.2081298828125
  0
LINE
  8
0
  6
DASHED
 62
     7
 10
-28.44999694824219
 20
42.0473747253418
 11
-28.99998474121094
 21
42.99998092651367
  0
LINE
  8
0
  6
DASHED
 62
     7
 10
-24.99998092651367
 20
38.20812225341797
 11
-21.54999160766602
 21
40.19997406005859
  0
LINE
  8
0
  6
CENTER
 62
     7
 10
-25
 20
56
 11
-25
 21
37.20812225341797
  0
LINE
  8
0
  6
DASHED
 62
     7
 10
-28.45001220703125
 20
40.19999694824219
 11
-21.54998779296875
 21
40.19999694824219
  0
LINE
  8
0
  6
DASHED
 62
     7
 10
-29
 20
43
 11
-21
 21
43
  0
LINE
  8
0
  6
CONTINUOUS
 62
     7
 10
-32.49997711181641
 20
47
 11
32.5
 21
47
  0
LINE
  8
0
  6
CENTER
 62
     7
 10
25
 20
42.5
 11
25
 21
31.5
  0
LINE
  8
0
  6
CENTER
 62
     7
 10
19.5
 20
37
 11
30.5
 21
37
  0
LINE
  8
0
  6
CONTINUOUS
 62
     7
 10
-17
 20
14.95025634765625
 11
-17
 21
11.94975280761719
  0
LINE
  8
0
  6
CONTINUOUS
 62
     7
 10
-16.99998474121094
 20
11.94974613189697
 11
-21.44974136352539
 21
7.499988555908203
  0
LINE
  8
0
  6
CONTINUOUS
 62
     7
 10
-34
 20
45.5
 11
-34
 21
9
  0
LINE
  8
0
  6
CONTINUOUS
 62
     7
 10
-34.00000762939453
 20
9.000005722045898
 11
-32.49999618530273
 21
7.499993324279785
  0
LINE
  8
0
  6
CONTINUOUS
 62
     7
 10
-33.99997329711914
 20
45.50000381469727
 11
-32.49996185302734
 21
47.00001525878906
  0
LINE
  8
0
  6
CENTER
 62
     7
 10
-25
 20
42.5
 11
-25
 21
31.5
  0
LINE
  8
0
  6
CENTER
 62
     7
 10
-19.5
 20
37
 11
-30.5
 21
37
  0
LINE
  8
0
  6
CONTINUOUS
 62
     7
 10
-20.5
 20
24.59233093261719
 11
-20.5
 21
18.45025634765625
  0
LINE
  8
0
  6
CONTINUOUS
 62
     7
 10
-20.49997711181641
 20
24.59232330322266
 11
-15.59230899810791
 21
29.49999046325684
  0
LINE
  8
0
  6
CONTINUOUS
 62
     7
 10
-17.0000057220459
 20
14.95022392272949
 11
-20.50002098083496
 21
18.45023918151856
  0
LINE
  8
0
  6
CENTER
 62
     7
 10
-6.3699951171875
 20
40
 11
13.30998229980469
 21
40
  0
LINE
  8
0
  6
CONTINUOUS
 62
     7
 10
1.779998779296875
 20
43.5
 11
5.8599853515625
 21
43.5
  0
LINE
  8
0
  6
CONTINUOUS
 62
     7
 10
1.779998779296875
 20
36.5
 11
5.8599853515625
 21
36.5
  0
LINE
  8
0
  6
CONTINUOUS
 62
     7
 10
1.129988670349121
 20
39.99996185302734
 11
1.779982447624207
 21
36.49996185302734
  0
LINE
  8
0
  6
CONTINUOUS
 62
     7
 10
1.129988670349121
 20
39.99998092651367
 11
1.779979705810547
 21
43.49996566772461
  0
LINE
  8
0
  6
CONTINUOUS
 62
     7
 10
3.440003395080566
 20
39.99995803833008
 11
4.090014934539795
 21
36.49994277954102
  0
LINE
  8
0
  6
CONTINUOUS
 62
     7
 10
3.439975738525391
 20
39.99997329711914
 11
4.089986324310303
 21
43.49998474121094
  0
LINE
  8
0
  6
CONTINUOUS
 62
     7
 10
5.950003623962402
 20
36.9699821472168
 11
5.859991550445557
 21
36.49997711181641
  0
LINE
  8
0
  6
CONTINUOUS
 62
     7
 10
5.950027942657471
 20
43.02000427246094
 11
5.860020160675049
 21
43.49999237060547
  0
LINE
  8
0
  6
CONTINUOUS
 62
     7
 10
7.765947341918945
 20
36.75429153442383
 11
10.51997947692871
 21
37.49996566772461
  0
LINE
  8
0
  6
CONTINUOUS
 62
     7
 10
7.749973773956299
 20
43.24999237060547
 11
10.51998615264893
 21
42.49999237060547
  0
LINE
  8
0
  6
CONTINUOUS
 62
     7
 10
0.000494902313221246
 20
35.38088989257813
 11
1.947719693183899
 21
36.5
  0
LINE
  8
0
  6
CONTINUOUS
 62
     7
 10
0.0005124533781781793
 20
35.38090133666992
 11
-4.000515937805176
 21
37.69089889526367
  0
LINE
  8
0
  6
CONTINUOUS
 62
     7
 10
-4.000481605529785
 20
37.69089508056641
 11
-4.000998497009277
 21
42.30999374389648
  0
LINE
  8
0
  6
CONTINUOUS
 62
     7
 10
-4.001014709472656
 20
42.31000137329102
 11
-0.0004930459544993937
 21
44.61911010742188
  0
LINE
  8
0
  6
CONTINUOUS
 62
     7
 10
-0.0005161699955351651
 20
44.61910247802734
 11
1.937822937965393
 21
43.5
  0
LINE
  8
0
  6
CONTINUOUS
 62
     7
 10
380
 20
26
 11
380
 21
0
  0
LINE
  8
0
  6
CENTER
 62
     7
 10
200
 20
8.5
 11
200
 21
-1
  0
LINE
  8
0
  6
CENTER
 62
     7
 10
280
 20
8.5
 11
280
 21
-1
  0
LINE
  8
0
  6
CENTER
 62
     7
 10
360
 20
27
 11
360
 21
-1
  0
LINE
  8
0
  6
CONTINUOUS
 62
     7
 10
100
 20
23.2022876739502
 11
179
 21
23.2022876739502
  0
LINE
  8
0
  6
CONTINUOUS
 62
     7
 10
100
 20
19.79771232604981
 11
179
 21
19.79771232604981
  0
LINE
  8
0
  6
CONTINUOUS
 62
     7
 10
100
 20
16.39996528625488
 11
179
 21
16.39996528625488
  0
LINE
  8
0
  6
CONTINUOUS
 62
     7
 10
100
 20
10.49998283386231
 11
179
 21
10.49998283386231
  0
LINE
  8
0
  6
CONTINUOUS
 62
     7
 10
100
 20
6.999982833862305
 11
380
 21
6.999982833862305
  0
LINE
  8
0
  6
CONTINUOUS
 62
     7
 10
301
 20
23.2022876739502
 11
380
 21
23.2022876739502
  0
LINE
  8
0
  6
CONTINUOUS
 62
     7
 10
301
 20
19.79771232604981
 11
380
 21
19.79771232604981
  0
LINE
  8
0
  6
CONTINUOUS
 62
     7
 10
301
 20
16.39996528625488
 11
380
 21
16.39996528625488
  0
LINE
  8
0
  6
CONTINUOUS
 62
     7
 10
301
 20
10.49998283386231
 11
380
 21
10.49998283386231
  0
LINE
  8
0
  6
CENTER
 62
     7
 10
99
 20
170
 11
381
 21
170
  0
LINE
  8
0
  6
CONTINUOUS
 62
     7
 10
35
 20
53.4999885559082
 11
35
 21
40
  0
LINE
  8
0
  6
CONTINUOUS
 62
     7
 10
193.5
 20
205
 11
286.5
 21
205
  0
LINE
  8
0
  6
CONTINUOUS
 62
     7
 10
193.5
 20
186.5
 11
286.5
 21
186.5
  0
LINE
  8
0
  6
CONTINUOUS
 62
     7
 10
193.5
 20
175.5
 11
286.5
 21
175.5
  0
LINE
  8
0
  6
CONTINUOUS
 62
     7
 10
193.5
 20
164.5
 11
286.5
 21
164.5
  0
LINE
  8
0
  6
CONTINUOUS
 62
     7
 10
193.5
 20
153.5
 11
286.5
 21
153.5
  0
LINE
  8
0
  6
CONTINUOUS
 62
     7
 10
193.5
 20
135
 11
286.5
 21
135
  0
LINE
  8
0
  6
CONTINUOUS
 62
     7
 10
179
 20
136
 11
193.5
 21
136
  0
LINE
  8
0
  6
CONTINUOUS
 62
     7
 10
179
 20
204
 11
193.5
 21
204
  0
LINE
  8
0
  6
CONTINUOUS
 62
     7
 10
179
 20
204
 11
179
 21
136
  0
LINE
  8
0
  6
CONTINUOUS
 62
     7
 10
193.5
 20
205
 11
193.5
 21
135
  0
LINE
  8
0
  6
CONTINUOUS
 62
     7
 10
286.5
 20
205
 11
286.5
 21
135
  0
LINE
  8
0
  6
CONTINUOUS
 62
     7
 10
301
 20
204
 11
301
 21
136
  0
LINE
  8
0
  6
CONTINUOUS
 62
     7
 10
286.5
 20
204
 11
301
 21
204
  0
LINE
  8
0
  6
CONTINUOUS
 62
     7
 10
286.5
 20
136
 11
301
 21
136
  0
LINE
  8
0
  6
CENTER
 62
     7
 10
215
 20
150
 11
215
 21
140
  0
LINE
  8
0
  6
CENTER
 62
     7
 10
210
 20
145
 11
220
 21
145
  0
LINE
  8
0
  6
CENTER
 62
     7
 10
270
 20
145
 11
260
 21
145
  0
LINE
  8
0
  6
CENTER
 62
     7
 10
265
 20
150
 11
265
 21
140
  0
LINE
  8
0
  6
CENTER
 62
     7
 10
210
 20
195
 11
220
 21
195
  0
LINE
  8
0
  6
CENTER
 62
     7
 10
215
 20
190
 11
215
 21
200
  0
LINE
  8
0
  6
CENTER
 62
     7
 10
270
 20
195
 11
260
 21
195
  0
LINE
  8
0
  6
CENTER
 62
     7
 10
265
 20
190
 11
265
 21
200
  0
LINE
  8
0
  6
CONTINUOUS
 62
     7
 10
100
 20
153
 11
179
 21
153
  0
LINE
  8
0
  6
CONTINUOUS
 62
     7
 10
100
 20
187
 11
179
 21
187
  0
LINE
  8
0
  6
CONTINUOUS
 62
     7
 10
100
 20
184.2985382080078
 11
179
 21
184.2985382080078
  0
LINE
  8
0
  6
CONTINUOUS
 62
     7
 10
100
 20
155.7014617919922
 11
179
 21
155.7014617919922
  0
LINE
  8
0
  6
CONTINUOUS
 62
     7
 10
100
 20
187
 11
100
 21
153
  0
LINE
  8
0
  6
CONTINUOUS
 62
     7
 10
380
 20
187
 11
380
 21
153
  0
LINE
  8
0
  6
CONTINUOUS
 62
     7
 10
301
 20
155.7014617919922
 11
380
 21
155.7014617919922
  0
LINE
  8
0
  6
CONTINUOUS
 62
     7
 10
301
 20
153
 11
380
 21
153
  0
LINE
  8
0
  6
CONTINUOUS
 62
     7
 10
301
 20
184.2985382080078
 11
380
 21
184.2985382080078
  0
LINE
  8
0
  6
CONTINUOUS
 62
     7
 10
301
 20
187
 11
380
 21
187
  0
LINE
  8
0
  6
CENTER
 62
     7
 10
120
 20
178
 11
120
 21
162
  0
LINE
  8
0
  6
CENTER
 62
     7
 10
200
 20
178
 11
200
 21
162
  0
LINE
  8
0
  6
CENTER
 62
     7
 10
280
 20
178
 11
280
 21
162
  0
LINE
  8
0
  6
CENTER
 62
     7
 10
360
 20
178
 11
360
 21
162
  0
LINE
  8
0
  6
CONTINUOUS
 62
     7
 10
176.2001037597656
 20
174
 11
179
 21
174
  0
LINE
  8
0
  6
CONTINUOUS
 62
     7
 10
177.8201293945313
 20
166
 11
179
 21
166
  0
LINE
  8
0
  6
CONTINUOUS
 62
     7
 10
172.2001037597656
 20
170
 11
172.2001037597656
 21
168.327880859375
  0
LINE
  8
0
  6
CENTER
 62
     7
 10
171.7518615722656
 20
158.4778900146484
 11
176.6171722412109
 21
170.2237701416016
  0
LINE
  8
0
  6
CONTINUOUS
 62
     7
 10
169.9827880859375
 20
160.4784393310547
 11
174.4174194335938
 21
158.6415710449219
  0
LINE
  8
0
  6
CONTINUOUS
 62
     7
 10
170.1845550537109
 20
163.3173522949219
 11
176.2821502685547
 21
160.7916412353516
  0
LINE
  8
0
  6
CONTINUOUS
 62
     7
 10
169.9827880859375
 20
160.4784545898438
 11
170.1845550537109
 21
163.3173370361328
  0
LINE
  8
0
  6
CONTINUOUS
 62
     7
 10
174.4174041748047
 20
158.6415557861328
 11
176.2821502685547
 21
160.7916259765625
  0
LINE
  8
0
  6
CONTINUOUS
 62
     7
 10
170.9232635498047
 20
167.0381774902344
 11
171.3379364013672
 21
168.0392608642578
  0
LINE
  8
0
  6
CONTINUOUS
 62
     7
 10
178.3908538818359
 20
163.9450073242188
 11
178.8055114746094
 21
164.9460754394531
  0
LINE
  8
0
  6
CONTINUOUS
 62
     7
 10
172.1173706054688
 20
168.3620910644531
 11
171.3379211425781
 21
168.0392303466797
  0
LINE
  8
0
  6
CONTINUOUS
 62
     7
 10
172.5605621337891
 20
165.7105865478516
 11
173.4331359863281
 21
167.8171539306641
  0
LINE
  8
0
  6
CONTINUOUS
 62
     7
 10
176.2943420410156
 20
164.1640167236328
 11
177.1669006347656
 21
166.2705688476563
  0
LINE
  8
0
  6
CONTINUOUS
 62
     7
 10
172.1173858642578
 20
168.3621673583984
 11
178.4826812744141
 21
165.7255706787109
  0
LINE
  8
0
  6
CONTINUOUS
 62
     7
 10
178.8055114746094
 20
164.9460601806641
 11
178.4826507568359
 21
165.7255096435547
  0
LINE
  8
0
  6
CONTINUOUS
 62
     7
 10
171.3148193359375
 20
164.739501953125
 11
176.4885406494141
 21
162.5964660644531
  0
LINE
  8
0
  6
CONTINUOUS
 62
     7
 10
171.1530456542969
 20
166.2935943603516
 11
177.7018432617188
 21
163.5810089111328
  0
CIRCLE
  8
0
  6
CONTINUOUS
 62
     7
 10
187
 20
43.5
 40
1
  0
CIRCLE
  8
0
  6
CONTINUOUS
 62
     7
 10
187
 20
42.5
 40
2.599999904632568
  0
ARC
  8
0
  6
CONTINUOUS
 62
     7
 10
16.70001220703125
 20
22.9312744140625
 40
0.300000011920929
 50
0
 51
81.66670043401007
  0
ARC
  8
0
  6
CONTINUOUS
 62
     7
 10
17.157958984375
 20
16.94207763671875
 40
2.859999895095824
 50
98.33329774475726
 51
172.6108058365131
  0
ARC
  8
0
  6
CONTINUOUS
 62
     7
 10
17.157958984375
 20
26.05792236328125
 40
2.859999895095825
 50
186.5034962130546
 51
261.6667022552427
  0
ARC
  8
0
  6
CONTINUOUS
 62
     7
 10
16
 20
6.585784912109375
 40
1
 50
0
 51
45.00000125223906
  0
ARC
  8
0
  6
CONTINUOUS
 62
     7
 10
14.018310546875
 20
25.69999694824219
 40
0.3000000119209287
 50
6.503499941350404
 51
90.00000250447825
  0
ARC
  8
0
  6
CONTINUOUS
 62
     7
 10
16.70001220703125
 20
20.0687255859375
 40
0.3000000119209288
 50
278.33329956599
 51
0
  0
ARC
  8
0
  6
CONTINUOUS
 62
     7
 10
14.5
 20
10.91421508789063
 40
1.000000000000001
 50
179.999991348578
 51
224.9999960159116
  0
ARC
  8
0
  6
CONTINUOUS
 62
     7
 10
14.02423095703125
 20
17.34848022460938
 40
0.3000000119209277
 50
314.999998747761
 51
352.6108033888776
  0
ARC
  8
0
  6
CONTINUOUS
 62
     7
 10
14.5
 20
15.98578643798828
 40
1
 50
135.0000003416226
 51
180.0000050089563
  0
ARC
  8
0
  6
CONTINUOUS
 62
     7
 10
4.20709228515625
 20
0
 40
0.4999999999999999
 50
90.00000250447816
 51
135.0000003416227
  0
ARC
  8
0
  6
CONTINUOUS
 62
     7
 10
8.79290771484375
 20
0
 40
0.5000000000000003
 50
45.00000125223905
 51
90.00000250447806
  0
ARC
  8
0
  6
CONTINUOUS
 62
     7
 10
-14.018310546875
 20
25.69999694824219
 40
0.3000000119209292
 50
90.00000250447825
 51
173.4965037869456
  0
ARC
  8
0
  6
CONTINUOUS
 62
     7
 10
-17.157958984375
 20
26.05792236328125
 40
2.859999895095825
 50
278.3332995659901
 51
353.4965000586494
  0
ARC
  8
0
  6
CONTINUOUS
 62
     7
 10
-17.157958984375
 20
16.94207763671875
 40
2.859999895095825
 50
7.389196611122357
 51
81.66670043400987
  0
ARC
  8
0
  6
CONTINUOUS
 62
     7
 10
-16
 20
6.585784912109375
 40
0.9999999999999999
 50
135.0000003416227
 51
180.0000050089563
  0
ARC
  8
0
  6
CONTINUOUS
 62
     7
 10
-14.5
 20
10.91421508789063
 40
0.9999999999999996
 50
314.9999987477609
 51
0
  0
ARC
  8
0
  6
CONTINUOUS
 62
     7
 10
-16.70001220703125
 20
20.0687255859375
 40
0.3000000119209288
 50
179.9999913485781
 51
261.666705442966
  0
ARC
  8
0
  6
CONTINUOUS
 62
     7
 10
-16.70001220703125
 20
22.9312744140625
 40
0.3000000119209302
 50
98.33329774475735
 51
180.0000050089565
  0
ARC
  8
0
  6
CONTINUOUS
 62
     7
 10
-14.02423095703125
 20
17.34848022460938
 40
0.3000000119209293
 50
187.3891941634868
 51
224.9999996583771
  0
ARC
  8
0
  6
CONTINUOUS
 62
     7
 10
-14.5
 20
15.98578643798828
 40
1
 50
0
 51
45.00000125223906
  0
ARC
  8
0
  6
CONTINUOUS
 62
     7
 10
-8.79290771484375
 20
0
 40
0.4999999999999999
 50
90.00000250447806
 51
135.0000003416227
  0
ARC
  8
0
  6
CONTINUOUS
 62
     7
 10
-4.20709228515625
 20
0
 40
0.5
 50
45.00000125223908
 51
90.00000250447816
  0
ARC
  8
0
  6
CONTINUOUS
 62
     7
 10
176.5000610351563
 20
40.00006103515625
 40
3.999999999999998
 50
89.99998201391055
 51
118.4958044387709
  0
ARC
  8
0
  6
CONTINUOUS
 62
     7
 10
176.5000610351563
 20
40.00006103515625
 40
3.982465744018556
 50
241.5040862782025
 51
269.9999087030627
  0
ARC
  8
0
  6
CONTINUOUS
 62
     7
 10
-35.20001220703125
 20
39.49288940429688
 40
0.5
 50
0
 51
45.0000012522392
  0
ARC
  8
0
  6
CONTINUOUS
 62
     7
 10
35.20001220703125
 20
39.49288940429688
 40
0.4999999999999991
 50
135.0000003416228
 51
180.0000050089561
  0
ARC
  8
0
  6
CONTINUOUS
 62
     7
 10
15.79290771484375
 20
55
 40
0.5000000000000004
 50
269.9999974955217
 51
314.9999987477608
  0
ARC
  8
0
  6
CONTINUOUS
 62
     7
 10
-15.79290771484375
 20
55
 40
0.4999999999999991
 50
224.9999996583772
 51
269.9999974955217
  0
ARC
  8
0
  6
CONTINUOUS
 62
     7
 10
-6.20709228515625
 20
55
 40
0.5000000000000004
 50
269.9999974955218
 51
314.9999987477609
  0
ARC
  8
0
  6
CONTINUOUS
 62
     7
 10
6.20709228515625
 20
55
 40
0.4999999999999991
 50
224.9999996583772
 51
269.9999974955218
  0
ARC
  8
0
  6
CONTINUOUS
 62
     7
 10
32.70001220703125
 20
9.5
 40
2
 50
269.9999974955217
 51
0
  0
ARC
  8
0
  6
CONTINUOUS
 62
     7
 10
-32.70001220703125
 20
9.5
 40
2.000000000000001
 50
179.999991348578
 51
270.0000006832452
  0
CIRCLE
  8
0
  6
CONTINUOUS
 62
     7
 10
-25
 20
37
 40
1.649999976158142
  0
ARC
  8
0
  6
CONTINUOUS
 62
     7
 10
7.610000610351563
 20
37.70999145507813
 40
0.9683421850204466
 50
215.3314570768741
 51
278.2972225067941
  0
ARC
  8
0
  6
CONTINUOUS
 62
     7
 10
6.620010375976563
 20
35.91999816894531
 40
1.246148109436035
 50
80.76452806729958
 51
142.1250351177264
  0
ARC
  8
0
  6
CONTINUOUS
 62
     7
 10
6.620010375976563
 20
44.08000183105469
 40
1.254199028015138
 50
217.8749648822736
 51
279.2353626496737
  0
ARC
  8
0
  6
CONTINUOUS
 62
     7
 10
7.610000610351563
 20
42.28999328613281
 40
0.9701611399650598
 50
81.70288677623263
 51
144.668542923126
  0
ARC
  8
0
  6
CONTINUOUS
 62
     7
 10
0
 20
40
 40
4.000000000000003
 50
240.0000239814524
 51
241.0449882829511
  0
ARC
  8
0
  6
CONTINUOUS
 62
     7
 10
0
 20
40
 40
3.998106002807619
 50
61.09402038976974
 51
298.9059076658729
  0
CIRCLE
  8
0
  6
CONTINUOUS
 62
     7
 10
215
 20
145
 40
4
  0
CIRCLE
  8
0
  6
CONTINUOUS
 62
     7
 10
215
 20
145
 40
3.449951171875
  0
CIRCLE
  8
0
  6
CONTINUOUS
 62
     7
 10
120
 20
170
 40
4.5
  0
CIRCLE
  8
0
  6
CONTINUOUS
 62
     7
 10
120
 20
170
 40
7
  0
ARC
  8
0
  6
CONTINUOUS
 62
     7
 10
173.2333526611328
 20
162.0544738769531
 40
3.299999237060546
 50
131.5803705110077
 51
157.4999548639651
  0
ARC
  8
0
  6
CONTINUOUS
 62
     7
 10
173.2333526611328
 20
162.0544738769531
 40
3.299999237060545
 50
337.5000181569009
 51
3.419602296415186
  0
ARC
  8
0
  6
CONTINUOUS
 62
     7
 10
165.3170013427734
 20
164.9005737304688
 40
6.00000000000001
 50
2.43365082934552
 51
20.87173987704925
  0
ARC
  8
0
  6
CONTINUOUS
 62
     7
 10
180.8435363769531
 20
158.4692687988281
 40
6.000000000000011
 50
114.1278165022775
 51
132.5663219780772
  0
ARC
  8
0
  6
CONTINUOUS
 62
     7
 10
170.5122985839844
 20
165.1213684082031
 40
0.7999999523162822
 50
311.5798327472963
 51
2.433049772698627
  0
ARC
  8
0
  6
CONTINUOUS
 62
     7
 10
177.3260345458984
 20
162.2990264892578
 40
0.7999999523162747
 50
132.5669776762372
 51
183.4201402735692
  0
ARC
  8
0
  6
CONTINUOUS
 62
     7
 10
176.2001037597656
 20
170
 40
3.999999999999998
 50
89.99998201391055
 51
180.0000186693345
  0
POLYLINE
  8
0
  6
CONTINUOUS
 62
     7
 66
     1
 10
0
 20
0
 70
     1
  0
VERTEX
  8
0
  6
CONTINUOUS
 62
     7
 10
172.2000732421875
 20
42.50006103515625
 42
0.1103766402672642
  0
VERTEX
  8
0
  6
CONTINUOUS
 62
     7
 10
171.2879176641488
 20
42.29504775027829
 42
0.1025063103624479
  0
VERTEX
  8
0
  6
CONTINUOUS
 62
     7
 10
170.5405825638063
 20
41.73104518029151
 42
0.09329071095237161
  0
VERTEX
  8
0
  6
CONTINUOUS
 62
     7
 10
170.062976110731
 20
40.92415670357452
 42
0.08782115919313967
  0
VERTEX
  8
0
  6
CONTINUOUS
 62
     7
 10
169.9000854492188
 20
40.00006103515625
 42
0.08776972610216849
  0
VERTEX
  8
0
  6
CONTINUOUS
 62
     7
 10
170.0628069856004
 20
39.07644410407983
 42
0.09325948191439767
  0
VERTEX
  8
0
  6
CONTINUOUS
 62
     7
 10
170.5400923387024
 20
38.26963367959443
 42
0.1026323877385265
  0
VERTEX
  8
0
  6
CONTINUOUS
 62
     7
 10
171.2882895449814
 20
37.70489407002463
 42
0.1103342933304384
  0
VERTEX
  8
0
  6
CONTINUOUS
 62
     7
 10
172.2000732421875
 20
37.50006103515625
 42
0.1103766243129951
  0
VERTEX
  8
0
  6
CONTINUOUS
 62
     7
 10
173.1122288769619
 20
37.70507408343906
 42
0.1025063503219187
  0
VERTEX
  8
0
  6
CONTINUOUS
 62
     7
 10
173.8595640893165
 20
38.26907649699327
 42
0.0932907664956311
  0
VERTEX
  8
0
  6
CONTINUOUS
 62
     7
 10
174.3371705434605
 20
39.07596496550358
 42
0.08782123015721491
  0
VERTEX
  8
0
  6
CONTINUOUS
 62
     7
 10
174.5000610351563
 20
40.00006103515625
 42
0.08776970764787799
  0
VERTEX
  8
0
  6
CONTINUOUS
 62
     7
 10
174.3373391596796
 20
40.92367790888404
 42
0.09325941392043406
  0
VERTEX
  8
0
  6
CONTINUOUS
 62
     7
 10
173.8600536521345
 20
41.73048825143138
 42
0.1026323341646885
  0
VERTEX
  8
0
  6
CONTINUOUS
 62
     7
 10
173.1118564772421
 20
42.29522792838179
 42
0.1103343060174448
  0
SEQEND
  8
0
  0
POLYLINE
  8
0
  6
CONTINUOUS
 62
     7
 66
     1
 10
0
 20
0
  0
VERTEX
  8
0
  6
CONTINUOUS
 62
     7
 10
173.300048828125
 20
43.25006103515625
 42
0.01434921821187698
  0
VERTEX
  8
0
  6
CONTINUOUS
 62
     7
 10
173.1411679465699
 20
43.24550004651429
 42
0.01426056111810549
  0
VERTEX
  8
0
  6
CONTINUOUS
 62
     7
 10
172.9835570619263
 20
43.23192471569655
 42
0.01417567788342483
  0
VERTEX
  8
0
  6
CONTINUOUS
 62
     7
 10
172.8274581728117
 20
43.20948207779338
 42
0.01415086977252077
  0
VERTEX
  8
0
  6
CONTINUOUS
 62
     7
 10
172.672496173852
 20
43.17815885103594
 42
0.01410158157511409
  0
VERTEX
  8
0
  6
CONTINUOUS
 62
     7
 10
172.5192343345025
 20
43.13805131725543
 42
0.01402957761924675
  0
VERTEX
  8
0
  6
CONTINUOUS
 62
     7
 10
172.3682176405224
 20
43.08930729800238
 42
0.01393699711165216
  0
VERTEX
  8
0
  6
CONTINUOUS
 62
     7
 10
172.2199673142774
 20
43.03212194134785
 42
0.01382627700131826
  0
VERTEX
  8
0
  6
CONTINUOUS
 62
     7
 10
172.074976194914
 20
42.96673273169289
 42
0.01370006726120681
  0
VERTEX
  8
0
  6
CONTINUOUS
 62
     7
 10
171.9337050957343
 20
42.89341394011685
 42
0.01356114429490495
  0
VERTEX
  8
0
  6
CONTINUOUS
 62
     7
 10
171.7965802027298
 20
42.81247074947775
 42
0.01332237275892848
  0
VERTEX
  8
0
  6
CONTINUOUS
 62
     7
 10
171.6648703368991
 20
42.72485247173152
 42
0.0132878014978686
  0
VERTEX
  8
0
  6
CONTINUOUS
 62
     7
 10
171.5368495661641
 20
42.62948942749235
 42
0.01315486993399104
  0
VERTEX
  8
0
  6
CONTINUOUS
 62
     7
 10
171.4137973375255
 20
42.52728412556029
 42
0.01293833503371184
  0
VERTEX
  8
0
  6
CONTINUOUS
 62
     7
 10
171.2967530737676
 20
42.41926979730063
 42
0.01278034265101083
  0
VERTEX
  8
0
  6
CONTINUOUS
 62
     7
 10
171.1854166664423
 20
42.30538082373256
 42
0.01262533131146194
  0
VERTEX
  8
0
  6
CONTINUOUS
 62
     7
 10
171.0800072352231
 20
42.18598377516759
 42
0
  0
SEQEND
  8
0
  0
POLYLINE
  8
0
  6
CONTINUOUS
 62
     7
 66
     1
 10
0
 20
0
  0
VERTEX
  8
0
  6
CONTINUOUS
 62
     7
 10
171.0759803859384
 20
37.81894799099465
 42
0.0628319953375088
  0
VERTEX
  8
0
  6
CONTINUOUS
 62
     7
 10
171.6402792011101
 20
37.29277586747406
 42
0.0664969844457097
  0
VERTEX
  8
0
  6
CONTINUOUS
 62
     7
 10
172.3202795386546
 20
36.92827116233508
 42
0.06915551843348473
  0
VERTEX
  8
0
  6
CONTINUOUS
 62
     7
 10
173.0726341606451
 20
36.75941242665906
 42
0.06975294720108427
  0
VERTEX
  8
0
  6
CONTINUOUS
 62
     7
 10
173.8413890403824
 20
36.80341043579193
 42
0.06816347455635992
  0
VERTEX
  8
0
  6
CONTINUOUS
 62
     7
 10
174.5692324776234
 20
37.05523210426217
 42
0.06499586596209878
  0
VERTEX
  8
0
  6
CONTINUOUS
 62
     7
 10
175.2057981700075
 20
37.49006353834341
 42
0.06129087960800912
  0
VERTEX
  8
0
  6
CONTINUOUS
 62
     7
 10
175.7138556772321
 20
38.07016451557927
 42
0.05807959718018345
  0
VERTEX
  8
0
  6
CONTINUOUS
 62
     7
 10
176.0708528372959
 20
38.75415844137023
 42
0.05590537556125298
  0
VERTEX
  8
0
  6
CONTINUOUS
 62
     7
 10
176.2645115936436
 20
39.50130236762459
 42
0.05496367752838709
  0
VERTEX
  8
0
  6
CONTINUOUS
 62
     7
 10
176.2895265585174
 20
40.27202485807082
 42
0.05547385665545827
  0
VERTEX
  8
0
  6
CONTINUOUS
 62
     7
 10
176.1454477564651
 20
41.02991416989686
 42
0.05728037912822981
  0
VERTEX
  8
0
  6
CONTINUOUS
 62
     7
 10
175.8360383908463
 20
41.73635596055673
 42
0.06026825000562059
  0
VERTEX
  8
0
  6
CONTINUOUS
 62
     7
 10
175.3707997352624
 20
42.35166523030524
 42
0.06395239830566195
  0
VERTEX
  8
0
  6
CONTINUOUS
 62
     7
 10
174.7685935904675
 20
42.83404411414342
 42
0.06744492301988957
  0
VERTEX
  8
0
  6
CONTINUOUS
 62
     7
 10
174.0619364921716
 20
43.14350646488813
 42
0.06944156007758275
  0
VERTEX
  8
0
  6
CONTINUOUS
 62
     7
 10
173.300048828125
 20
43.25006103515625
 42
0
  0
SEQEND
  8
0
  0
POLYLINE
  8
0
  6
CONTINUOUS
 62
     7
 66
     1
 10
0
 20
0
  0
VERTEX
  8
0
  6
CONTINUOUS
 62
     7
 10
6.819992065429688
 20
42.8499755859375
 42
0.1885745464297904
  0
VERTEX
  8
0
  6
CONTINUOUS
 62
     7
 10
6.46026153852227
 20
42.69028703984912
 42
0.07574466113828697
  0
VERTEX
  8
0
  6
CONTINUOUS
 62
     7
 10
6.216026985965466
 20
42.37245062832677
 42
0.03933594534516361
  0
VERTEX
  8
0
  6
CONTINUOUS
 62
     7
 10
6.046165317503697
 20
42.00711706913912
 42
0.02577125752719252
  0
VERTEX
  8
0
  6
CONTINUOUS
 62
     7
 10
5.924010893244024
 20
41.62296641807139
 42
0.01950521772359518
  0
VERTEX
  8
0
  6
CONTINUOUS
 62
     7
 10
5.836520256462828
 20
41.22875464113596
 42
0.01621461060572902
  0
VERTEX
  8
0
  6
CONTINUOUS
 62
     7
 10
5.777160254708039
 20
40.82916366168362
 42
0.01446653763776323
  0
VERTEX
  8
0
  6
CONTINUOUS
 62
     7
 10
5.74229278684315
 20
40.42663897834304
 42
0.01369126526819146
  0
VERTEX
  8
0
  6
CONTINUOUS
 62
     7
 10
5.730044907543697
 20
40.0224948995088
 42
0.01360481565901784
  0
VERTEX
  8
0
  6
CONTINUOUS
 62
     7
 10
5.739761797781866
 20
39.61964974889296
 42
0.01431525852920828
  0
VERTEX
  8
0
  6
CONTINUOUS
 62
     7
 10
5.771912195952454
 20
39.21739843680845
 42
0.01598185402871915
  0
VERTEX
  8
0
  6
CONTINUOUS
 62
     7
 10
5.82842391162682
 20
38.81658057188146
 42
0.01902675483989563
  0
VERTEX
  8
0
  6
CONTINUOUS
 62
     7
 10
5.912486364333772
 20
38.42142739773306
 42
0.02487977718049958
  0
VERTEX
  8
0
  6
CONTINUOUS
 62
     7
 10
6.03050285131564
 20
38.0350316284218
 42
0.03729615370142823
  0
VERTEX
  8
0
  6
CONTINUOUS
 62
     7
 10
6.194578623268982
 20
37.66584860095529
 42
0.06998284816446336
  0
VERTEX
  8
0
  6
CONTINUOUS
 62
     7
 10
6.430164842897741
 20
37.33851861784648
 42
0.1738206340221396
  0
VERTEX
  8
0
  6
CONTINUOUS
 62
     7
 10
6.779932678960283
 20
37.1519216751302
 42
0
  0
SEQEND
  8
0
  0
POLYLINE
  8
0
  6
CONTINUOUS
 62
     7
 66
     1
 10
0
 20
0
 70
     1
  0
VERTEX
  8
0
  6
CONTINUOUS
 62
     7
 10
10.52000427246094
 20
42.5
 42
0.2551592727854654
  0
VERTEX
  8
0
  6
CONTINUOUS
 62
     7
 10
9.990194421972644
 20
42.0751119002738
 42
0.06319138472297109
  0
VERTEX
  8
0
  6
CONTINUOUS
 62
     7
 10
9.736099333476972
 20
41.41222525446329
 42
0.03518638918167154
  0
VERTEX
  8
0
  6
CONTINUOUS
 62
     7
 10
9.609369637790104
 20
40.71217549301893
 42
0.02798531261535587
  0
VERTEX
  8
0
  6
CONTINUOUS
 62
     7
 10
9.57000732421875
 20
40
 42
0.02789942790996648
  0
VERTEX
  8
0
  6
CONTINUOUS
 62
     7
 10
9.609140981222661
 20
39.28985243969201
 42
0.03516017990498833
  0
VERTEX
  8
0
  6
CONTINUOUS
 62
     7
 10
9.735634869873794
 20
38.58956192317743
 42
0.06315573245371507
  0
VERTEX
  8
0
  6
CONTINUOUS
 62
     7
 10
9.989666863013213
 20
37.92582168183449
 42
0.2552844263601152
  0
VERTEX
  8
0
  6
CONTINUOUS
 62
     7
 10
10.52000427246094
 20
37.5
 42
0.2551594730479626
  0
VERTEX
  8
0
  6
CONTINUOUS
 62
     7
 10
11.04981459858741
 20
37.924887473333
 42
0.06319156037848696
  0
VERTEX
  8
0
  6
CONTINUOUS
 62
     7
 10
11.30390981534024
 20
38.58777405749937
 42
0.03518647356580523
  0
VERTEX
  8
0
  6
CONTINUOUS
 62
     7
 10
11.4306393075316
 20
39.28782385241519
 42
0.02798539198549958
  0
VERTEX
  8
0
  6
CONTINUOUS
 62
     7
 10
11.47000122070313
 20
40
 42
0.02789946216536883
  0
VERTEX
  8
0
  6
CONTINUOUS
 62
     7
 10
11.4308677871041
 20
40.71014757108541
 42
0.03516022448293314
  0
VERTEX
  8
0
  6
CONTINUOUS
 62
     7
 10
11.3043740106433
 20
41.41043810603362
 42
0.06315580443705188
  0
VERTEX
  8
0
  6
CONTINUOUS
 62
     7
 10
11.05034197507806
 20
42.07417832508457
 42
0.2552843239603294
  0
SEQEND
  8
0
  0
TEXT
  8
0
  6
CONTINUOUS
 62
     7
 10
-11.28550004959106
 20
-31.79999995231628
 40
3.599999904632568
 41
1.008382419577613
  1
SHS35R
  0
ENDSEC
  0
EOF
