  0
SECTION
  2
HEADER
  0
ENDSEC
  0
SECTION
  2
TABLES
  0
TABLE
  2
LTYPE
 70
    22
  0
LTYPE
  2
CONTINUOUS
 70
    64
  3
Solid line
 72
    65
 73
     0
 40
0.000000
  0
LTYPE
  2
DASHED
 70
    64
  3
__ __ __ __ __ __ __ __ __ __ __ __ __ __ __
 72
    65
 73
     2
 40
3.500000
 49
2.000000
 49
-1.500000
  0
LTYPE
  2
CENTER
 70
    64
  3
____ _ ____ _ ____ _ ____ _ ____ _ ____ _ ____
 72
    65
 73
     4
 40
17.500000
 49
13.000000
 49
-1.500000
 49
1.500000
 49
-1.500000
  0
LTYPE
  2
PHANTOM
 70
    64
  3
_____ _ _ _____ _ _ _____ _ _ _____ _ _ ____  
 72
    65
 73
     6
 40
15.500000
 49
8.000000
 49
-1.500000
 49
1.500000
 49
-1.500000
 49
1.500000
 49
-1.500000
  0
LTYPE
  2
DOT
 70
    64
  3
. . . . . . . . . . . . . . . . . . . . . . . .
 72
    65
 73
     2
 40
0.25
 49
0.0
 49
-0.25
  0
ENDTAB
  0
TABLE
  2
LAYER
 70
     1
  0
LAYER
  2
0
 70
     0
 62
     7
  6
CONTINUOUS
  0
ENDTAB
  0
TABLE
  2
STYLE
 70
     1
  0
STYLE
  2
STANDARD
 70
     0
 40
0.000000
 41
1.000000
 50
0.000000
 71
     0
 42
0.200000
  3
txt
  0
ENDTAB
  0
TABLE
  2
VIEW
 70
     0
  0
ENDTAB
  0
ENDSEC
  0
SECTION
  2
BLOCKS
  0
ENDSEC
  0
SECTION
  2
ENTITIES
  0
LINE
  8
0
  6
DASHED
 62
     7
 10
147.5
 20
15
 11
167.5
 21
15
  0
LINE
  8
0
  6
CONTINUOUS
 62
     7
 10
-60
 20
58.49998474121094
 11
-60
 21
46
  0
LINE
  8
0
  6
CONTINUOUS
 62
     7
 10
-7.5
 20
0.5
 11
-14.50006103515625
 21
0.5
  0
LINE
  8
0
  6
CENTER
 62
     7
 10
0
 20
61
 11
0
 21
-1
  0
LINE
  8
0
  6
CONTINUOUS
 62
     7
 10
-14.50006484985352
 20
0.500041663646698
 11
-15.00005435943604
 21
5.192491880734451E-005
  0
LINE
  8
0
  6
CONTINUOUS
 62
     7
 10
19.1900634765625
 20
32
 11
-19.1900634765625
 21
32
  0
LINE
  8
0
  6
CONTINUOUS
 62
     7
 10
-22.50001335144043
 20
2.000003337860107
 11
-20.50001335144043
 21
1.833387386795948E-006
  0
LINE
  8
0
  6
CONTINUOUS
 62
     7
 10
-22.5
 20
8.292938232421875
 11
-22.5
 21
2
  0
LINE
  8
0
  6
CONTINUOUS
 62
     7
 10
-22.5
 20
28.56990051269531
 11
-22.5
 21
24.43011474609375
  0
LINE
  8
0
  6
CONTINUOUS
 62
     7
 10
-15
 20
0
 11
-20.5
 21
0
  0
LINE
  8
0
  6
CONTINUOUS
 62
     7
 10
60
 20
58.5
 11
60
 21
45.99998474121094
  0
LINE
  8
0
  6
DASHED
 62
     7
 10
-10
 20
32
 11
-10
 21
15
  0
LINE
  8
0
  6
CONTINUOUS
 62
     7
 10
-7.000003337860107
 20
8.429369700024836E-006
 11
-7.499992847442627
 21
0.4999981820583344
  0
LINE
  8
0
  6
DASHED
 62
     7
 10
-7
 20
15
 11
-7
 21
0
  0
LINE
  8
0
  6
CONTINUOUS
 62
     7
 10
-19.04287338256836
 20
11.95716571807861
 11
-22.35355186462402
 21
8.646487236022949
  0
LINE
  8
0
  6
CONTINUOUS
 62
     7
 10
-19.5435962677002
 20
21.14644622802734
 11
-19.04291534423828
 21
20.64576721191406
  0
LINE
  8
0
  6
CONTINUOUS
 62
     7
 10
-18.75
 20
19.93864440917969
 11
-18.75
 21
12.66426086425781
  0
LINE
  8
0
  6
CONTINUOUS
 62
     7
 10
384.9999389648438
 20
58.94998168945313
 11
384.9999389648438
 21
10.29998779296875
  0
LINE
  8
0
  6
CONTINUOUS
 62
     7
 10
227.9999847412109
 20
58.5
 11
227.9999847412109
 21
8.899999618530273
  0
LINE
  8
0
  6
CONTINUOUS
 62
     7
 10
227.9999847412109
 20
8.899999618530273
 11
245
 21
8.899999618530273
  0
LINE
  8
0
  6
CONTINUOUS
 62
     7
 10
227.9999847412109
 20
58.5
 11
245
 21
58.5
  0
LINE
  8
0
  6
CONTINUOUS
 62
     7
 10
245
 20
58.5
 11
245
 21
8.899999618530273
  0
LINE
  8
0
  6
CENTER
 62
     7
 10
232.3999481201172
 20
52
 11
241.5999755859375
 21
52
  0
LINE
  8
0
  6
CENTER
 62
     7
 10
236.9999847412109
 20
56.60000610351563
 11
236.9999847412109
 21
47.39999389648438
  0
LINE
  8
0
  6
CONTINUOUS
 62
     7
 10
22.50000190734863
 20
2.000037670135498
 11
20.5
 21
3.555086732376367E-005
  0
LINE
  8
0
  6
CONTINUOUS
 62
     7
 10
22.5
 20
8.292938232421875
 11
22.5
 21
2
  0
LINE
  8
0
  6
CONTINUOUS
 62
     7
 10
22.5
 20
28.56990051269531
 11
22.5
 21
24.43011474609375
  0
LINE
  8
0
  6
CONTINUOUS
 62
     7
 10
14.49998760223389
 20
0.4999985098838806
 11
14.99997806549072
 21
8.76654485182371E-006
  0
LINE
  8
0
  6
CONTINUOUS
 62
     7
 10
15
 20
0
 11
20.5
 21
0
  0
LINE
  8
0
  6
DASHED
 62
     7
 10
-10
 20
15
 11
10
 21
15
  0
LINE
  8
0
  6
DASHED
 62
     7
 10
7
 20
15
 11
7
 21
3.972294507548213E-005
  0
LINE
  8
0
  6
CONTINUOUS
 62
     7
 10
7.5
 20
0.5
 11
14.5
 21
0.5
  0
LINE
  8
0
  6
CONTINUOUS
 62
     7
 10
6.999969005584717
 20
8.429369700024836E-006
 11
7.499958515167236
 21
0.4999981820583344
  0
LINE
  8
0
  6
DASHED
 62
     7
 10
10
 20
32
 11
10
 21
15
  0
LINE
  8
0
  6
CONTINUOUS
 62
     7
 10
-7
 20
0
 11
7
 21
0
  0
LINE
  8
0
  6
CONTINUOUS
 62
     7
 10
19.04283905029297
 20
11.95716571807861
 11
22.35351753234863
 21
8.646486282348633
  0
LINE
  8
0
  6
CONTINUOUS
 62
     7
 10
19.54356193542481
 20
21.14644622802734
 11
19.04288101196289
 21
20.64576530456543
  0
LINE
  8
0
  6
CONTINUOUS
 62
     7
 10
18.75
 20
19.93864440917969
 11
18.75
 21
12.66426086425781
  0
LINE
  8
0
  6
CONTINUOUS
 62
     7
 10
16.04998779296875
 20
60
 11
-16.04998779296875
 21
60
  0
LINE
  8
0
  6
CONTINUOUS
 62
     7
 10
27.09999084472656
 20
30.3533821105957
 11
21.85847091674805
 21
36.59998321533203
  0
LINE
  8
0
  6
CONTINUOUS
 62
     7
 10
27.0999755859375
 20
30.35336303710938
 11
27.0999755859375
 21
22.6466064453125
  0
LINE
  8
0
  6
CONTINUOUS
 62
     7
 10
40.29998397827148
 20
58.49995803833008
 11
42.29998397827148
 21
56.49995422363281
  0
LINE
  8
0
  6
CONTINUOUS
 62
     7
 10
42.29998779296875
 20
56.5
 11
42.29998779296875
 21
11.89995002746582
  0
LINE
  8
0
  6
CONTINUOUS
 62
     7
 10
39.3000373840332
 20
8.899999618530273
 11
22.10000419616699
 21
8.899999618530273
  0
LINE
  8
0
  6
CENTER
 62
     7
 10
32.29998779296875
 20
52
 11
32.29998779296875
 21
41
  0
LINE
  8
0
  6
CONTINUOUS
 62
     7
 10
42.29998397827148
 20
11.89994812011719
 11
39.30000305175781
 21
8.899966239929199
  0
LINE
  8
0
  6
CONTINUOUS
 62
     7
 10
23.3499755859375
 20
18.17752075195313
 11
23.3499755859375
 21
14.15542602539063
  0
LINE
  8
0
  6
CONTINUOUS
 62
     7
 10
27.10002136230469
 20
22.64664077758789
 11
23.34996795654297
 21
18.17749977111816
  0
LINE
  8
0
  6
CENTER
 62
     7
 10
26.79998779296875
 20
46.5
 11
37.79998779296875
 21
46.5
  0
LINE
  8
0
  6
CONTINUOUS
 62
     7
 10
23.35000038146973
 20
14.15543746948242
 11
28.55546188354492
 21
8.949975967407227
  0
LINE
  8
0
  6
CONTINUOUS
 62
     7
 10
401.9999389648438
 20
32
 11
495
 21
32
  0
LINE
  8
0
  6
CENTER
 62
     7
 10
393
 20
56.60000610351563
 11
393
 21
47.39999389648438
  0
LINE
  8
0
  6
CONTINUOUS
 62
     7
 10
135
 20
32
 11
227.9999847412109
 21
32
  0
LINE
  8
0
  6
CONTINUOUS
 62
     7
 10
135
 20
0
 11
495
 21
0
  0
LINE
  8
0
  6
CENTER
 62
     7
 10
397.6000366210938
 20
52
 11
388.4000244140625
 21
52
  0
LINE
  8
0
  6
CONTINUOUS
 62
     7
 10
226.3620452880859
 20
55.35342407226563
 11
227.9999847412109
 21
55.35342407226563
  0
LINE
  8
0
  6
CONTINUOUS
 62
     7
 10
225.7999114990234
 20
54.37994384765625
 11
225.7999114990234
 21
49.49993896484375
  0
LINE
  8
0
  6
CONTINUOUS
 62
     7
 10
218.3000335693359
 20
54.2999267578125
 11
225.7999114990234
 21
54.2999267578125
  0
LINE
  8
0
  6
CONTINUOUS
 62
     7
 10
225.7999114990234
 20
44.699951171875
 11
218.2999114990234
 21
44.699951171875
  0
LINE
  8
0
  6
CONTINUOUS
 62
     7
 10
216.1500091552734
 20
53.0799560546875
 11
220.7249603271484
 21
53.0799560546875
  0
LINE
  8
0
  6
CONTINUOUS
 62
     7
 10
225.7998962402344
 20
54.37997055053711
 11
226.3619384765625
 21
55.35345458984375
  0
LINE
  8
0
  6
CONTINUOUS
 62
     7
 10
225.7999114990234
 20
49.49990844726563
 11
225.7999114990234
 21
44.61993408203125
  0
LINE
  8
0
  6
CONTINUOUS
 62
     7
 10
226.3619689941406
 20
43.6464958190918
 11
225.7999267578125
 21
44.61997985839844
  0
LINE
  8
0
  6
CONTINUOUS
 62
     7
 10
227.9999847412109
 20
43.64645385742188
 11
226.3620452880859
 21
43.64645385742188
  0
LINE
  8
0
  6
CONTINUOUS
 62
     7
 10
220.7249298095703
 20
53.07996368408203
 11
222.5649108886719
 21
49.49998474121094
  0
LINE
  8
0
  6
CONTINUOUS
 62
     7
 10
215.7527923583984
 20
52.30715942382813
 11
216.1499786376953
 21
53.07993316650391
  0
LINE
  8
0
  6
CONTINUOUS
 62
     7
 10
219.8499603271484
 20
53.07996368408203
 11
221.68994140625
 21
49.49998092651367
  0
LINE
  8
0
  6
CONTINUOUS
 62
     7
 10
221.6899108886719
 20
49.49996185302734
 11
219.8498992919922
 21
45.91995620727539
  0
LINE
  8
0
  6
CONTINUOUS
 62
     7
 10
222.5648803710938
 20
49.49998474121094
 11
220.7248687744141
 21
45.91995239257813
  0
LINE
  8
0
  6
CONTINUOUS
 62
     7
 10
220.7249603271484
 20
45.919921875
 11
216.1500091552734
 21
45.919921875
  0
LINE
  8
0
  6
CONTINUOUS
 62
     7
 10
216.1499633789063
 20
45.91998291015625
 11
215.7527770996094
 21
46.69278335571289
  0
LINE
  8
0
  6
CENTER
 62
     7
 10
211.8238372802734
 20
49.5
 11
230.7901458740234
 21
49.5
  0
LINE
  8
0
  6
CONTINUOUS
 62
     7
 10
244.9999542236328
 20
10.29997158050537
 11
245.2999572753906
 21
9.999978065490723
  0
LINE
  8
0
  6
CONTINUOUS
 62
     7
 10
245
 20
58.95001220703125
 11
245
 21
10.29998779296875
  0
LINE
  8
0
  6
CONTINUOUS
 62
     7
 10
383.9500122070313
 20
59.99997329711914
 11
385
 21
58.94997406005859
  0
LINE
  8
0
  6
CONTINUOUS
 62
     7
 10
385
 20
58.95001220703125
 11
385
 21
8.899999618530273
  0
LINE
  8
0
  6
CONTINUOUS
 62
     7
 10
245.300048828125
 20
10
 11
384.7000122070313
 21
10
  0
LINE
  8
0
  6
CONTINUOUS
 62
     7
 10
246.0499572753906
 20
59.9999885559082
 11
244.9999542236328
 21
58.94998931884766
  0
LINE
  8
0
  6
CENTER
 62
     7
 10
134
 20
225
 11
496
 21
225
  0
LINE
  8
0
  6
CONTINUOUS
 62
     7
 10
385
 20
10.29994487762451
 11
384.7000122070313
 21
9.999951362609863
  0
LINE
  8
0
  6
CENTER
 62
     7
 10
367.5
 20
11
 11
367.5
 21
-1
  0
LINE
  8
0
  6
CONTINUOUS
 62
     7
 10
350.9999389648438
 20
17
 11
279
 21
17
  0
LINE
  8
0
  6
CONTINUOUS
 62
     7
 10
385
 20
42
 11
245
 21
42
  0
LINE
  8
0
  6
CONTINUOUS
 62
     7
 10
246.050048828125
 20
60
 11
383.949951171875
 21
60
  0
LINE
  8
0
  6
CENTER
 62
     7
 10
472.5
 20
33
 11
472.5
 21
-1
  0
LINE
  8
0
  6
CONTINUOUS
 62
     7
 10
402
 20
24.17615699768066
 11
495
 21
24.17615699768066
  0
LINE
  8
0
  6
CONTINUOUS
 62
     7
 10
402
 20
28.82384300231934
 11
495
 21
28.82384300231934
  0
LINE
  8
0
  6
DASHED
 62
     7
 10
150.5
 20
15
 11
150.5
 21
0
  0
LINE
  8
0
  6
DASHED
 62
     7
 10
167.5
 20
32
 11
167.5
 21
15
  0
LINE
  8
0
  6
DASHED
 62
     7
 10
164.5
 20
15
 11
164.5
 21
3.972294507548213E-005
  0
LINE
  8
0
  6
DASHED
 62
     7
 10
147.5
 20
32
 11
147.5
 21
15
  0
LINE
  8
0
  6
CONTINUOUS
 62
     7
 10
135
 20
32
 11
135
 21
0
  0
LINE
  8
0
  6
CENTER
 62
     7
 10
157.5
 20
33
 11
157.5
 21
-1
  0
LINE
  8
0
  6
CONTINUOUS
 62
     7
 10
-59.29998779296875
 20
45.01007080078125
 11
-59.29998779296875
 21
43.5
  0
LINE
  8
0
  6
DASHED
 62
     7
 10
-41.5
 20
42
 11
-56.06890869140625
 21
42
  0
LINE
  8
0
  6
CONTINUOUS
 62
     7
 10
-16.6571044921875
 20
59.59999084472656
 11
-35.3428955078125
 21
59.59999084472656
  0
LINE
  8
0
  6
CONTINUOUS
 62
     7
 10
-60.00003814697266
 20
46.00000381469727
 11
-59.50505447387695
 21
45.50502014160156
  0
LINE
  8
0
  6
CONTINUOUS
 62
     7
 10
-53.34999847412109
 20
40.26784133911133
 11
-42.96848297119141
 21
18.00460815429688
  0
LINE
  8
0
  6
CONTINUOUS
 62
     7
 10
-60.00002670288086
 20
58.50000381469727
 11
-58.50001525878906
 21
60.00001525878906
  0
LINE
  8
0
  6
CONTINUOUS
 62
     7
 10
-16.04996871948242
 20
59.9999885559082
 11
-16.30352401733398
 21
59.74643325805664
  0
LINE
  8
0
  6
CONTINUOUS
 62
     7
 10
-35.69643402099609
 20
59.7464714050293
 11
-35.94998931884766
 21
60.00002670288086
  0
LINE
  8
0
  6
CONTINUOUS
 62
     7
 10
-42.5
 20
15.89152526855469
 11
-42.5
 21
13
  0
LINE
  8
0
  6
CONTINUOUS
 62
     7
 10
-42.29998779296875
 20
56.5
 11
-42.29998779296875
 21
11.89999961853027
  0
LINE
  8
0
  6
CONTINUOUS
 62
     7
 10
-40.29998397827148
 20
58.49995803833008
 11
-42.29998397827148
 21
56.49995422363281
  0
LINE
  8
0
  6
DASHED
 62
     7
 10
-55.25
 20
60
 11
-55.25
 21
42
  0
LINE
  8
0
  6
CONTINUOUS
 62
     7
 10
40.29998779296875
 20
58.5
 11
-40.29998779296875
 21
58.5
  0
LINE
  8
0
  6
CONTINUOUS
 62
     7
 10
-27.0999755859375
 20
30.35336303710938
 11
-27.0999755859375
 21
22.6466064453125
  0
LINE
  8
0
  6
DASHED
 62
     7
 10
-44
 20
60
 11
-44
 21
42
  0
LINE
  8
0
  6
CENTER
 62
     7
 10
-50
 20
61
 11
-50
 21
41
  0
LINE
  8
0
  6
DASHED
 62
     7
 10
-44.75
 20
60
 11
-44.75
 21
42
  0
LINE
  8
0
  6
DASHED
 62
     7
 10
-56
 20
60
 11
-56
 21
42
  0
LINE
  8
0
  6
DASHED
 62
     7
 10
-41.5
 20
42
 11
-41.5
 21
10.76393127441406
  0
LINE
  8
0
  6
CONTINUOUS
 62
     7
 10
-27.09999084472656
 20
30.3533821105957
 11
-21.85847091674805
 21
36.59998321533203
  0
LINE
  8
0
  6
CONTINUOUS
 62
     7
 10
402
 20
12.25000381469727
 11
495
 21
12.25000381469727
  0
LINE
  8
0
  6
CONTINUOUS
 62
     7
 10
135
 20
8.646486282348633
 11
495
 21
8.646486282348633
  0
LINE
  8
0
  6
CONTINUOUS
 62
     7
 10
402
 20
20.35288429260254
 11
495
 21
20.35288429260254
  0
LINE
  8
0
  6
CONTINUOUS
 62
     7
 10
-35.949951171875
 20
60
 11
-58.5
 21
60
  0
LINE
  8
0
  6
CONTINUOUS
 62
     7
 10
135
 20
12.25000381469727
 11
227.9999847412109
 21
12.25000381469727
  0
LINE
  8
0
  6
CENTER
 62
     7
 10
262.5
 20
11
 11
262.5
 21
-1
  0
LINE
  8
0
  6
DASHED
 62
     7
 10
269.75
 20
60
 11
269.75
 21
42
  0
LINE
  8
0
  6
DASHED
 62
     7
 10
281
 20
60
 11
281
 21
42
  0
LINE
  8
0
  6
CENTER
 62
     7
 10
355
 20
61
 11
355
 21
7.646486759185791
  0
LINE
  8
0
  6
DASHED
 62
     7
 10
280.25
 20
60
 11
280.25
 21
42
  0
LINE
  8
0
  6
DASHED
 62
     7
 10
269
 20
60
 11
269
 21
42
  0
LINE
  8
0
  6
CENTER
 62
     7
 10
275
 20
61
 11
275
 21
7.646486759185791
  0
LINE
  8
0
  6
CONTINUOUS
 62
     7
 10
135
 20
24.17615699768066
 11
227.9999847412109
 21
24.17615699768066
  0
LINE
  8
0
  6
CONTINUOUS
 62
     7
 10
59.29998779296875
 20
45.01007080078125
 11
59.29998779296875
 21
43.5
  0
LINE
  8
0
  6
CONTINUOUS
 62
     7
 10
56.06890869140625
 20
42
 11
57.79998779296875
 21
42
  0
LINE
  8
0
  6
CONTINUOUS
 62
     7
 10
16.6571044921875
 20
59.59999084472656
 11
35.3428955078125
 21
59.59999084472656
  0
LINE
  8
0
  6
CONTINUOUS
 62
     7
 10
60.00000381469727
 20
46.00000381469727
 11
59.50502014160156
 21
45.50502014160156
  0
LINE
  8
0
  6
CONTINUOUS
 62
     7
 10
53.35002136230469
 20
40.26785659790039
 11
42.96849060058594
 21
18.00459480285645
  0
LINE
  8
0
  6
CONTINUOUS
 62
     7
 10
60.00001907348633
 20
58.49996948242188
 11
58.50000381469727
 21
59.99998092651367
  0
LINE
  8
0
  6
CONTINUOUS
 62
     7
 10
16.0499324798584
 20
59.99998474121094
 11
16.30348777770996
 21
59.74642944335938
  0
LINE
  8
0
  6
CONTINUOUS
 62
     7
 10
35.6963996887207
 20
59.74647521972656
 11
35.94995498657227
 21
60.00003051757813
  0
LINE
  8
0
  6
CONTINUOUS
 62
     7
 10
42.5
 20
15.89152526855469
 11
42.5
 21
13
  0
LINE
  8
0
  6
CONTINUOUS
 62
     7
 10
35.949951171875
 20
60
 11
58.5
 21
60
  0
LINE
  8
0
  6
CONTINUOUS
 62
     7
 10
272
 20
10.76400756835938
 11
278
 21
10.76400756835938
  0
LINE
  8
0
  6
CONTINUOUS
 62
     7
 10
279
 20
17
 11
279
 21
11.76400756835938
  0
LINE
  8
0
  6
CONTINUOUS
 62
     7
 10
271
 20
17
 11
271
 21
11.76400756835938
  0
LINE
  8
0
  6
CONTINUOUS
 62
     7
 10
351.9999389648438
 20
10.76400756835938
 11
357.9999389648438
 21
10.76400756835938
  0
LINE
  8
0
  6
CONTINUOUS
 62
     7
 10
358.9999389648438
 20
17
 11
358.9999389648438
 21
11.76400756835938
  0
LINE
  8
0
  6
CONTINUOUS
 62
     7
 10
350.9999389648438
 20
17
 11
350.9999389648438
 21
11.76400756835938
  0
LINE
  8
0
  6
CONTINUOUS
 62
     7
 10
271
 20
17
 11
245
 21
17
  0
LINE
  8
0
  6
CONTINUOUS
 62
     7
 10
358.9999389648438
 20
17
 11
384.9999389648438
 21
17
  0
LINE
  8
0
  6
CONTINUOUS
 62
     7
 10
402
 20
58.5
 11
385
 21
58.5
  0
LINE
  8
0
  6
CONTINUOUS
 62
     7
 10
402
 20
8.899999618530273
 11
385
 21
8.899999618530273
  0
LINE
  8
0
  6
CONTINUOUS
 62
     7
 10
402
 20
58.5
 11
402
 21
8.899999618530273
  0
LINE
  8
0
  6
CONTINUOUS
 62
     7
 10
135
 20
20.35288429260254
 11
227.9999847412109
 21
20.35288429260254
  0
LINE
  8
0
  6
CONTINUOUS
 62
     7
 10
135
 20
28.82384300231934
 11
227.9999847412109
 21
28.82384300231934
  0
LINE
  8
0
  6
CONTINUOUS
 62
     7
 10
495
 20
32
 11
495
 21
0
  0
LINE
  8
0
  6
CONTINUOUS
 62
     7
 10
-39.29998779296875
 20
8.899999618530273
 11
-22.10003852844238
 21
8.899999618530273
  0
LINE
  8
0
  6
CENTER
 62
     7
 10
-32.29998779296875
 20
52
 11
-32.29998779296875
 21
41
  0
LINE
  8
0
  6
CONTINUOUS
 62
     7
 10
21.85845947265625
 20
36.60000610351563
 11
-21.85845947265625
 21
36.60000610351563
  0
LINE
  8
0
  6
CONTINUOUS
 62
     7
 10
-23.3499755859375
 20
18.17752075195313
 11
-23.3499755859375
 21
14.15542602539063
  0
LINE
  8
0
  6
CONTINUOUS
 62
     7
 10
-27.10002136230469
 20
22.64664077758789
 11
-23.34996795654297
 21
18.17749977111816
  0
LINE
  8
0
  6
CENTER
 62
     7
 10
-26.79998779296875
 20
46.5
 11
-37.79998779296875
 21
46.5
  0
LINE
  8
0
  6
CONTINUOUS
 62
     7
 10
-23.35000038146973
 20
14.15543746948242
 11
-28.55546188354492
 21
8.949975967407227
  0
LINE
  8
0
  6
CENTER
 62
     7
 10
50
 20
61
 11
50
 21
41
  0
LINE
  8
0
  6
CONTINUOUS
 62
     7
 10
1.841648008849006E-005
 20
43.72652816772461
 11
3.937778949737549
 21
45.99999237060547
  0
LINE
  8
0
  6
CONTINUOUS
 62
     7
 10
3.937795162200928
 20
52.99998474121094
 11
3.467805436230265E-005
 21
55.27345275878906
  0
LINE
  8
0
  6
CONTINUOUS
 62
     7
 10
-4.999999046325684
 20
49.5
 11
-4.999999046325684
 21
46.61326599121094
  0
LINE
  8
0
  6
CONTINUOUS
 62
     7
 10
-3.7096473533893E-005
 20
55.27346420288086
 11
-5.0000319480896
 21
52.38671493530273
  0
LINE
  8
0
  6
CONTINUOUS
 62
     7
 10
-4.999999046325684
 20
52.38673400878906
 11
-4.999999046325684
 21
49.5
  0
LINE
  8
0
  6
CONTINUOUS
 62
     7
 10
-5.000021457672119
 20
46.61325454711914
 11
-2.655694515851792E-005
 21
43.72650527954102
  0
LINE
  8
0
  6
CONTINUOUS
 62
     7
 10
8.586552619934082
 20
52.74999237060547
 11
11.35656452178955
 21
51.9999885559082
  0
LINE
  8
0
  6
CONTINUOUS
 62
     7
 10
8.60252571105957
 20
46.25428009033203
 11
11.35655689239502
 21
46.99995422363281
  0
LINE
  8
0
  6
CONTINUOUS
 62
     7
 10
6.786598682403565
 20
52.51998901367188
 11
6.696590900421143
 21
52.99998092651367
  0
LINE
  8
0
  6
CONTINUOUS
 62
     7
 10
6.786580085754395
 20
46.46997451782227
 11
6.696568012237549
 21
45.99996948242188
  0
LINE
  8
0
  6
CONTINUOUS
 62
     7
 10
4.276552200317383
 20
49.49996566772461
 11
4.926562786102295
 21
52.99997329711914
  0
LINE
  8
0
  6
CONTINUOUS
 62
     7
 10
4.276581287384033
 20
49.49995422363281
 11
4.926592350006104
 21
45.99993896484375
  0
LINE
  8
0
  6
CONTINUOUS
 62
     7
 10
1.966565251350403
 20
49.49996948242188
 11
2.616556167602539
 21
52.99995422363281
  0
LINE
  8
0
  6
CONTINUOUS
 62
     7
 10
1.9665687084198
 20
49.49995422363281
 11
2.616561889648438
 21
45.99995422363281
  0
LINE
  8
0
  6
CONTINUOUS
 62
     7
 10
2.616576194763184
 20
46
 11
6.696562767028809
 21
46
  0
LINE
  8
0
  6
CONTINUOUS
 62
     7
 10
2.616576194763184
 20
53
 11
6.696562767028809
 21
53
  0
LINE
  8
0
  6
CENTER
 62
     7
 10
-6.817865371704102
 20
49.5
 11
14.146559715271
 21
49.5
  0
LINE
  8
0
  6
CONTINUOUS
 62
     7
 10
245
 20
165
 11
385
 21
165
  0
LINE
  8
0
  6
CENTER
 62
     7
 10
282
 20
175
 11
268
 21
175
  0
LINE
  8
0
  6
CONTINUOUS
 62
     7
 10
135
 20
202.5
 11
227.9999847412109
 21
202.5
  0
LINE
  8
0
  6
CENTER
 62
     7
 10
348
 20
175
 11
362
 21
175
  0
LINE
  8
0
  6
CENTER
 62
     7
 10
367.5
 20
236
 11
367.5
 21
214
  0
LINE
  8
0
  6
CONTINUOUS
 62
     7
 10
227.9999847412109
 20
182.6999969482422
 11
245
 21
182.6999969482422
  0
LINE
  8
0
  6
CENTER
 62
     7
 10
157.5
 20
236
 11
157.5
 21
214
  0
LINE
  8
0
  6
CENTER
 62
     7
 10
275
 20
182
 11
275
 21
168
  0
LINE
  8
0
  6
CONTINUOUS
 62
     7
 10
495
 20
244.6477966308594
 11
402
 21
244.6477966308594
  0
LINE
  8
0
  6
CONTINUOUS
 62
     7
 10
495
 20
202.5
 11
402
 21
202.5
  0
LINE
  8
0
  6
CONTINUOUS
 62
     7
 10
135
 20
202.5
 11
135
 21
247.5
  0
LINE
  8
0
  6
CENTER
 62
     7
 10
282
 20
275
 11
268
 21
275
  0
LINE
  8
0
  6
CONTINUOUS
 62
     7
 10
245
 20
285
 11
385
 21
285
  0
LINE
  8
0
  6
CONTINUOUS
 62
     7
 10
245
 20
189.0500793457031
 11
385
 21
189.0500793457031
  0
LINE
  8
0
  6
CONTINUOUS
 62
     7
 10
245
 20
208.9500122070313
 11
385
 21
208.9500122070313
  0
LINE
  8
0
  6
CONTINUOUS
 62
     7
 10
245
 20
241.0499877929688
 11
385
 21
241.0499877929688
  0
LINE
  8
0
  6
CONTINUOUS
 62
     7
 10
245
 20
260.9499206542969
 11
385
 21
260.9499206542969
  0
LINE
  8
0
  6
CENTER
 62
     7
 10
275
 20
268
 11
275
 21
282
  0
LINE
  8
0
  6
CONTINUOUS
 62
     7
 10
227.9999847412109
 20
182.6999969482422
 11
227.9999847412109
 21
267.2999877929688
  0
LINE
  8
0
  6
CONTINUOUS
 62
     7
 10
227.9999847412109
 20
267.2999877929688
 11
245
 21
267.2999877929688
  0
LINE
  8
0
  6
CONTINUOUS
 62
     7
 10
245
 20
165
 11
245
 21
285
  0
LINE
  8
0
  6
CONTINUOUS
 62
     7
 10
135
 20
247.5
 11
227.9999847412109
 21
247.5
  0
LINE
  8
0
  6
CONTINUOUS
 62
     7
 10
495
 20
205.3522033691406
 11
402
 21
205.3522033691406
  0
LINE
  8
0
  6
CONTINUOUS
 62
     7
 10
135
 20
205.3522033691406
 11
227.9999847412109
 21
205.3522033691406
  0
LINE
  8
0
  6
CONTINUOUS
 62
     7
 10
135
 20
244.6477966308594
 11
227.9999847412109
 21
244.6477966308594
  0
LINE
  8
0
  6
CONTINUOUS
 62
     7
 10
402
 20
182.6999969482422
 11
385
 21
182.6999969482422
  0
LINE
  8
0
  6
CENTER
 62
     7
 10
355
 20
182
 11
355
 21
168
  0
LINE
  8
0
  6
CONTINUOUS
 62
     7
 10
495
 20
202.5
 11
495
 21
247.5
  0
LINE
  8
0
  6
CENTER
 62
     7
 10
348
 20
275
 11
362
 21
275
  0
LINE
  8
0
  6
CENTER
 62
     7
 10
355
 20
268
 11
355
 21
282
  0
LINE
  8
0
  6
CENTER
 62
     7
 10
472.5
 20
236
 11
472.5
 21
214
  0
LINE
  8
0
  6
CONTINUOUS
 62
     7
 10
402
 20
182.6999969482422
 11
402
 21
267.2999877929688
  0
LINE
  8
0
  6
CONTINUOUS
 62
     7
 10
402
 20
267.2999877929688
 11
385
 21
267.2999877929688
  0
LINE
  8
0
  6
CONTINUOUS
 62
     7
 10
385
 20
165
 11
385
 21
285
  0
LINE
  8
0
  6
CONTINUOUS
 62
     7
 10
495
 20
247.5
 11
402
 21
247.5
  0
LINE
  8
0
  6
CENTER
 62
     7
 10
215.7176513671875
 20
212.5265045166016
 11
221.0417785644531
 21
225.3800964355469
  0
LINE
  8
0
  6
CONTINUOUS
 62
     7
 10
213.8830261230469
 20
214.3688201904297
 11
218.3176422119141
 21
212.5319366455078
  0
LINE
  8
0
  6
CONTINUOUS
 62
     7
 10
214.0847930908203
 20
217.2077178955078
 11
220.182373046875
 21
214.6820068359375
  0
LINE
  8
0
  6
CONTINUOUS
 62
     7
 10
213.8830413818359
 20
214.3688354492188
 11
214.0848083496094
 21
217.2077331542969
  0
LINE
  8
0
  6
CONTINUOUS
 62
     7
 10
218.3177032470703
 20
212.5319671630859
 11
220.1824340820313
 21
214.6820220947266
  0
LINE
  8
0
  6
CONTINUOUS
 62
     7
 10
214.8235168457031
 20
220.9286041259766
 11
215.2381896972656
 21
221.9296722412109
  0
LINE
  8
0
  6
CONTINUOUS
 62
     7
 10
222.2911224365234
 20
217.8354034423828
 11
222.7057800292969
 21
218.8364868164063
  0
LINE
  8
0
  6
CONTINUOUS
 62
     7
 10
216.0176391601563
 20
222.2524566650391
 11
215.2382049560547
 21
221.9295959472656
  0
LINE
  8
0
  6
CONTINUOUS
 62
     7
 10
216.4608154296875
 20
219.6010131835938
 11
217.3333740234375
 21
221.7075500488281
  0
LINE
  8
0
  6
CONTINUOUS
 62
     7
 10
220.1945953369141
 20
218.054443359375
 11
221.067138671875
 21
220.1609344482422
  0
LINE
  8
0
  6
CONTINUOUS
 62
     7
 10
215.3787536621094
 20
222.5171813964844
 11
222.3829193115234
 21
219.6159515380859
  0
LINE
  8
0
  6
CONTINUOUS
 62
     7
 10
222.7057647705078
 20
218.83642578125
 11
222.3829040527344
 21
219.6158752441406
  0
LINE
  8
0
  6
CONTINUOUS
 62
     7
 10
215.215087890625
 20
218.6299133300781
 11
220.3888092041016
 21
216.4868774414063
  0
LINE
  8
0
  6
CONTINUOUS
 62
     7
 10
225.7999877929688
 20
230
 11
225.7999877929688
 21
220
  0
LINE
  8
0
  6
CONTINUOUS
 62
     7
 10
215.3000030517578
 20
226.7999877929688
 11
215.3000030517578
 21
223.1452941894531
  0
LINE
  8
0
  6
CONTINUOUS
 62
     7
 10
225.7999877929688
 20
230
 11
227.9999847412109
 21
230
  0
LINE
  8
0
  6
CONTINUOUS
 62
     7
 10
218.3000030517578
 20
229.7999877929688
 11
225.7999877929688
 21
229.7999877929688
  0
LINE
  8
0
  6
CONTINUOUS
 62
     7
 10
220.9728698730469
 20
220.1999969482422
 11
225.7999877929688
 21
220.1999969482422
  0
LINE
  8
0
  6
CONTINUOUS
 62
     7
 10
225.7999877929688
 20
220
 11
227.9999847412109
 21
220
  0
LINE
  8
0
  6
CONTINUOUS
 62
     7
 10
215.0532836914063
 20
220.1840362548828
 11
221.6021423339844
 21
217.471435546875
  0
LINE
  8
0
  6
CENTER
 62
     7
 10
262.5
 20
236
 11
262.5
 21
214
  0
LINE
  8
0
  6
CONTINUOUS
 62
     7
 10
-56.06890869140625
 20
42
 11
-57.79998779296875
 21
42
  0
LINE
  8
0
  6
CONTINUOUS
 62
     7
 10
-42.29998779296875
 20
11.89999961853027
 11
-39.29998779296875
 21
8.899999618530273
  0
ARC
  8
0
  6
CONTINUOUS
 62
     7
 10
-39.5
 20
13
 40
3
 50
201.8146356528239
 51
248.1853704941199
  0
ARC
  8
0
  6
CONTINUOUS
 62
     7
 10
-22
 20
8.292938232421875
 40
0.5000000000000002
 50
135.0000003416226
 51
180.0000050089563
  0
ARC
  8
0
  6
CONTINUOUS
 62
     7
 10
-19.75
 20
19.93864440917969
 40
1
 50
359.9999949910439
 51
45.00000125223906
  0
ARC
  8
0
  6
CONTINUOUS
 62
     7
 10
-19.75
 20
12.66426086425781
 40
0.999999999999999
 50
315.0000055779501
 51
8.651422209050196E-006
  0
ARC
  8
0
  6
CONTINUOUS
 62
     7
 10
-19.1900634765625
 20
31.5
 40
0.5000000000000004
 50
90.00000250447806
 51
171.3452400852013
  0
ARC
  8
0
  6
CONTINUOUS
 62
     7
 10
-19.1900634765625
 20
21.5
 40
0.5000000000000011
 50
188.6547599147987
 51
224.9999996583772
  0
ARC
  8
0
  6
CONTINUOUS
 62
     7
 10
-22.20001220703125
 20
24.43008422851563
 40
0.3000000119209288
 50
179.9999913485781
 51
258.4087871711404
  0
ARC
  8
0
  6
CONTINUOUS
 62
     7
 10
-22.9173583984375
 20
20.93264770507813
 40
3.270250082015991
 50
8.654759801113075
 51
78.40879582256216
  0
ARC
  8
0
  6
CONTINUOUS
 62
     7
 10
-22.20001220703125
 20
28.56990051269531
 40
0.3000000119209277
 50
101.5912023562052
 51
180.0000050089565
  0
ARC
  8
0
  6
CONTINUOUS
 62
     7
 10
-22.9173583984375
 20
32.06735229492188
 40
3.270250082015991
 50
281.5912041774378
 51
351.3452401988869
  0
CIRCLE
  8
0
  6
CONTINUOUS
 62
     7
 10
236.9999847412109
 20
52
 40
2.599999904632568
  0
CIRCLE
  8
0
  6
CONTINUOUS
 62
     7
 10
236.9999847412109
 20
52
 40
1
  0
ARC
  8
0
  6
CONTINUOUS
 62
     7
 10
22
 20
8.292938232421875
 40
0.5
 50
0
 51
45.0000012522392
  0
ARC
  8
0
  6
CONTINUOUS
 62
     7
 10
19.75
 20
19.93864440917969
 40
1
 50
135.0000003416226
 51
180.0000050089563
  0
ARC
  8
0
  6
CONTINUOUS
 62
     7
 10
19.75
 20
12.66426086425781
 40
1.000000000000001
 50
179.999991348578
 51
224.9999960159116
  0
ARC
  8
0
  6
CONTINUOUS
 62
     7
 10
19.1900634765625
 20
31.5
 40
0.4999999999999991
 50
8.654759801113041
 51
89.9999956742889
  0
ARC
  8
0
  6
CONTINUOUS
 62
     7
 10
19.1900634765625
 20
21.5
 40
0.4999999999999991
 50
314.9999987477608
 51
351.3452401988869
  0
ARC
  8
0
  6
CONTINUOUS
 62
     7
 10
22.20001220703125
 20
24.43008422851563
 40
0.3000000119209291
 50
281.5912110076268
 51
8.651421865273589E-006
  0
ARC
  8
0
  6
CONTINUOUS
 62
     7
 10
22.9173583984375
 20
20.93264770507813
 40
3.27025008201599
 50
101.591202356205
 51
171.3452400852014
  0
ARC
  8
0
  6
CONTINUOUS
 62
     7
 10
22.20001220703125
 20
28.56990051269531
 40
0.3000000119209301
 50
359.9999949910435
 51
78.40879582256214
  0
ARC
  8
0
  6
CONTINUOUS
 62
     7
 10
22.9173583984375
 20
32.06735229492188
 40
3.27025008201599
 50
188.6547599147986
 51
258.408797643795
  0
ARC
  8
0
  6
CONTINUOUS
 62
     7
 10
218.3000335693359
 20
51.2999267578125
 40
2.999999999999999
 50
89.99998201391043
 51
165.8646416536699
  0
ARC
  8
0
  6
CONTINUOUS
 62
     7
 10
218.2999114990234
 20
47.699951171875
 40
3.000000000000005
 50
195.642863058422
 51
270.000072627603
  0
ARC
  8
0
  6
CONTINUOUS
 62
     7
 10
-56.06890869140625
 20
39
 40
2.999999999999999
 50
25.00000354160055
 51
90.0000025044782
  0
ARC
  8
0
  6
CONTINUOUS
 62
     7
 10
-47.5
 20
15.89152526855469
 40
4.999999999999998
 50
359.9999949910439
 51
25.00000354160053
  0
ARC
  8
0
  6
CONTINUOUS
 62
     7
 10
-39.5
 20
13
 40
2.999999999999999
 50
179.999991348578
 51
201.0401158792355
  0
ARC
  8
0
  6
CONTINUOUS
 62
     7
 10
-57.79998779296875
 20
43.5
 40
1.500000000000003
 50
179.9999913485781
 51
270.0000006832455
  0
ARC
  8
0
  6
CONTINUOUS
 62
     7
 10
-60
 20
45.01007080078125
 40
0.6999999880790737
 50
359.9999949910441
 51
45.00000125223906
  0
ARC
  8
0
  6
CONTINUOUS
 62
     7
 10
-35.3428955078125
 20
60.09999084472656
 40
0.4999999999999991
 50
224.9999996583772
 51
269.9999974955215
  0
ARC
  8
0
  6
CONTINUOUS
 62
     7
 10
-16.6571044921875
 20
60.09999084472656
 40
0.5000000000000004
 50
269.9999974955219
 51
314.9999987477608
  0
ARC
  8
0
  6
CONTINUOUS
 62
     7
 10
56.06890869140625
 20
39
 40
3.000000000000001
 50
89.99999567428903
 51
154.9999963447139
  0
ARC
  8
0
  6
CONTINUOUS
 62
     7
 10
47.5
 20
15.89152526855469
 40
5.000000000000001
 50
154.9999963447139
 51
180.0000050089563
  0
ARC
  8
0
  6
CONTINUOUS
 62
     7
 10
39.5
 20
13
 40
3.000000000000001
 50
291.8163525347837
 51
338.1836432531908
  0
ARC
  8
0
  6
CONTINUOUS
 62
     7
 10
57.79998779296875
 20
43.5
 40
1.500000000000002
 50
269.9999974955218
 51
8.651422209050188E-006
  0
ARC
  8
0
  6
CONTINUOUS
 62
     7
 10
60
 20
45.01007080078125
 40
0.6999999880790728
 50
135.0000003416226
 51
180.0000050089566
  0
ARC
  8
0
  6
CONTINUOUS
 62
     7
 10
35.3428955078125
 20
60.09999084472656
 40
0.5000000000000014
 50
270.0000043257107
 51
314.9999987477608
  0
ARC
  8
0
  6
CONTINUOUS
 62
     7
 10
16.6571044921875
 20
60.09999084472656
 40
0.4999999999999991
 50
224.9999996583772
 51
270.0000043257111
  0
ARC
  8
0
  6
CONTINUOUS
 62
     7
 10
272
 20
11.76400756835938
 40
1.000000000000011
 50
179.999991348578
 51
270.0000006832462
  0
ARC
  8
0
  6
CONTINUOUS
 62
     7
 10
278
 20
11.76400756835938
 40
0.9999999999999991
 50
269.9999974955215
 51
0
  0
ARC
  8
0
  6
CONTINUOUS
 62
     7
 10
351.9999389648438
 20
11.76400756835938
 40
1.000000000000011
 50
179.999991348578
 51
270.0000006832462
  0
ARC
  8
0
  6
CONTINUOUS
 62
     7
 10
357.9999389648438
 20
11.76400756835938
 40
0.9999999999999991
 50
269.9999974955215
 51
0
  0
CIRCLE
  8
0
  6
CONTINUOUS
 62
     7
 10
-32.29998779296875
 20
46.5
 40
1.649999976158142
  0
ARC
  8
0
  6
CONTINUOUS
 62
     7
 10
0
 20
49.5
 40
4.79999923706055
 50
46.95109601507203
 51
313.1834072577874
  0
ARC
  8
0
  6
CONTINUOUS
 62
     7
 10
8.446578025817871
 20
51.78999328613281
 40
0.9701611399650598
 50
81.70288677623263
 51
144.668542923126
  0
ARC
  8
0
  6
CONTINUOUS
 62
     7
 10
7.456587791442871
 20
53.58000183105469
 40
1.254199028015138
 50
217.8749648822736
 51
279.2353626496737
  0
ARC
  8
0
  6
CONTINUOUS
 62
     7
 10
7.456587791442871
 20
45.41999816894531
 40
1.246148109436035
 50
80.76452806729958
 51
142.1250351177264
  0
ARC
  8
0
  6
CONTINUOUS
 62
     7
 10
8.446578025817871
 20
47.20999145507813
 40
0.9683421850204466
 50
215.3314570768741
 51
278.297222506794
  0
CIRCLE
  8
0
  6
CONTINUOUS
 62
     7
 10
275
 20
175
 40
6
  0
CIRCLE
  8
0
  6
CONTINUOUS
 62
     7
 10
157.5
 20
225
 40
10
  0
CIRCLE
  8
0
  6
CONTINUOUS
 62
     7
 10
275
 20
175
 40
5.25
  0
CIRCLE
  8
0
  6
CONTINUOUS
 62
     7
 10
157.5
 20
225
 40
7
  0
ARC
  8
0
  6
CONTINUOUS
 62
     7
 10
217.1335906982422
 20
215.9449005126953
 40
3.299999237060546
 50
131.5803705110077
 51
157.4999548639651
  0
ARC
  8
0
  6
CONTINUOUS
 62
     7
 10
217.1335906982422
 20
215.9449005126953
 40
3.299999237060545
 50
337.5000181569009
 51
3.419602296415186
  0
ARC
  8
0
  6
CONTINUOUS
 62
     7
 10
209.2172393798828
 20
218.7909851074219
 40
6.00000000000001
 50
2.43365082934552
 51
20.87173987704925
  0
ARC
  8
0
  6
CONTINUOUS
 62
     7
 10
224.7437896728516
 20
212.3596801757813
 40
6.000000000000011
 50
114.1278165022775
 51
132.5663219780772
  0
ARC
  8
0
  6
CONTINUOUS
 62
     7
 10
214.4125366210938
 20
219.0117950439453
 40
0.7999999523162822
 50
311.5798327472963
 51
2.433049772698627
  0
ARC
  8
0
  6
CONTINUOUS
 62
     7
 10
221.2262878417969
 20
216.189453125
 40
0.7999999523162747
 50
132.5669776762372
 51
183.4201402735692
  0
ARC
  8
0
  6
CONTINUOUS
 62
     7
 10
218.3000030517578
 20
226.7999877929688
 40
3.000000000000006
 50
89.99998201391043
 51
179.9999640278214
  0
ARC
  8
0
  6
CONTINUOUS
 62
     7
 10
218.3000030517578
 20
223.2000122070313
 40
3
 50
180.000090613692
 51
193.1569474081041
  0
ARC
  8
0
  6
CONTINUOUS
 62
     7
 10
39.5
 20
13
 40
3.000000000000004
 50
338.9598805919844
 51
8.651422209050207E-006
  0
POLYLINE
  8
0
  6
CONTINUOUS
 62
     7
 66
     1
 10
0
 20
0
 70
     1
  0
VERTEX
  8
0
  6
CONTINUOUS
 62
     7
 10
216.0999603271484
 20
52
 42
0.1103799959711029
  0
VERTEX
  8
0
  6
CONTINUOUS
 62
     7
 10
215.1878061328002
 20
51.79498261934016
 42
0.1025106516808509
  0
VERTEX
  8
0
  6
CONTINUOUS
 62
     7
 10
214.4404837614195
 20
51.23096414989514
 42
0.09329096369543498
  0
VERTEX
  8
0
  6
CONTINUOUS
 62
     7
 10
213.9629027072879
 20
50.42406078305577
 42
0.08781337954912735
  0
VERTEX
  8
0
  6
CONTINUOUS
 62
     7
 10
213.8000335693359
 20
49.5
 42
0.08776570012236969
  0
VERTEX
  8
0
  6
CONTINUOUS
 62
     7
 10
213.9627470526808
 20
48.57638109288448
 42
0.093260090211367
  0
VERTEX
  8
0
  6
CONTINUOUS
 62
     7
 10
214.4400196215988
 20
47.76956303531296
 42
0.1026371484166978
  0
VERTEX
  8
0
  6
CONTINUOUS
 62
     7
 10
215.1882136819719
 20
47.20482035501992
 42
0.1103331295156323
  0
VERTEX
  8
0
  6
CONTINUOUS
 62
     7
 10
216.0999603271484
 20
47
 42
0.1103733252048778
  0
VERTEX
  8
0
  6
CONTINUOUS
 62
     7
 10
217.0121173019117
 20
47.20500901236868
 42
0.1025020538660885
  0
VERTEX
  8
0
  6
CONTINUOUS
 62
     7
 10
217.7594650426171
 20
47.76899575276222
 42
0.09329041655030368
  0
VERTEX
  8
0
  6
CONTINUOUS
 62
     7
 10
218.2370967022755
 20
48.57586943347408
 42
0.08782872433753949
  0
VERTEX
  8
0
  6
CONTINUOUS
 62
     7
 10
218.4000091552734
 20
49.49999999999999
 42
0.08777354594240446
  0
VERTEX
  8
0
  6
CONTINUOUS
 62
     7
 10
218.2372793023688
 20
50.42361492255025
 42
0.09325885363673649
  0
VERTEX
  8
0
  6
CONTINUOUS
 62
     7
 10
217.7599812920019
 20
51.23041777896489
 42
0.1026276903348243
  0
VERTEX
  8
0
  6
CONTINUOUS
 62
     7
 10
217.0117809759473
 20
51.79515432233777
 42
0.1103353860826265
  0
SEQEND
  8
0
  0
POLYLINE
  8
0
  6
CONTINUOUS
 62
     7
 66
     1
 10
0
 20
0
  0
VERTEX
  8
0
  6
CONTINUOUS
 62
     7
 10
215.0999603271484
 20
47.260009765625
 42
0.06376497228529314
  0
VERTEX
  8
0
  6
CONTINUOUS
 62
     7
 10
215.6954800448414
 20
46.73064153415844
 42
0.07496528838692323
  0
VERTEX
  8
0
  6
CONTINUOUS
 62
     7
 10
216.4133803990835
 20
46.38417354690129
 42
0.06462674788854589
  0
VERTEX
  8
0
  6
CONTINUOUS
 62
     7
 10
217.1999359130859
 20
46.25
 42
0
  0
SEQEND
  8
0
  0
POLYLINE
  8
0
  6
CONTINUOUS
 62
     7
 66
     1
 10
0
 20
0
  0
VERTEX
  8
0
  6
CONTINUOUS
 62
     7
 10
214.9758675702551
 20
47.31888671700826
 42
0.06283200152223864
  0
VERTEX
  8
0
  6
CONTINUOUS
 62
     7
 10
215.5401664016868
 20
46.79271464256427
 42
0.06649699187385416
  0
VERTEX
  8
0
  6
CONTINUOUS
 62
     7
 10
216.2201667521738
 20
46.42821000830565
 42
0.06915552316874793
  0
VERTEX
  8
0
  6
CONTINUOUS
 62
     7
 10
216.9725213719063
 20
46.25935136333293
 42
0.06975294621957232
  0
VERTEX
  8
0
  6
CONTINUOUS
 62
     7
 10
217.7412762236991
 20
46.30334944329673
 42
0.06816348852086981
  0
VERTEX
  8
0
  6
CONTINUOUS
 62
     7
 10
218.469119598655
 20
46.55517121299458
 42
0.06499586173257395
  0
VERTEX
  8
0
  6
CONTINUOUS
 62
     7
 10
219.1056851991951
 20
46.99000274316212
 42
0.06129085991939701
  0
VERTEX
  8
0
  6
CONTINUOUS
 62
     7
 10
219.6137426227311
 20
47.5701037665456
 42
0.05807956853349059
  0
VERTEX
  8
0
  6
CONTINUOUS
 62
     7
 10
219.9707397578647
 20
48.2540976829336
 42
0.05590534466144761
  0
VERTEX
  8
0
  6
CONTINUOUS
 62
     7
 10
220.1643985819886
 20
49.00124157143436
 42
0.05496375400121654
  0
VERTEX
  8
0
  6
CONTINUOUS
 62
     7
 10
220.1894136318452
 20
49.77196403283043
 42
0.05547384411141765
  0
VERTEX
  8
0
  6
CONTINUOUS
 62
     7
 10
220.0453348364385
 20
50.52985332481549
 42
0.05728038293458695
  0
VERTEX
  8
0
  6
CONTINUOUS
 62
     7
 10
219.7359254935477
 20
51.23629510251694
 42
0.06026826433141747
  0
VERTEX
  8
0
  6
CONTINUOUS
 62
     7
 10
219.2706868406482
 20
51.85160434575403
 42
0.06395241154371398
  0
VERTEX
  8
0
  6
CONTINUOUS
 62
     7
 10
218.6684806780831
 20
52.33398316812523
 42
0.06744491790343751
  0
VERTEX
  8
0
  6
CONTINUOUS
 62
     7
 10
217.9618235716021
 20
52.64344544032153
 42
0.06944152081800772
  0
VERTEX
  8
0
  6
CONTINUOUS
 62
     7
 10
217.1999359130859
 20
52.75
 42
0
  0
SEQEND
  8
0
  0
POLYLINE
  8
0
  6
CONTINUOUS
 62
     7
 66
     1
 10
0
 20
0
  0
VERTEX
  8
0
  6
CONTINUOUS
 62
     7
 10
215.1182748039695
 20
51.76086621095004
 42
-0.06327325264383826
  0
VERTEX
  8
0
  6
CONTINUOUS
 62
     7
 10
215.7108598711286
 20
52.27974365962013
 42
-0.07413368897491507
  0
VERTEX
  8
0
  6
CONTINUOUS
 62
     7
 10
216.4221755122852
 20
52.61854037365319
 42
-0.06380929213569454
  0
VERTEX
  8
0
  6
CONTINUOUS
 62
     7
 10
217.1998138427734
 20
52.75
 42
0
  0
SEQEND
  8
0
  0
POLYLINE
  8
0
  6
CONTINUOUS
 62
     7
 66
     1
 10
0
 20
0
  0
VERTEX
  8
0
  6
CONTINUOUS
 62
     7
 10
283.5
 20
42
 42
-0.04491889032035389
  0
VERTEX
  8
0
  6
CONTINUOUS
 62
     7
 10
283.5667965053449
 20
33.43441762168806
 42
-0.04796707475044575
  0
VERTEX
  8
0
  6
CONTINUOUS
 62
     7
 10
282.0454979470121
 20
25.00592981537876
 42
-0.04459550197111943
  0
VERTEX
  8
0
  6
CONTINUOUS
 62
     7
 10
279
 20
17
 42
0
  0
SEQEND
  8
0
  0
POLYLINE
  8
0
  6
CONTINUOUS
 62
     7
 66
     1
 10
0
 20
0
  0
VERTEX
  8
0
  6
CONTINUOUS
 62
     7
 10
266.5
 20
42
 42
0.0449188903203407
  0
VERTEX
  8
0
  6
CONTINUOUS
 62
     7
 10
266.4332034946551
 20
33.43441762168806
 42
0.04796707475042371
  0
VERTEX
  8
0
  6
CONTINUOUS
 62
     7
 10
267.9545020529879
 20
25.00592981537876
 42
0.04459550197113411
  0
VERTEX
  8
0
  6
CONTINUOUS
 62
     7
 10
271
 20
17
 42
0
  0
SEQEND
  8
0
  0
POLYLINE
  8
0
  6
CONTINUOUS
 62
     7
 66
     1
 10
0
 20
0
  0
VERTEX
  8
0
  6
CONTINUOUS
 62
     7
 10
363.4999389648438
 20
42
 42
-0.04491889032038162
  0
VERTEX
  8
0
  6
CONTINUOUS
 62
     7
 10
363.5667354701887
 20
33.43441762168806
 42
-0.04796707475047245
  0
VERTEX
  8
0
  6
CONTINUOUS
 62
     7
 10
362.0454369118559
 20
25.00592981537876
 42
-0.04459550197111943
  0
VERTEX
  8
0
  6
CONTINUOUS
 62
     7
 10
358.9999389648438
 20
17
 42
0
  0
SEQEND
  8
0
  0
POLYLINE
  8
0
  6
CONTINUOUS
 62
     7
 66
     1
 10
0
 20
0
  0
VERTEX
  8
0
  6
CONTINUOUS
 62
     7
 10
346.4999389648438
 20
42
 42
0.04492196151872426
  0
VERTEX
  8
0
  6
CONTINUOUS
 62
     7
 10
346.4332369101433
 20
33.43442963691173
 42
0.04795997795181137
  0
VERTEX
  8
0
  6
CONTINUOUS
 62
     7
 10
347.9545223297038
 20
25.00594548321251
 42
0.04459868051103411
  0
VERTEX
  8
0
  6
CONTINUOUS
 62
     7
 10
350.9999389648438
 20
17
 42
0
  0
SEQEND
  8
0
  0
POLYLINE
  8
0
  6
CONTINUOUS
 62
     7
 66
     1
 10
0
 20
0
  0
VERTEX
  8
0
  6
CONTINUOUS
 62
     7
 10
7.656569480895996
 20
52.3499755859375
 42
0.1885746071956698
  0
VERTEX
  8
0
  6
CONTINUOUS
 62
     7
 10
7.296839012636422
 20
52.19028696840449
 42
0.07574462457797222
  0
VERTEX
  8
0
  6
CONTINUOUS
 62
     7
 10
7.052604531215247
 20
51.87245052134265
 42
0.03933592155763131
  0
VERTEX
  8
0
  6
CONTINUOUS
 62
     7
 10
6.882742896526244
 20
51.50711696393832
 42
0.02577124213930464
  0
VERTEX
  8
0
  6
CONTINUOUS
 62
     7
 10
6.760588476065744
 20
51.12296632843281
 42
0.01950520664579848
  0
VERTEX
  8
0
  6
CONTINUOUS
 62
     7
 10
6.673097821167869
 20
50.72875457229748
 42
0.01621460194390278
  0
VERTEX
  8
0
  6
CONTINUOUS
 62
     7
 10
6.613737784255142
 20
50.3291636148732
 42
0.01446653041904342
  0
VERTEX
  8
0
  6
CONTINUOUS
 62
     7
 10
6.578870267237786
 20
49.92663895247169
 42
0.01369125893330198
  0
VERTEX
  8
0
  6
CONTINUOUS
 62
     7
 10
6.5666223267431
 20
49.52249489219946
 42
0.01360482812320273
  0
VERTEX
  8
0
  6
CONTINUOUS
 62
     7
 10
6.576339272367938
 20
49.1196497601473
 42
0.01431525146574423
  0
VERTEX
  8
0
  6
CONTINUOUS
 62
     7
 10
6.608489721768307
 20
48.71739846916089
 42
0.0159818456178499
  0
VERTEX
  8
0
  6
CONTINUOUS
 62
     7
 10
6.665001475163574
 20
48.31658062645221
 42
0.01902674421854559
  0
VERTEX
  8
0
  6
CONTINUOUS
 62
     7
 10
6.749063948991042
 20
47.92142747375188
 42
0.02487976260013797
  0
VERTEX
  8
0
  6
CONTINUOUS
 62
     7
 10
6.867080435955424
 20
47.53503172165123
 42
0.03729613158362677
  0
VERTEX
  8
0
  6
CONTINUOUS
 62
     7
 10
7.031156179356922
 20
47.16584869906367
 42
0.06998281406710293
  0
VERTEX
  8
0
  6
CONTINUOUS
 62
     7
 10
7.266742334307274
 20
46.83851868739099
 42
0.1738206737499859
  0
VERTEX
  8
0
  6
CONTINUOUS
 62
     7
 10
7.616510111377385
 20
46.65192167525354
 42
0
  0
SEQEND
  8
0
  0
POLYLINE
  8
0
  6
CONTINUOUS
 62
     7
 66
     1
 10
0
 20
0
 70
     1
  0
VERTEX
  8
0
  6
CONTINUOUS
 62
     7
 10
11.35658168792725
 20
52
 42
0.2551592727856217
  0
VERTEX
  8
0
  6
CONTINUOUS
 62
     7
 10
10.82677183743896
 20
51.5751119002738
 42
0.06319138472280646
  0
VERTEX
  8
0
  6
CONTINUOUS
 62
     7
 10
10.57267674894328
 20
50.91222525446332
 42
0.03518638918173512
  0
VERTEX
  8
0
  6
CONTINUOUS
 62
     7
 10
10.44594705325642
 20
50.21217549301895
 42
0.02798531261543086
  0
VERTEX
  8
0
  6
CONTINUOUS
 62
     7
 10
10.40658473968506
 20
49.5
 42
0.02789942791001225
  0
VERTEX
  8
0
  6
CONTINUOUS
 62
     7
 10
10.44571839668897
 20
48.78985243969201
 42
0.03516017990493119
  0
VERTEX
  8
0
  6
CONTINUOUS
 62
     7
 10
10.5722122853401
 20
48.08956192317743
 42
0.06315573245387381
  0
VERTEX
  8
0
  6
CONTINUOUS
 62
     7
 10
10.82624427847951
 20
47.4258216818345
 42
0.2552844263605558
  0
VERTEX
  8
0
  6
CONTINUOUS
 62
     7
 10
11.35658168792724
 20
47
 42
0.2551594442427484
  0
VERTEX
  8
0
  6
CONTINUOUS
 62
     7
 10
11.88639179703004
 20
47.42488773223268
 42
0.06319147493967006
  0
VERTEX
  8
0
  6
CONTINUOUS
 62
     7
 10
12.14048693918092
 20
48.08777435103284
 42
0.03518642902212013
  0
VERTEX
  8
0
  6
CONTINUOUS
 62
     7
 10
12.26721652355681
 20
48.78782413107666
 42
0.02798535021578521
  0
VERTEX
  8
0
  6
CONTINUOUS
 62
     7
 10
12.30657863616943
 20
49.49999999999999
 42
0.02789949247682305
  0
VERTEX
  8
0
  6
CONTINUOUS
 62
     7
 10
12.26744543152288
 20
50.2101475836988
 42
0.03516026408852826
  0
VERTEX
  8
0
  6
CONTINUOUS
 62
     7
 10
12.14095178490499
 20
50.91043814062531
 42
0.06315586914456289
  0
VERTEX
  8
0
  6
CONTINUOUS
 62
     7
 10
11.88691973960936
 20
51.57417835086429
 42
0.255284344937125
  0
SEQEND
  8
0
  0
TEXT
  8
0
  6
CONTINUOUS
 62
     7
 10
-11.28550004959106
 20
-31.79999995231628
 40
3.599999904632568
 41
1.007125066575079
  1
SHS45LC
  0
ENDSEC
  0
EOF
