  0
SECTION
  2
HEADER
  0
ENDSEC
  0
SECTION
  2
TABLES
  0
TABLE
  2
LTYPE
 70
    22
  0
LTYPE
  2
CONTINUOUS
 70
    64
  3
Solid line
 72
    65
 73
     0
 40
0.000000
  0
LTYPE
  2
DASHED
 70
    64
  3
__ __ __ __ __ __ __ __ __ __ __ __ __ __ __
 72
    65
 73
     2
 40
3.500000
 49
2.000000
 49
-1.500000
  0
LTYPE
  2
CENTER
 70
    64
  3
____ _ ____ _ ____ _ ____ _ ____ _ ____ _ ____
 72
    65
 73
     4
 40
17.500000
 49
13.000000
 49
-1.500000
 49
1.500000
 49
-1.500000
  0
LTYPE
  2
PHANTOM
 70
    64
  3
_____ _ _ _____ _ _ _____ _ _ _____ _ _ ____  
 72
    65
 73
     6
 40
15.500000
 49
8.000000
 49
-1.500000
 49
1.500000
 49
-1.500000
 49
1.500000
 49
-1.500000
  0
LTYPE
  2
DOT
 70
    64
  3
. . . . . . . . . . . . . . . . . . . . . . . .
 72
    65
 73
     2
 40
0.25
 49
0.0
 49
-0.25
  0
ENDTAB
  0
TABLE
  2
LAYER
 70
     1
  0
LAYER
  2
0
 70
     0
 62
     7
  6
CONTINUOUS
  0
ENDTAB
  0
TABLE
  2
STYLE
 70
     1
  0
STYLE
  2
STANDARD
 70
     0
 40
0.000000
 41
1.000000
 50
0.000000
 71
     0
 42
0.200000
  3
txt
  0
ENDTAB
  0
TABLE
  2
VIEW
 70
     0
  0
ENDTAB
  0
ENDSEC
  0
SECTION
  2
BLOCKS
  0
ENDSEC
  0
SECTION
  2
ENTITIES
  0
LINE
  8
0
  6
DASHED
 62
     7
 10
-64.25
 20
70
 11
-64.25
 21
49
  0
LINE
  8
0
  6
DASHED
 62
     7
 10
-51.75
 20
70
 11
-51.75
 21
49
  0
LINE
  8
0
  6
DASHED
 62
     7
 10
-48
 20
49
 11
-48
 21
13.40190887451172
  0
LINE
  8
0
  6
CENTER
 62
     7
 10
-58
 20
71
 11
-58
 21
35.021728515625
  0
LINE
  8
0
  6
DASHED
 62
     7
 10
-51
 20
70
 11
-51
 21
49
  0
LINE
  8
0
  6
CONTINUOUS
 62
     7
 10
-68
 20
49
 11
-66.82049560546875
 21
49
  0
LINE
  8
0
  6
DASHED
 62
     7
 10
-65
 20
70
 11
-65
 21
49
  0
LINE
  8
0
  6
CONTINUOUS
 62
     7
 10
49.00001525878906
 20
14.69999504089356
 11
47.0000114440918
 21
12.69999217987061
  0
LINE
  8
0
  6
CONTINUOUS
 62
     7
 10
25.79998207092285
 20
12.69999694824219
 11
47
 21
12.69999694824219
  0
LINE
  8
0
  6
CONTINUOUS
 62
     7
 10
-16.5
 20
70
 11
16.5
 21
70
  0
LINE
  8
0
  6
CONTINUOUS
 62
     7
 10
-68
 20
70
 11
-40.50042724609375
 21
70
  0
LINE
  8
0
  6
CONTINUOUS
 62
     7
 10
-70
 20
68
 11
-70
 21
53
  0
LINE
  8
0
  6
CONTINUOUS
 62
     7
 10
-17.33135986328125
 20
69.5
 11
-39.66864013671875
 21
69.5
  0
LINE
  8
0
  6
CONTINUOUS
 62
     7
 10
-16.50000762939453
 20
70.00002288818359
 11
-16.76568984985352
 21
69.73433685302734
  0
LINE
  8
0
  6
CONTINUOUS
 62
     7
 10
-69.29288482666016
 20
52.29290008544922
 11
-69.99998474121094
 21
53.00000381469727
  0
LINE
  8
0
  6
CONTINUOUS
 62
     7
 10
-49.5
 20
18.85639953613281
 11
-49.5
 21
16
  0
LINE
  8
0
  6
CONTINUOUS
 62
     7
 10
-40.23430633544922
 20
69.73429870605469
 11
-40.4999885559082
 21
69.99997711181641
  0
LINE
  8
0
  6
CONTINUOUS
 62
     7
 10
-65.08844757080078
 20
47.99998092651367
 11
-50.57179641723633
 21
22.85641098022461
  0
LINE
  8
0
  6
CONTINUOUS
 62
     7
 10
-69.99997711181641
 20
68.00000762939453
 11
-68
 21
69.99998474121094
  0
LINE
  8
0
  6
CONTINUOUS
 62
     7
 10
-69
 20
51.58578491210938
 11
-69
 21
50
  0
LINE
  8
0
  6
CONTINUOUS
 62
     7
 10
40.5
 20
70
 11
68
 21
70
  0
LINE
  8
0
  6
CONTINUOUS
 62
     7
 10
65.08845520019531
 20
48
 11
50.57179641723633
 21
22.85640716552734
  0
LINE
  8
0
  6
CONTINUOUS
 62
     7
 10
69
 20
51.58578491210938
 11
69
 21
50
  0
LINE
  8
0
  6
CONTINUOUS
 62
     7
 10
69.99995422363281
 20
68.00002288818359
 11
68
 21
69.99997711181641
  0
LINE
  8
0
  6
CONTINUOUS
 62
     7
 10
16.50002861022949
 20
69.99995422363281
 11
16.76571083068848
 21
69.73427581787109
  0
LINE
  8
0
  6
CONTINUOUS
 62
     7
 10
40.23432540893555
 20
69.73432159423828
 11
40.5000114440918
 21
70
  0
LINE
  8
0
  6
CONTINUOUS
 62
     7
 10
69.29288482666016
 20
52.29290008544922
 11
69.99995422363281
 21
52.99996566772461
  0
LINE
  8
0
  6
CONTINUOUS
 62
     7
 10
49.5
 20
18.85639953613281
 11
49.5
 21
16
  0
LINE
  8
0
  6
CONTINUOUS
 62
     7
 10
66.82049560546875
 20
49
 11
68
 21
49
  0
LINE
  8
0
  6
CONTINUOUS
 62
     7
 10
17.33135986328125
 20
69.5
 11
39.6685791015625
 21
69.5
  0
LINE
  8
0
  6
DASHED
 62
     7
 10
8
 20
18
 11
8
 21
0.5
  0
LINE
  8
0
  6
CONTINUOUS
 62
     7
 10
47.00001525878906
 20
68.99996185302734
 11
49.00001525878906
 21
66.99996185302734
  0
LINE
  8
0
  6
CONTINUOUS
 62
     7
 10
49
 20
67
 11
49
 21
14.69995880126953
  0
LINE
  8
0
  6
CONTINUOUS
 62
     7
 10
26.5
 20
11.58578491210938
 11
26.5
 21
2
  0
LINE
  8
0
  6
CONTINUOUS
 62
     7
 10
15.5
 20
0
 11
24.5
 21
0
  0
LINE
  8
0
  6
DASHED
 62
     7
 10
11.5
 20
38
 11
11.5
 21
18
  0
LINE
  8
0
  6
CONTINUOUS
 62
     7
 10
7.33135986328125
 20
0.5
 11
14.66864013671875
 21
0.5
  0
LINE
  8
0
  6
CONTINUOUS
 62
     7
 10
15.23432350158691
 20
0.265652596950531
 11
15.50000667572022
 21
-3.034573092008941E-005
  0
LINE
  8
0
  6
CONTINUOUS
 62
     7
 10
6.500017642974854
 20
-3.034573092008941E-005
 11
6.765722274780273
 21
0.2656741738319397
  0
LINE
  8
0
  6
CONTINUOUS
 62
     7
 10
26.50000190734863
 20
1.999998331069946
 11
24.5
 21
-3.729996024048887E-006
  0
LINE
  8
0
  6
CENTER
 62
     7
 10
30.25
 20
57
 11
37.75
 21
57
  0
LINE
  8
0
  6
CENTER
 62
     7
 10
34
 20
60.75
 11
34
 21
53.25
  0
LINE
  8
0
  6
CONTINUOUS
 62
     7
 10
21.5
 20
23.58578491210938
 11
21.5
 21
17.41421508789063
  0
LINE
  8
0
  6
CONTINUOUS
 62
     7
 10
21.79290580749512
 20
24.29284477233887
 11
22.57840919494629
 21
25.07835006713867
  0
LINE
  8
0
  6
CONTINUOUS
 62
     7
 10
21.7928638458252
 20
16.70711517333984
 11
26.20982170104981
 21
12.29015827178955
  0
LINE
  8
0
  6
CONTINUOUS
 62
     7
 10
26.5
 20
33.56327819824219
 11
26.5
 21
29.43672180175781
  0
LINE
  8
0
  6
CONTINUOUS
 62
     7
 10
24.30411911010742
 20
42.49998092651367
 11
31.0000114440918
 21
35.8040885925293
  0
LINE
  8
0
  6
CONTINUOUS
 62
     7
 10
31
 20
35.80413818359375
 11
31
 21
27.13603210449219
  0
LINE
  8
0
  6
CONTINUOUS
 62
     7
 10
25.99998474121094
 20
22.13604927062988
 11
30.99996757507324
 21
27.13603210449219
  0
LINE
  8
0
  6
CONTINUOUS
 62
     7
 10
26
 20
22.13603210449219
 11
26
 21
18.86395263671875
  0
LINE
  8
0
  6
DASHED
 62
     7
 10
11.5
 20
18
 11
-11.5
 21
18
  0
LINE
  8
0
  6
CONTINUOUS
 62
     7
 10
25.99998474121094
 20
18.86395454406738
 11
32.16394424438477
 21
12.69999694824219
  0
LINE
  8
0
  6
CONTINUOUS
 62
     7
 10
-7.33135986328125
 20
0.5
 11
-14.66864013671875
 21
0.5
  0
LINE
  8
0
  6
DASHED
 62
     7
 10
-11.5
 20
38
 11
-11.5
 21
18
  0
LINE
  8
0
  6
DASHED
 62
     7
 10
-8
 20
18
 11
-8
 21
0.5
  0
LINE
  8
0
  6
CONTINUOUS
 62
     7
 10
-21.79288482666016
 20
16.70709419250488
 11
-26.20710182189941
 21
12.29287719726563
  0
LINE
  8
0
  6
CONTINUOUS
 62
     7
 10
-6.500017642974854
 20
1.281264212593669E-005
 11
-6.765700817108154
 21
0.2656957507133484
  0
LINE
  8
0
  6
CONTINUOUS
 62
     7
 10
-15.5
 20
0
 11
-24.5
 21
0
  0
LINE
  8
0
  6
CONTINUOUS
 62
     7
 10
-15.2343225479126
 20
0.2656957507133484
 11
-15.5000057220459
 21
1.281264212593669E-005
  0
LINE
  8
0
  6
CONTINUOUS
 62
     7
 10
-26.5
 20
1.999986171722412
 11
-24.49999809265137
 21
-1.586828875588253E-005
  0
LINE
  8
0
  6
CONTINUOUS
 62
     7
 10
-26.5
 20
33.56327819824219
 11
-26.5
 21
29.43672180175781
  0
LINE
  8
0
  6
CONTINUOUS
 62
     7
 10
-26.5
 20
11.58578491210938
 11
-26.5
 21
2
  0
LINE
  8
0
  6
CONTINUOUS
 62
     7
 10
-21.79288482666016
 20
24.29286766052246
 11
-22.57840919494629
 21
25.07839202880859
  0
LINE
  8
0
  6
CONTINUOUS
 62
     7
 10
-21.5
 20
23.58578491210938
 11
-21.5
 21
17.41421508789063
  0
LINE
  8
0
  6
CONTINUOUS
 62
     7
 10
-22.2330322265625
 20
38
 11
22.23309326171875
 21
38
  0
LINE
  8
0
  6
CONTINUOUS
 62
     7
 10
-6.5
 20
0
 11
6.5
 21
0
  0
LINE
  8
0
  6
CONTINUOUS
 62
     7
 10
425.4999694824219
 20
69
 11
425.4999694824219
 21
12.70001220703125
  0
LINE
  8
0
  6
CONTINUOUS
 62
     7
 10
445.5
 20
69
 11
445.5
 21
12.70001220703125
  0
LINE
  8
0
  6
CONTINUOUS
 62
     7
 10
413.2123413085938
 20
21
 11
425.5
 21
21
  0
LINE
  8
0
  6
CONTINUOUS
 62
     7
 10
318.2123413085938
 20
21
 11
401.7876586914063
 21
21
  0
LINE
  8
0
  6
CONTINUOUS
 62
     7
 10
418
 20
49
 11
418
 21
35.72247314453125
  0
LINE
  8
0
  6
CONTINUOUS
 62
     7
 10
412.7680053710938
 20
18.8564453125
 11
412.7680053710938
 21
16
  0
LINE
  8
0
  6
CONTINUOUS
 62
     7
 10
402.2319946289063
 20
18.8564453125
 11
402.2319946289063
 21
16
  0
LINE
  8
0
  6
CONTINUOUS
 62
     7
 10
397
 20
49
 11
397
 21
35.72247314453125
  0
LINE
  8
0
  6
CONTINUOUS
 62
     7
 10
323
 20
49
 11
323
 21
35.72247314453125
  0
LINE
  8
0
  6
CONTINUOUS
 62
     7
 10
317.7680053710938
 20
18.8564453125
 11
317.7680053710938
 21
16
  0
LINE
  8
0
  6
CONTINUOUS
 62
     7
 10
307.2319946289063
 20
18.8564453125
 11
307.2319946289063
 21
16
  0
LINE
  8
0
  6
CONTINUOUS
 62
     7
 10
302
 20
49
 11
302
 21
35.72247314453125
  0
LINE
  8
0
  6
CONTINUOUS
 62
     7
 10
274.5
 20
12.70001220703125
 11
294.5
 21
12.70001220703125
  0
LINE
  8
0
  6
CONTINUOUS
 62
     7
 10
295.5
 20
70
 11
424.5
 21
70
  0
LINE
  8
0
  6
CONTINUOUS
 62
     7
 10
294.5
 20
21
 11
306.78759765625
 21
21
  0
LINE
  8
0
  6
CONTINUOUS
 62
     7
 10
295.4999694824219
 20
70.00002288818359
 11
294.4999694824219
 21
69.00002288818359
  0
LINE
  8
0
  6
CONTINUOUS
 62
     7
 10
294.5
 20
49
 11
425.5
 21
49
  0
LINE
  8
0
  6
CONTINUOUS
 62
     7
 10
294.5
 20
13
 11
425.5
 21
13
  0
LINE
  8
0
  6
CONTINUOUS
 62
     7
 10
424.4999694824219
 20
70.00002288818359
 11
425.4999389648438
 21
69.00004577636719
  0
LINE
  8
0
  6
CENTER
 62
     7
 10
258.6239013671875
 20
59
 11
278.9991455078125
 21
59
  0
LINE
  8
0
  6
CONTINUOUS
 62
     7
 10
262.9500122070313
 20
55.42001724243164
 11
262.5528259277344
 21
56.1927604675293
  0
LINE
  8
0
  6
CONTINUOUS
 62
     7
 10
267.5250244140625
 20
55.419921875
 11
262.9500122070313
 21
55.419921875
  0
LINE
  8
0
  6
CONTINUOUS
 62
     7
 10
269.3649597167969
 20
58.99996948242188
 11
267.5249328613281
 21
55.41996002197266
  0
LINE
  8
0
  6
CONTINUOUS
 62
     7
 10
268.4898986816406
 20
58.99997329711914
 11
266.6499328613281
 21
55.41999053955078
  0
LINE
  8
0
  6
CONTINUOUS
 62
     7
 10
266.6499938964844
 20
62.57999420166016
 11
268.4900207519531
 21
58.99996185302734
  0
LINE
  8
0
  6
CONTINUOUS
 62
     7
 10
262.5527954101563
 20
61.80717086791992
 11
262.9499816894531
 21
62.57994079589844
  0
LINE
  8
0
  6
CONTINUOUS
 62
     7
 10
267.5249633789063
 20
62.57999801635742
 11
269.364990234375
 21
58.99996185302734
  0
LINE
  8
0
  6
CONTINUOUS
 62
     7
 10
274.5
 20
53.146484375
 11
273.1620483398438
 21
53.146484375
  0
LINE
  8
0
  6
CONTINUOUS
 62
     7
 10
273.1620178222656
 20
53.14648818969727
 11
272.5999755859375
 21
54.11997222900391
  0
LINE
  8
0
  6
CONTINUOUS
 62
     7
 10
272.5999755859375
 20
63.87996292114258
 11
273.1620178222656
 21
64.85344696044922
  0
LINE
  8
0
  6
CONTINUOUS
 62
     7
 10
262.9500122070313
 20
62.5799560546875
 11
267.5250244140625
 21
62.5799560546875
  0
LINE
  8
0
  6
CONTINUOUS
 62
     7
 10
272.5999755859375
 20
54.199951171875
 11
265.0999755859375
 21
54.199951171875
  0
LINE
  8
0
  6
CONTINUOUS
 62
     7
 10
265.0999755859375
 20
63.7999267578125
 11
272.5999755859375
 21
63.7999267578125
  0
LINE
  8
0
  6
CONTINUOUS
 62
     7
 10
272.5999755859375
 20
63.87994384765625
 11
272.5999755859375
 21
54.11993408203125
  0
LINE
  8
0
  6
CONTINUOUS
 62
     7
 10
273.1620483398438
 20
64.85345458984375
 11
274.5
 21
64.85345458984375
  0
LINE
  8
0
  6
CONTINUOUS
 62
     7
 10
445.5
 20
38
 11
570
 21
38
  0
LINE
  8
0
  6
CENTER
 62
     7
 10
282
 20
63
 11
287
 21
63
  0
LINE
  8
0
  6
CENTER
 62
     7
 10
279.9000244140625
 20
62
 11
289.0999755859375
 21
62
  0
LINE
  8
0
  6
CENTER
 62
     7
 10
284.5
 20
66.5999755859375
 11
284.5
 21
57.4000244140625
  0
LINE
  8
0
  6
CONTINUOUS
 62
     7
 10
274.5
 20
69
 11
294.5
 21
69
  0
LINE
  8
0
  6
CONTINUOUS
 62
     7
 10
274.5
 20
69
 11
274.5
 21
12.70001220703125
  0
LINE
  8
0
  6
CONTINUOUS
 62
     7
 10
294.5
 20
69
 11
294.5
 21
12.70001220703125
  0
LINE
  8
0
  6
CENTER
 62
     7
 10
300
 20
14
 11
300
 21
-1
  0
LINE
  8
0
  6
CONTINUOUS
 62
     7
 10
150
 20
0
 11
570
 21
0
  0
LINE
  8
0
  6
CONTINUOUS
 62
     7
 10
150
 20
38
 11
274.5
 21
38
  0
LINE
  8
0
  6
CONTINUOUS
 62
     7
 10
445.5
 20
69
 11
425.4999694824219
 21
69
  0
LINE
  8
0
  6
CENTER
 62
     7
 10
435.5
 20
66.5999755859375
 11
435.5
 21
57.4000244140625
  0
LINE
  8
0
  6
CENTER
 62
     7
 10
440.0999755859375
 20
62
 11
430.8999938964844
 21
62
  0
LINE
  8
0
  6
CENTER
 62
     7
 10
438
 20
63
 11
432.9999694824219
 21
63
  0
LINE
  8
0
  6
CONTINUOUS
 62
     7
 10
445.5
 20
12.70001220703125
 11
425.4999694824219
 21
12.70001220703125
  0
LINE
  8
0
  6
DASHED
 62
     7
 10
-66.82049560546875
 20
49
 11
-48
 21
49
  0
LINE
  8
0
  6
CENTER
 62
     7
 10
58
 20
71
 11
58
 21
35.72243499755859
  0
LINE
  8
0
  6
CONTINUOUS
 62
     7
 10
-25.79998207092285
 20
12.69999694824219
 11
-47
 21
12.69999694824219
  0
LINE
  8
0
  6
CONTINUOUS
 62
     7
 10
-47.00001525878906
 20
68.99996185302734
 11
-49.00001525878906
 21
66.99996185302734
  0
LINE
  8
0
  6
CONTINUOUS
 62
     7
 10
-49
 20
67
 11
-49
 21
14.69995880126953
  0
LINE
  8
0
  6
CENTER
 62
     7
 10
-30.25
 20
57
 11
-37.75
 21
57
  0
LINE
  8
0
  6
CENTER
 62
     7
 10
-34
 20
60.75
 11
-34
 21
53.25
  0
LINE
  8
0
  6
CONTINUOUS
 62
     7
 10
24.30413818359375
 20
42.5
 11
-24.30413818359375
 21
42.5
  0
LINE
  8
0
  6
CONTINUOUS
 62
     7
 10
-24.30411911010742
 20
42.49998092651367
 11
-31.0000114440918
 21
35.8040885925293
  0
LINE
  8
0
  6
CONTINUOUS
 62
     7
 10
-31
 20
35.80413818359375
 11
-31
 21
27.13603210449219
  0
LINE
  8
0
  6
CONTINUOUS
 62
     7
 10
-25.99998474121094
 20
22.13604927062988
 11
-30.99996757507324
 21
27.13603210449219
  0
LINE
  8
0
  6
CONTINUOUS
 62
     7
 10
-26
 20
22.13603210449219
 11
-26
 21
18.86395263671875
  0
LINE
  8
0
  6
CONTINUOUS
 62
     7
 10
-25.99998474121094
 20
18.86395454406738
 11
-32.16394424438477
 21
12.69999694824219
  0
LINE
  8
0
  6
CENTER
 62
     7
 10
0
 20
71
 11
0
 21
-1
  0
LINE
  8
0
  6
CONTINUOUS
 62
     7
 10
-47.00001525878906
 20
68.99996185302734
 11
47.00001525878906
 21
68.99996185302734
  0
LINE
  8
0
  6
CENTER
 62
     7
 10
-6.817865371704102
 20
59
 11
14.146559715271
 21
59
  0
LINE
  8
0
  6
CONTINUOUS
 62
     7
 10
2.616576194763184
 20
62.5
 11
6.696562767028809
 21
62.5
  0
LINE
  8
0
  6
CONTINUOUS
 62
     7
 10
2.616576194763184
 20
55.5
 11
6.696562767028809
 21
55.5
  0
LINE
  8
0
  6
CONTINUOUS
 62
     7
 10
1.966568470001221
 20
58.99995422363281
 11
2.616562128067017
 21
55.49995422363281
  0
LINE
  8
0
  6
CONTINUOUS
 62
     7
 10
1.966565608978272
 20
58.99997329711914
 11
2.616556644439697
 21
62.49995803833008
  0
LINE
  8
0
  6
CONTINUOUS
 62
     7
 10
4.276581764221191
 20
58.99995040893555
 11
4.926592826843262
 21
55.49993896484375
  0
LINE
  8
0
  6
CONTINUOUS
 62
     7
 10
4.276551723480225
 20
58.99996185302734
 11
4.926563262939453
 21
62.49997711181641
  0
LINE
  8
0
  6
CONTINUOUS
 62
     7
 10
6.786579608917236
 20
55.969970703125
 11
6.696567535400391
 21
55.49996566772461
  0
LINE
  8
0
  6
CONTINUOUS
 62
     7
 10
6.786597728729248
 20
62.01998901367188
 11
6.696589946746826
 21
62.49998092651367
  0
LINE
  8
0
  6
CONTINUOUS
 62
     7
 10
8.60252571105957
 20
55.75428009033203
 11
11.35655784606934
 21
56.49995803833008
  0
LINE
  8
0
  6
CONTINUOUS
 62
     7
 10
8.586551666259766
 20
62.2499885559082
 11
11.35656356811523
 21
61.4999885559082
  0
LINE
  8
0
  6
CONTINUOUS
 62
     7
 10
-5.000020027160645
 20
56.11325073242188
 11
-2.692134512471966E-005
 21
53.22650527954102
  0
LINE
  8
0
  6
CONTINUOUS
 62
     7
 10
-4.999999046325684
 20
61.88673400878906
 11
-4.999999046325684
 21
56.11326599121094
  0
LINE
  8
0
  6
CONTINUOUS
 62
     7
 10
-3.508026202325709E-005
 20
64.77346801757813
 11
-5.000031471252441
 21
61.88671493530273
  0
LINE
  8
0
  6
CONTINUOUS
 62
     7
 10
3.937794923782349
 20
62.49998474121094
 11
3.596546594053507E-005
 21
64.77345275878906
  0
LINE
  8
0
  6
CONTINUOUS
 62
     7
 10
1.878088005469181E-005
 20
53.22652816772461
 11
3.937779426574707
 21
55.49999237060547
  0
LINE
  8
0
  6
CONTINUOUS
 62
     7
 10
-49.00001525878906
 20
14.69999504089356
 11
-47.0000114440918
 21
12.69999217987061
  0
LINE
  8
0
  6
DASHED
 62
     7
 10
306.25
 20
70
 11
306.25
 21
49
  0
LINE
  8
0
  6
DASHED
 62
     7
 10
318.75
 20
70
 11
318.75
 21
49
  0
LINE
  8
0
  6
CENTER
 62
     7
 10
312.5
 20
71
 11
312.5
 21
12
  0
LINE
  8
0
  6
DASHED
 62
     7
 10
319.5
 20
70
 11
319.5
 21
49
  0
LINE
  8
0
  6
DASHED
 62
     7
 10
305.5
 20
70
 11
305.5
 21
49
  0
LINE
  8
0
  6
CENTER
 62
     7
 10
407.5
 20
71
 11
407.5
 21
12
  0
LINE
  8
0
  6
CENTER
 62
     7
 10
420
 20
14
 11
420
 21
-1
  0
LINE
  8
0
  6
CONTINUOUS
 62
     7
 10
150
 20
34.00553512573242
 11
274.5
 21
34.00553512573242
  0
LINE
  8
0
  6
CONTINUOUS
 62
     7
 10
150
 20
28.99446487426758
 11
274.5
 21
28.99446487426758
  0
LINE
  8
0
  6
CONTINUOUS
 62
     7
 10
150
 20
23.99994087219238
 11
274.5
 21
23.99994087219238
  0
LINE
  8
0
  6
CONTINUOUS
 62
     7
 10
150
 20
17.41421508789063
 11
274.5
 21
17.41421508789063
  0
LINE
  8
0
  6
CONTINUOUS
 62
     7
 10
150
 20
11.99997901916504
 11
570
 21
11.99997901916504
  0
LINE
  8
0
  6
CONTINUOUS
 62
     7
 10
150
 20
38
 11
150
 21
0
  0
LINE
  8
0
  6
DASHED
 62
     7
 10
188
 20
18
 11
188
 21
0
  0
LINE
  8
0
  6
DASHED
 62
     7
 10
191.5
 20
38
 11
191.5
 21
18
  0
LINE
  8
0
  6
DASHED
 62
     7
 10
191.5
 20
18
 11
168.5
 21
18
  0
LINE
  8
0
  6
DASHED
 62
     7
 10
168.5
 20
38
 11
168.5
 21
18
  0
LINE
  8
0
  6
DASHED
 62
     7
 10
172
 20
18
 11
172
 21
0
  0
LINE
  8
0
  6
CENTER
 62
     7
 10
180
 20
39
 11
180
 21
-1
  0
LINE
  8
0
  6
CENTER
 62
     7
 10
540
 20
39
 11
540
 21
-1
  0
LINE
  8
0
  6
CONTINUOUS
 62
     7
 10
570
 20
38
 11
570
 21
0
  0
LINE
  8
0
  6
CONTINUOUS
 62
     7
 10
445.5
 20
34.00553512573242
 11
570
 21
34.00553512573242
  0
LINE
  8
0
  6
CONTINUOUS
 62
     7
 10
445.5
 20
28.99446487426758
 11
570
 21
28.99446487426758
  0
LINE
  8
0
  6
CONTINUOUS
 62
     7
 10
445.5
 20
23.99994087219238
 11
570
 21
23.99994087219238
  0
LINE
  8
0
  6
CONTINUOUS
 62
     7
 10
445.5
 20
17.41421508789063
 11
570
 21
17.41421508789063
  0
LINE
  8
0
  6
CONTINUOUS
 62
     7
 10
69.99995422363281
 20
68.00002288818359
 11
69.99995422363281
 21
52.99996948242188
  0
LINE
  8
0
  6
CENTER
 62
     7
 10
149
 20
260
 11
571
 21
260
  0
LINE
  8
0
  6
CONTINUOUS
 62
     7
 10
150
 20
233.5
 11
274.5
 21
233.5
  0
LINE
  8
0
  6
CONTINUOUS
 62
     7
 10
150
 20
237.3035888671875
 11
274.5
 21
237.3035888671875
  0
LINE
  8
0
  6
CENTER
 62
     7
 10
180
 20
272.5
 11
180
 21
247.5
  0
LINE
  8
0
  6
CONTINUOUS
 62
     7
 10
294.5
 20
190.0000457763672
 11
425.5
 21
190.0000457763672
  0
LINE
  8
0
  6
CONTINUOUS
 62
     7
 10
274.5
 20
211
 11
294.5
 21
211
  0
LINE
  8
0
  6
CENTER
 62
     7
 10
312.5
 20
210
 11
312.5
 21
194
  0
LINE
  8
0
  6
CENTER
 62
     7
 10
304.5
 20
202
 11
320.5
 21
202
  0
LINE
  8
0
  6
CENTER
 62
     7
 10
407.5
 20
210
 11
407.5
 21
194
  0
LINE
  8
0
  6
CENTER
 62
     7
 10
415.5
 20
202
 11
399.5
 21
202
  0
LINE
  8
0
  6
CENTER
 62
     7
 10
540
 20
272.5
 11
540
 21
247.5
  0
LINE
  8
0
  6
CONTINUOUS
 62
     7
 10
445.5
 20
211
 11
425.5
 21
211
  0
LINE
  8
0
  6
CONTINUOUS
 62
     7
 10
570
 20
237.3035888671875
 11
445.5
 21
237.3035888671875
  0
LINE
  8
0
  6
CONTINUOUS
 62
     7
 10
570
 20
233.5
 11
445.5
 21
233.5
  0
LINE
  8
0
  6
CENTER
 62
     7
 10
312.5
 20
310
 11
312.5
 21
326
  0
LINE
  8
0
  6
CONTINUOUS
 62
     7
 10
294.5
 20
190.0000457763672
 11
294.5
 21
329.9999389648438
  0
LINE
  8
0
  6
CENTER
 62
     7
 10
304.5
 20
318
 11
320.5
 21
318
  0
LINE
  8
0
  6
CONTINUOUS
 62
     7
 10
445.5
 20
309
 11
425.5
 21
309
  0
LINE
  8
0
  6
CONTINUOUS
 62
     7
 10
570
 20
233.5
 11
570
 21
286.5
  0
LINE
  8
0
  6
CONTINUOUS
 62
     7
 10
570
 20
282.6964111328125
 11
445.5
 21
282.6964111328125
  0
LINE
  8
0
  6
CONTINUOUS
 62
     7
 10
570
 20
286.5
 11
445.5
 21
286.5
  0
LINE
  8
0
  6
CONTINUOUS
 62
     7
 10
445.5
 20
211
 11
445.5
 21
309
  0
LINE
  8
0
  6
CENTER
 62
     7
 10
407.5
 20
310
 11
407.5
 21
326
  0
LINE
  8
0
  6
CENTER
 62
     7
 10
415.5
 20
318
 11
399.5
 21
318
  0
LINE
  8
0
  6
CONTINUOUS
 62
     7
 10
425.5
 20
190.0000457763672
 11
425.5
 21
329.9999389648438
  0
LINE
  8
0
  6
CONTINUOUS
 62
     7
 10
274.5
 20
309
 11
294.5
 21
309
  0
LINE
  8
0
  6
CONTINUOUS
 62
     7
 10
274.5
 20
211
 11
274.5
 21
309
  0
LINE
  8
0
  6
CONTINUOUS
 62
     7
 10
150
 20
233.5
 11
150
 21
286.5
  0
LINE
  8
0
  6
CONTINUOUS
 62
     7
 10
150
 20
282.6964111328125
 11
274.5
 21
282.6964111328125
  0
LINE
  8
0
  6
CONTINUOUS
 62
     7
 10
294.5
 20
329.9999389648438
 11
425.5
 21
329.9999389648438
  0
LINE
  8
0
  6
CONTINUOUS
 62
     7
 10
150
 20
286.5
 11
274.5
 21
286.5
  0
LINE
  8
0
  6
CENTER
 62
     7
 10
300
 20
272.5
 11
300
 21
247.5
  0
LINE
  8
0
  6
CENTER
 62
     7
 10
420
 20
272.5
 11
420
 21
247.5
  0
LINE
  8
0
  6
CONTINUOUS
 62
     7
 10
294.5
 20
219.4995727539063
 11
425.5
 21
219.4995727539063
  0
LINE
  8
0
  6
CONTINUOUS
 62
     7
 10
294.5
 20
300.5004272460938
 11
425.5
 21
300.5004272460938
  0
LINE
  8
0
  6
CONTINUOUS
 62
     7
 10
294.5
 20
276.5000305175781
 11
425.5
 21
276.5000305175781
  0
LINE
  8
0
  6
CONTINUOUS
 62
     7
 10
294.5
 20
243.4999694824219
 11
425.5
 21
243.4999694824219
  0
LINE
  8
0
  6
CONTINUOUS
 62
     7
 10
261.8533020019531
 20
255.1840209960938
 11
268.4021606445313
 21
252.471435546875
  0
LINE
  8
0
  6
CONTINUOUS
 62
     7
 10
267.7728881835938
 20
255.1999969482422
 11
272.6000061035156
 21
255.1999969482422
  0
LINE
  8
0
  6
CONTINUOUS
 62
     7
 10
272.6000061035156
 20
255
 11
274.5
 21
255
  0
LINE
  8
0
  6
CONTINUOUS
 62
     7
 10
265.1000061035156
 20
264.7999877929688
 11
272.6000061035156
 21
264.7999877929688
  0
LINE
  8
0
  6
CONTINUOUS
 62
     7
 10
269.5057678222656
 20
253.83642578125
 11
269.1829223632813
 21
254.6158752441406
  0
LINE
  8
0
  6
CONTINUOUS
 62
     7
 10
272.6000061035156
 20
265
 11
274.5
 21
265
  0
LINE
  8
0
  6
CONTINUOUS
 62
     7
 10
262.1000061035156
 20
261.7999877929688
 11
262.1000061035156
 21
258.1452941894531
  0
LINE
  8
0
  6
CONTINUOUS
 62
     7
 10
272.6000061035156
 20
265
 11
272.6000061035156
 21
255
  0
LINE
  8
0
  6
CONTINUOUS
 62
     7
 10
262.0150756835938
 20
253.6298980712891
 11
267.1887817382813
 21
251.4868621826172
  0
LINE
  8
0
  6
CONTINUOUS
 62
     7
 10
262.1787719726563
 20
257.5171813964844
 11
269.1829223632813
 21
254.6159515380859
  0
LINE
  8
0
  6
CONTINUOUS
 62
     7
 10
262.817626953125
 20
257.25244140625
 11
262.0381774902344
 21
256.9295959472656
  0
LINE
  8
0
  6
CONTINUOUS
 62
     7
 10
266.9945983886719
 20
253.0544586181641
 11
267.8671569824219
 21
255.1609497070313
  0
LINE
  8
0
  6
CONTINUOUS
 62
     7
 10
263.2608032226563
 20
254.6009979248047
 11
264.1333618164063
 21
256.70751953125
  0
LINE
  8
0
  6
CONTINUOUS
 62
     7
 10
269.0911254882813
 20
252.8353881835938
 11
269.5057678222656
 21
253.8364562988281
  0
LINE
  8
0
  6
CONTINUOUS
 62
     7
 10
260.6830444335938
 20
249.3688354492188
 11
265.1176452636719
 21
247.5319519042969
  0
LINE
  8
0
  6
CONTINUOUS
 62
     7
 10
261.6235046386719
 20
255.9285736083984
 11
262.0381774902344
 21
256.9296569824219
  0
LINE
  8
0
  6
CONTINUOUS
 62
     7
 10
265.11767578125
 20
247.5319366455078
 11
266.982421875
 21
249.6820220947266
  0
LINE
  8
0
  6
CONTINUOUS
 62
     7
 10
260.6830444335938
 20
249.3688354492188
 11
260.8848266601563
 21
252.2077178955078
  0
LINE
  8
0
  6
CONTINUOUS
 62
     7
 10
260.8847961425781
 20
252.2077331542969
 11
266.9823913574219
 21
249.6820373535156
  0
LINE
  8
0
  6
CENTER
 62
     7
 10
262.2628784179688
 20
246.9113616943359
 11
267.841796875
 21
260.3800964355469
  0
ARC
  8
0
  6
CONTINUOUS
 62
     7
 10
7.33135986328125
 20
-0.3000030517578125
 40
0.800000011920929
 50
90.00000250447819
 51
135.0000003416227
  0
ARC
  8
0
  6
CONTINUOUS
 62
     7
 10
14.66864013671875
 20
-0.3000030517578125
 40
0.8000000119209287
 50
45.0000012522391
 51
90.00000250447812
  0
ARC
  8
0
  6
CONTINUOUS
 62
     7
 10
22.5
 20
23.58578491210938
 40
1
 50
135.0000003416226
 51
180.0000050089563
  0
ARC
  8
0
  6
CONTINUOUS
 62
     7
 10
22.23309326171875
 20
37.5
 40
0.5000000000000016
 50
7.329365861540283
 51
90.00000250447806
  0
ARC
  8
0
  6
CONTINUOUS
 62
     7
 10
26
 20
29.43672180175781
 40
0.5000000000000004
 50
279.8544509960435
 51
0
  0
ARC
  8
0
  6
CONTINUOUS
 62
     7
 10
22.224853515625
 20
25.43193054199219
 40
0.4999999999999991
 50
314.9999987477608
 51
353.5265204475991
  0
ARC
  8
0
  6
CONTINUOUS
 62
     7
 10
26
 20
33.56327819824219
 40
0.5
 50
0
 51
80.14554900395649
  0
ARC
  8
0
  6
CONTINUOUS
 62
     7
 10
22.5
 20
17.41421508789063
 40
1.000000000000001
 50
179.999991348578
 51
224.9999960159116
  0
ARC
  8
0
  6
CONTINUOUS
 62
     7
 10
26.7855224609375
 20
24.91444396972656
 40
4.089999675750732
 50
99.854456005
 51
173.5265156381583
  0
ARC
  8
0
  6
CONTINUOUS
 62
     7
 10
26.7855224609375
 20
38.08555603027344
 40
4.089999675750734
 50
187.3293617063576
 51
260.145543995
  0
ARC
  8
0
  6
CONTINUOUS
 62
     7
 10
-7.33135986328125
 20
-0.3000030517578125
 40
0.8000000119209287
 50
45.0000012522391
 51
90.00000250447819
  0
ARC
  8
0
  6
CONTINUOUS
 62
     7
 10
-14.66864013671875
 20
-0.3000030517578125
 40
0.800000011920929
 50
90.00000250447812
 51
135.0000003416226
  0
ARC
  8
0
  6
CONTINUOUS
 62
     7
 10
-26
 20
29.43672180175781
 40
0.4999999999999986
 50
179.9999913485778
 51
260.1455403525345
  0
ARC
  8
0
  6
CONTINUOUS
 62
     7
 10
-22.2330322265625
 20
37.5
 40
0.5000000000000004
 50
90.00000250447806
 51
172.6706382936428
  0
ARC
  8
0
  6
CONTINUOUS
 62
     7
 10
-25.5
 20
11.58578491210938
 40
1
 50
135.0000003416226
 51
180.0000050089563
  0
ARC
  8
0
  6
CONTINUOUS
 62
     7
 10
-22.5
 20
23.58578491210938
 40
1
 50
0
 51
45.00000125223906
  0
ARC
  8
0
  6
CONTINUOUS
 62
     7
 10
-22.22479248046875
 20
25.43193054199219
 40
0.5000000000000016
 50
186.4734843618416
 51
224.9999996583772
  0
ARC
  8
0
  6
CONTINUOUS
 62
     7
 10
-22.5
 20
17.41421508789063
 40
1.000000000000001
 50
314.999998747761
 51
0
  0
ARC
  8
0
  6
CONTINUOUS
 62
     7
 10
-26
 20
33.56327819824219
 40
0.4999999999999972
 50
99.85445600500009
 51
180.0000050089561
  0
ARC
  8
0
  6
CONTINUOUS
 62
     7
 10
-26.78558349609375
 20
24.91444396972656
 40
4.089999675750733
 50
6.473479552401084
 51
80.14554900395633
  0
ARC
  8
0
  6
CONTINUOUS
 62
     7
 10
-26.78558349609375
 20
38.08555603027344
 40
4.089999675750731
 50
279.8544509960437
 51
352.6706341384597
  0
ARC
  8
0
  6
CONTINUOUS
 62
     7
 10
-46.5
 20
16
 40
2.999999999999999
 50
179.999991348578
 51
251.4049745924258
  0
ARC
  8
0
  6
CONTINUOUS
 62
     7
 10
-70
 20
51.58578491210938
 40
1
 50
0
 51
45.0000012522392
  0
ARC
  8
0
  6
CONTINUOUS
 62
     7
 10
-68
 20
50
 40
0.9999999999999971
 50
179.9999913485778
 51
270.0000006832455
  0
ARC
  8
0
  6
CONTINUOUS
 62
     7
 10
-39.66864013671875
 20
70.30000305175781
 40
0.8000000119209292
 50
224.9999996583774
 51
269.9999974955219
  0
ARC
  8
0
  6
CONTINUOUS
 62
     7
 10
-57.5
 20
18.85639953613281
 40
8
 50
0
 51
30.00000083482604
  0
ARC
  8
0
  6
CONTINUOUS
 62
     7
 10
-66.82049560546875
 20
47
 40
1.999999999999993
 50
30.00000083482608
 51
90.00000250447806
  0
ARC
  8
0
  6
CONTINUOUS
 62
     7
 10
-17.33135986328125
 20
70.30000305175781
 40
0.8000000119209297
 50
269.9999974955219
 51
314.9999987477606
  0
ARC
  8
0
  6
CONTINUOUS
 62
     7
 10
46.5
 20
16
 40
3
 50
288.5950372467198
 51
6.785183320455502E-014
  0
ARC
  8
0
  6
CONTINUOUS
 62
     7
 10
39.6685791015625
 20
70.30000305175781
 40
0.8000000119209297
 50
269.9999974955219
 51
314.9999987477606
  0
ARC
  8
0
  6
CONTINUOUS
 62
     7
 10
68
 20
50
 40
1.000000000000001
 50
269.9999974955215
 51
0
  0
ARC
  8
0
  6
CONTINUOUS
 62
     7
 10
17.33135986328125
 20
70.30000305175781
 40
0.8000000119209292
 50
224.9999996583774
 51
269.9999974955219
  0
ARC
  8
0
  6
CONTINUOUS
 62
     7
 10
70
 20
51.58578491210938
 40
0.9999999999999981
 50
135.0000003416228
 51
180.0000050089561
  0
ARC
  8
0
  6
CONTINUOUS
 62
     7
 10
57.5
 20
18.85639953613281
 40
7.999999999999996
 50
149.9999973439411
 51
180.0000050089563
  0
ARC
  8
0
  6
CONTINUOUS
 62
     7
 10
66.82049560546875
 20
47
 40
2.000000000000002
 50
90.00000250447806
 51
149.9999973439412
  0
ARC
  8
0
  6
CONTINUOUS
 62
     7
 10
25.5
 20
11.58578491210938
 40
1
 50
0
 51
45.00000125223906
  0
ARC
  8
0
  6
CONTINUOUS
 62
     7
 10
265.0999755859375
 20
57.199951171875
 40
2.999999999999977
 50
195.6428630584221
 51
270.0000726276024
  0
ARC
  8
0
  6
CONTINUOUS
 62
     7
 10
265.0999755859375
 20
60.7999267578125
 40
2.999999999999999
 50
89.99998201391097
 51
165.8646416536697
  0
CIRCLE
  8
0
  6
CONTINUOUS
 62
     7
 10
284.5
 20
63
 40
1.5
  0
CIRCLE
  8
0
  6
CONTINUOUS
 62
     7
 10
284.5
 20
62
 40
2.599999904632568
  0
CIRCLE
  8
0
  6
CONTINUOUS
 62
     7
 10
-34
 20
57
 40
2.149999856948853
  0
ARC
  8
0
  6
CONTINUOUS
 62
     7
 10
8.446578025817871
 20
56.70999145507813
 40
0.9683421850204466
 50
215.3314570768741
 51
278.297222506794
  0
ARC
  8
0
  6
CONTINUOUS
 62
     7
 10
7.456587791442871
 20
54.91999816894531
 40
1.246148109436035
 50
80.76452806729958
 51
142.1250351177264
  0
ARC
  8
0
  6
CONTINUOUS
 62
     7
 10
7.456587791442871
 20
63.08000183105469
 40
1.254199028015138
 50
217.8749648822736
 51
279.2353626496737
  0
ARC
  8
0
  6
CONTINUOUS
 62
     7
 10
8.446578025817871
 20
61.28999328613281
 40
0.9701611399650598
 50
81.70288677623263
 51
144.668542923126
  0
ARC
  8
0
  6
CONTINUOUS
 62
     7
 10
0
 20
59
 40
4.79999923706055
 50
46.95109601507203
 51
313.1834072577874
  0
CIRCLE
  8
0
  6
CONTINUOUS
 62
     7
 10
180
 20
260
 40
8
  0
CIRCLE
  8
0
  6
CONTINUOUS
 62
     7
 10
180
 20
260
 40
11.5
  0
CIRCLE
  8
0
  6
CONTINUOUS
 62
     7
 10
312.5
 20
202
 40
6.25
  0
CIRCLE
  8
0
  6
CONTINUOUS
 62
     7
 10
312.5
 20
202
 40
7
  0
ARC
  8
0
  6
CONTINUOUS
 62
     7
 10
265.1000061035156
 20
258.2000122070313
 40
3
 50
180.0000906136925
 51
193.1569474081041
  0
ARC
  8
0
  6
CONTINUOUS
 62
     7
 10
265.1000061035156
 20
261.7999877929688
 40
2.999999999999977
 50
89.99998201391097
 51
179.9999640278208
  0
ARC
  8
0
  6
CONTINUOUS
 62
     7
 10
261.2125549316406
 20
254.0117950439453
 40
0.7999999523162822
 50
311.5798327472963
 51
2.433049772698627
  0
ARC
  8
0
  6
CONTINUOUS
 62
     7
 10
268.0263061523438
 20
251.189453125
 40
0.7999999523162747
 50
132.5669776762372
 51
183.4201402735693
  0
ARC
  8
0
  6
CONTINUOUS
 62
     7
 10
271.5437927246094
 20
247.3596801757813
 40
6.000000000000011
 50
114.1278165022775
 51
132.566321978077
  0
ARC
  8
0
  6
CONTINUOUS
 62
     7
 10
256.0172424316406
 20
253.7909851074219
 40
6.00000000000001
 50
2.43365082934552
 51
20.87173987704925
  0
ARC
  8
0
  6
CONTINUOUS
 62
     7
 10
263.93359375
 20
250.9449005126953
 40
3.299999237060545
 50
337.5000181569009
 51
3.419602296415157
  0
ARC
  8
0
  6
CONTINUOUS
 62
     7
 10
263.93359375
 20
250.9449005126953
 40
3.299999237060546
 50
131.5803705110077
 51
157.4999548639651
  0
POLYLINE
  8
0
  6
CONTINUOUS
 62
     7
 66
     1
 10
0
 20
0
  0
VERTEX
  8
0
  6
CONTINUOUS
 62
     7
 10
397
 20
35.72247314453125
 42
0.01638874467021756
  0
VERTEX
  8
0
  6
CONTINUOUS
 62
     7
 10
397.5512733592947
 20
32.20507375343512
 42
0.02276117208258977
  0
VERTEX
  8
0
  6
CONTINUOUS
 62
     7
 10
398.3751113213871
 20
28.74196138559946
 42
0.02997856967810144
  0
VERTEX
  8
0
  6
CONTINUOUS
 62
     7
 10
399.557939079847
 20
25.3854230789904
 42
0.03550384309452039
  0
VERTEX
  8
0
  6
CONTINUOUS
 62
     7
 10
401.1748855923854
 20
22.21649242497809
 42
-0.132783343624174
  0
VERTEX
  8
0
  6
CONTINUOUS
 62
     7
 10
402.2319946289063
 20
18.8564453125
 42
0
  0
SEQEND
  8
0
  0
POLYLINE
  8
0
  6
CONTINUOUS
 62
     7
 66
     1
 10
0
 20
0
  0
VERTEX
  8
0
  6
CONTINUOUS
 62
     7
 10
412.7680053710938
 20
16
 42
-0.1597029457299734
  0
VERTEX
  8
0
  6
CONTINUOUS
 62
     7
 10
411.6994205624744
 20
14.15304125414472
 42
-0.1401183003383617
  0
VERTEX
  8
0
  6
CONTINUOUS
 62
     7
 10
409.6706733870915
 20
13.46377486269741
 42
-0.02475074558763064
  0
VERTEX
  8
0
  6
CONTINUOUS
 62
     7
 10
407.5
 20
13.40191650390625
 42
-0.0247248516818222
  0
VERTEX
  8
0
  6
CONTINUOUS
 62
     7
 10
405.3299843941435
 20
13.46370699150524
 42
-0.1401135611847075
  0
VERTEX
  8
0
  6
CONTINUOUS
 62
     7
 10
403.300756213587
 20
14.15290228785356
 42
-0.1597183694487068
  0
VERTEX
  8
0
  6
CONTINUOUS
 62
     7
 10
402.2319946289063
 20
16
 42
0
  0
SEQEND
  8
0
  0
POLYLINE
  8
0
  6
CONTINUOUS
 62
     7
 66
     1
 10
0
 20
0
  0
VERTEX
  8
0
  6
CONTINUOUS
 62
     7
 10
418
 20
35.72247314453125
 42
-0.01638874467031684
  0
VERTEX
  8
0
  6
CONTINUOUS
 62
     7
 10
417.4487266407053
 20
32.20507375343512
 42
-0.02276117208261765
  0
VERTEX
  8
0
  6
CONTINUOUS
 62
     7
 10
416.6248886786129
 20
28.74196138559946
 42
-0.02997856967818411
  0
VERTEX
  8
0
  6
CONTINUOUS
 62
     7
 10
415.442060920153
 20
25.3854230789904
 42
-0.03550384309446771
  0
VERTEX
  8
0
  6
CONTINUOUS
 62
     7
 10
413.8251144076147
 20
22.21649242497809
 42
0.1327833436238044
  0
VERTEX
  8
0
  6
CONTINUOUS
 62
     7
 10
412.7680053710938
 20
18.8564453125
 42
0
  0
SEQEND
  8
0
  0
POLYLINE
  8
0
  6
CONTINUOUS
 62
     7
 66
     1
 10
0
 20
0
  0
VERTEX
  8
0
  6
CONTINUOUS
 62
     7
 10
302
 20
35.72247314453125
 42
0.01638874467030263
  0
VERTEX
  8
0
  6
CONTINUOUS
 62
     7
 10
302.5512733592947
 20
32.20507375343512
 42
0.02276117208248702
  0
VERTEX
  8
0
  6
CONTINUOUS
 62
     7
 10
303.3751113213871
 20
28.74196138559946
 42
0.02997856967813233
  0
VERTEX
  8
0
  6
CONTINUOUS
 62
     7
 10
304.557939079847
 20
25.3854230789904
 42
0.03550384309452918
  0
VERTEX
  8
0
  6
CONTINUOUS
 62
     7
 10
306.1748855923854
 20
22.21649242497809
 42
-0.1327833436244534
  0
VERTEX
  8
0
  6
CONTINUOUS
 62
     7
 10
307.2319946289063
 20
18.8564453125
 42
0
  0
SEQEND
  8
0
  0
POLYLINE
  8
0
  6
CONTINUOUS
 62
     7
 66
     1
 10
0
 20
0
  0
VERTEX
  8
0
  6
CONTINUOUS
 62
     7
 10
317.7680053710938
 20
16
 42
-0.1596860149074498
  0
VERTEX
  8
0
  6
CONTINUOUS
 62
     7
 10
316.6993849827325
 20
14.15305955123977
 42
-0.1401231108135882
  0
VERTEX
  8
0
  6
CONTINUOUS
 62
     7
 10
314.6706516651441
 20
13.4637749548254
 42
-0.02475102317797588
  0
VERTEX
  8
0
  6
CONTINUOUS
 62
     7
 10
312.5
 20
13.40191650390625
 42
-0.0247246995426534
  0
VERTEX
  8
0
  6
CONTINUOUS
 62
     7
 10
310.3299897979644
 20
13.46370643414636
 42
-0.1401125379617043
  0
VERTEX
  8
0
  6
CONTINUOUS
 62
     7
 10
308.3007647507096
 20
14.15289557736852
 42
-0.1597199348784887
  0
VERTEX
  8
0
  6
CONTINUOUS
 62
     7
 10
307.2319946289063
 20
16
 42
0
  0
SEQEND
  8
0
  0
POLYLINE
  8
0
  6
CONTINUOUS
 62
     7
 66
     1
 10
0
 20
0
  0
VERTEX
  8
0
  6
CONTINUOUS
 62
     7
 10
323
 20
35.72247314453125
 42
-0.01638874467030707
  0
VERTEX
  8
0
  6
CONTINUOUS
 62
     7
 10
322.4487266407053
 20
32.20507375343512
 42
-0.02276117208256366
  0
VERTEX
  8
0
  6
CONTINUOUS
 62
     7
 10
321.6248886786129
 20
28.74196138559946
 42
-0.02997856967822167
  0
VERTEX
  8
0
  6
CONTINUOUS
 62
     7
 10
320.442060920153
 20
25.3854230789904
 42
-0.03550384309454018
  0
VERTEX
  8
0
  6
CONTINUOUS
 62
     7
 10
318.8251144076147
 20
22.21649242497809
 42
0.1327833436244431
  0
VERTEX
  8
0
  6
CONTINUOUS
 62
     7
 10
317.7680053710938
 20
18.8564453125
 42
0
  0
SEQEND
  8
0
  0
POLYLINE
  8
0
  6
CONTINUOUS
 62
     7
 66
     1
 10
0
 20
0
  0
VERTEX
  8
0
  6
CONTINUOUS
 62
     7
 10
261.9183388883879
 20
61.26086620830619
 42
-0.0632732510942166
  0
VERTEX
  8
0
  6
CONTINUOUS
 62
     7
 10
262.510923947078
 20
61.77974365077954
 42
-0.07413369059401116
  0
VERTEX
  8
0
  6
CONTINUOUS
 62
     7
 10
263.2222395867067
 20
62.11854036980891
 42
-0.06380929331058988
  0
VERTEX
  8
0
  6
CONTINUOUS
 62
     7
 10
263.9998779296875
 20
62.25
 42
0
  0
SEQEND
  8
0
  0
POLYLINE
  8
0
  6
CONTINUOUS
 62
     7
 66
     1
 10
0
 20
0
  0
VERTEX
  8
0
  6
CONTINUOUS
 62
     7
 10
261.7759925929707
 20
56.81888690961709
 42
0.06283199351885307
  0
VERTEX
  8
0
  6
CONTINUOUS
 62
     7
 10
262.3402913669369
 20
56.29271480481332
 42
0.06649698735256088
  0
VERTEX
  8
0
  6
CONTINUOUS
 62
     7
 10
263.0202916602012
 20
55.92821010877083
 42
0.06915552561427862
  0
VERTEX
  8
0
  6
CONTINUOUS
 62
     7
 10
263.7726462401978
 20
55.75935138553344
 42
0.06975293173896387
  0
VERTEX
  8
0
  6
CONTINUOUS
 62
     7
 10
264.5414010777756
 20
55.80334937655009
 42
0.0681634719849159
  0
VERTEX
  8
0
  6
CONTINUOUS
 62
     7
 10
265.2692444815903
 20
56.05517100639408
 42
0.06499585796554185
  0
VERTEX
  8
0
  6
CONTINUOUS
 62
     7
 10
265.9058101629058
 20
56.49000238078211
 42
0.06129087178107128
  0
VERTEX
  8
0
  6
CONTINUOUS
 62
     7
 10
266.4138676932856
 20
57.07010328084568
 42
0.05807959293489746
  0
VERTEX
  8
0
  6
CONTINUOUS
 62
     7
 10
266.7708649108341
 20
57.75409712812107
 42
0.05590537612751304
  0
VERTEX
  8
0
  6
CONTINUOUS
 62
     7
 10
266.9645237464159
 20
58.50124098921481
 42
0.05496388169721572
  0
VERTEX
  8
0
  6
CONTINUOUS
 62
     7
 10
266.9895386407723
 20
59.27196343145295
 42
0.05547381218210359
  0
VERTEX
  8
0
  6
CONTINUOUS
 62
     7
 10
266.8454595761073
 20
60.02985265220379
 42
0.05728032060108011
  0
VERTEX
  8
0
  6
CONTINUOUS
 62
     7
 10
266.536050122081
 20
60.73629435916577
 42
0.06026819124128319
  0
VERTEX
  8
0
  6
CONTINUOUS
 62
     7
 10
266.0708115443496
 20
61.35160364037518
 42
0.06395235975302573
  0
VERTEX
  8
0
  6
CONTINUOUS
 62
     7
 10
265.4686055669317
 20
61.83398267609319
 42
0.0674449285200846
  0
VERTEX
  8
0
  6
CONTINUOUS
 62
     7
 10
264.7619486152844
 20
62.14344526645493
 42
0.06944162341219815
  0
VERTEX
  8
0
  6
CONTINUOUS
 62
     7
 10
264.0000610351563
 20
62.25
 42
0
  0
SEQEND
  8
0
  0
POLYLINE
  8
0
  6
CONTINUOUS
 62
     7
 66
     1
 10
0
 20
0
  0
VERTEX
  8
0
  6
CONTINUOUS
 62
     7
 10
261.9000244140625
 20
56.760009765625
 42
0.06376666919017357
  0
VERTEX
  8
0
  6
CONTINUOUS
 62
     7
 10
262.495560475653
 20
56.2306304498094
 42
0.07497192465771733
  0
VERTEX
  8
0
  6
CONTINUOUS
 62
     7
 10
263.2134786020876
 20
55.88416726528766
 42
0.06461831454517694
  0
VERTEX
  8
0
  6
CONTINUOUS
 62
     7
 10
264.0000610351563
 20
55.75
 42
0
  0
SEQEND
  8
0
  0
POLYLINE
  8
0
  6
CONTINUOUS
 62
     7
 66
     1
 10
0
 20
0
 70
     1
  0
VERTEX
  8
0
  6
CONTINUOUS
 62
     7
 10
262.8999633789063
 20
61.5
 42
0.1103772078301893
  0
VERTEX
  8
0
  6
CONTINUOUS
 62
     7
 10
261.9878033770798
 20
61.29498465696481
 42
0.1025067993321707
  0
VERTEX
  8
0
  6
CONTINUOUS
 62
     7
 10
261.2404662788
 20
60.73097678525971
 42
0.09329107422559511
  0
VERTEX
  8
0
  6
CONTINUOUS
 62
     7
 10
260.7628613345689
 20
59.92408181227936
 42
0.08781964652703607
  0
VERTEX
  8
0
  6
CONTINUOUS
 62
     7
 10
260.5999755859375
 20
59
 42
0.08777399851006687
  0
VERTEX
  8
0
  6
CONTINUOUS
 62
     7
 10
260.7627070936082
 20
58.07638047691204
 42
0.09325939898661485
  0
VERTEX
  8
0
  6
CONTINUOUS
 62
     7
 10
261.240009848416
 20
57.26957483921787
 42
0.1026283722018732
  0
VERTEX
  8
0
  6
CONTINUOUS
 62
     7
 10
261.9882169689479
 20
56.7048393604063
 42
0.1103337626483314
  0
VERTEX
  8
0
  6
CONTINUOUS
 62
     7
 10
262.9000244140625
 20
56.49999999999999
 42
0.1103771867189478
  0
VERTEX
  8
0
  6
CONTINUOUS
 62
     7
 10
263.8121844760534
 20
56.70501509376318
 42
0.1025068436112666
  0
VERTEX
  8
0
  6
CONTINUOUS
 62
     7
 10
264.5595216937564
 20
57.26902279823098
 42
0.09329113401106658
  0
VERTEX
  8
0
  6
CONTINUOUS
 62
     7
 10
265.0371266341354
 20
58.07591776493437
 42
0.08781971463526578
  0
VERTEX
  8
0
  6
CONTINUOUS
 62
     7
 10
265.2000122070313
 20
59
 42
0.0877739941887563
  0
VERTEX
  8
0
  6
CONTINUOUS
 62
     7
 10
265.0372803290923
 20
59.923619457648
 42
0.09325932743420227
  0
VERTEX
  8
0
  6
CONTINUOUS
 62
     7
 10
264.5599773758198
 20
60.73042498708426
 42
0.1026283027818698
  0
VERTEX
  8
0
  6
CONTINUOUS
 62
     7
 10
263.8117702774063
 20
61.29516052398392
 42
0.1103337535368354
  0
SEQEND
  8
0
  0
POLYLINE
  8
0
  6
CONTINUOUS
 62
     7
 66
     1
 10
0
 20
0
 70
     1
  0
VERTEX
  8
0
  6
CONTINUOUS
 62
     7
 10
11.35658168792725
 20
61.5
 42
0.2551592727851309
  0
VERTEX
  8
0
  6
CONTINUOUS
 62
     7
 10
10.82677183743896
 20
61.0751119002738
 42
0.06319138472275117
  0
VERTEX
  8
0
  6
CONTINUOUS
 62
     7
 10
10.57267674894328
 20
60.41222525446332
 42
0.03518638918170555
  0
VERTEX
  8
0
  6
CONTINUOUS
 62
     7
 10
10.44594705325642
 20
59.71217549301895
 42
0.02798531261537898
  0
VERTEX
  8
0
  6
CONTINUOUS
 62
     7
 10
10.40658473968506
 20
59
 42
0.0278994279098897
  0
VERTEX
  8
0
  6
CONTINUOUS
 62
     7
 10
10.44571839668897
 20
58.28985243969201
 42
0.03516017990492364
  0
VERTEX
  8
0
  6
CONTINUOUS
 62
     7
 10
10.5722122853401
 20
57.58956192317744
 42
0.06315573245367918
  0
VERTEX
  8
0
  6
CONTINUOUS
 62
     7
 10
10.82624427847951
 20
56.9258216818345
 42
0.2552844263609052
  0
VERTEX
  8
0
  6
CONTINUOUS
 62
     7
 10
11.35658168792724
 20
56.49999999999999
 42
0.2551594442423775
  0
VERTEX
  8
0
  6
CONTINUOUS
 62
     7
 10
11.88639179703004
 20
56.92488773223268
 42
0.06319147493971376
  0
VERTEX
  8
0
  6
CONTINUOUS
 62
     7
 10
12.14048693918092
 20
57.58777435103284
 42
0.03518642902210568
  0
VERTEX
  8
0
  6
CONTINUOUS
 62
     7
 10
12.26721652355681
 20
58.28782413107666
 42
0.02798535021575787
  0
VERTEX
  8
0
  6
CONTINUOUS
 62
     7
 10
12.30657863616943
 20
59
 42
0.02789949247684537
  0
VERTEX
  8
0
  6
CONTINUOUS
 62
     7
 10
12.26744543152288
 20
59.7101475836988
 42
0.03516026408849002
  0
VERTEX
  8
0
  6
CONTINUOUS
 62
     7
 10
12.14095178490499
 20
60.41043814062532
 42
0.06315586914469175
  0
VERTEX
  8
0
  6
CONTINUOUS
 62
     7
 10
11.88691973960936
 20
61.07417835086429
 42
0.2552843449375169
  0
SEQEND
  8
0
  0
POLYLINE
  8
0
  6
CONTINUOUS
 62
     7
 66
     1
 10
0
 20
0
  0
VERTEX
  8
0
  6
CONTINUOUS
 62
     7
 10
7.656569480895996
 20
61.8499755859375
 42
0.1885746071955481
  0
VERTEX
  8
0
  6
CONTINUOUS
 62
     7
 10
7.296839012636422
 20
61.69028696840449
 42
0.07574462457813792
  0
VERTEX
  8
0
  6
CONTINUOUS
 62
     7
 10
7.052604531215247
 20
61.37245052134265
 42
0.03933592155780555
  0
VERTEX
  8
0
  6
CONTINUOUS
 62
     7
 10
6.882742896526244
 20
61.00711696393832
 42
0.02577124213905156
  0
VERTEX
  8
0
  6
CONTINUOUS
 62
     7
 10
6.760588476065744
 20
60.62296632843281
 42
0.01950520664573828
  0
VERTEX
  8
0
  6
CONTINUOUS
 62
     7
 10
6.67309782116787
 20
60.22875457229748
 42
0.01621460194377841
  0
VERTEX
  8
0
  6
CONTINUOUS
 62
     7
 10
6.613737784255141
 20
59.82916361487319
 42
0.01446653041901844
  0
VERTEX
  8
0
  6
CONTINUOUS
 62
     7
 10
6.578870267237785
 20
59.42663895247169
 42
0.01369125893328132
  0
VERTEX
  8
0
  6
CONTINUOUS
 62
     7
 10
6.566622326743099
 20
59.02249489219947
 42
0.01360482812319374
  0
VERTEX
  8
0
  6
CONTINUOUS
 62
     7
 10
6.576339272367938
 20
58.6196497601473
 42
0.01431525146574423
  0
VERTEX
  8
0
  6
CONTINUOUS
 62
     7
 10
6.608489721768307
 20
58.21739846916088
 42
0.0159818456178489
  0
VERTEX
  8
0
  6
CONTINUOUS
 62
     7
 10
6.665001475163574
 20
57.81658062645221
 42
0.01902674421849339
  0
VERTEX
  8
0
  6
CONTINUOUS
 62
     7
 10
6.749063948991041
 20
57.42142747375188
 42
0.02487976260011175
  0
VERTEX
  8
0
  6
CONTINUOUS
 62
     7
 10
6.867080435955423
 20
57.03503172165122
 42
0.03729613158351526
  0
VERTEX
  8
0
  6
CONTINUOUS
 62
     7
 10
7.031156179356922
 20
56.66584869906367
 42
0.06998281406674614
  0
VERTEX
  8
0
  6
CONTINUOUS
 62
     7
 10
7.266742334307275
 20
56.33851868739099
 42
0.1738206737496061
  0
VERTEX
  8
0
  6
CONTINUOUS
 62
     7
 10
7.616510111377387
 20
56.15192167525354
 42
0
  0
SEQEND
  8
0
  0
TEXT
  8
0
  6
CONTINUOUS
 62
     7
 10
-11.28550004959106
 20
-31.79999995231628
 40
3.599999904632568
 41
1.008382419577613
  1
SHS55C
  0
ENDSEC
  0
EOF
