  0
SECTION
  2
HEADER
  0
ENDSEC
  0
SECTION
  2
TABLES
  0
TABLE
  2
LTYPE
 70
    22
  0
LTYPE
  2
CONTINUOUS
 70
    64
  3
Solid line
 72
    65
 73
     0
 40
0.000000
  0
LTYPE
  2
DASHED
 70
    64
  3
__ __ __ __ __ __ __ __ __ __ __ __ __ __ __
 72
    65
 73
     2
 40
3.500000
 49
2.000000
 49
-1.500000
  0
LTYPE
  2
CENTER
 70
    64
  3
____ _ ____ _ ____ _ ____ _ ____ _ ____ _ ____
 72
    65
 73
     4
 40
17.500000
 49
13.000000
 49
-1.500000
 49
1.500000
 49
-1.500000
  0
LTYPE
  2
PHANTOM
 70
    64
  3
_____ _ _ _____ _ _ _____ _ _ _____ _ _ ____  
 72
    65
 73
     6
 40
15.500000
 49
8.000000
 49
-1.500000
 49
1.500000
 49
-1.500000
 49
1.500000
 49
-1.500000
  0
LTYPE
  2
DOT
 70
    64
  3
. . . . . . . . . . . . . . . . . . . . . . . .
 72
    65
 73
     2
 40
0.25
 49
0.0
 49
-0.25
  0
ENDTAB
  0
TABLE
  2
LAYER
 70
     1
  0
LAYER
  2
0
 70
     0
 62
     7
  6
CONTINUOUS
  0
ENDTAB
  0
TABLE
  2
STYLE
 70
     1
  0
STYLE
  2
STANDARD
 70
     0
 40
0.000000
 41
1.000000
 50
0.000000
 71
     0
 42
0.200000
  3
txt
  0
ENDTAB
  0
TABLE
  2
VIEW
 70
     0
  0
ENDTAB
  0
ENDSEC
  0
SECTION
  2
BLOCKS
  0
ENDSEC
  0
SECTION
  2
ENTITIES
  0
LINE
  8
0
  6
CONTINUOUS
 62
     7
 10
70
 20
12.5
 11
151.54988
 21
12.5
  0
LINE
  8
0
  6
CONTINUOUS
 62
     7
 10
70
 20
0
 11
290
 21
0
  0
LINE
  8
0
  6
CONTINUOUS
 62
     7
 10
208.45012
 20
12.5
 11
290
 21
12.5
  0
LINE
  8
0
  6
CONTINUOUS
 62
     7
 10
70
 20
12.5
 11
70
 21
-2.8421709E-014
  0
LINE
  8
0
  6
DASHED
 62
     7
 10
86.25
 20
12.5
 11
86.25
 21
7.1999917
  0
LINE
  8
0
  6
DASHED
 62
     7
 10
93.75
 20
12.5
 11
93.75
 21
7.1999917
  0
LINE
  8
0
  6
DASHED
 62
     7
 10
87.75
 20
7.1999917
 11
87.75
 21
0
  0
LINE
  8
0
  6
DASHED
 62
     7
 10
92.25
 20
7.1999917
 11
92.25
 21
0
  0
LINE
  8
0
  6
DASHED
 62
     7
 10
86.25
 20
7.1999917
 11
93.75
 21
7.1999917
  0
LINE
  8
0
  6
CONTINUOUS
 62
     7
 10
160.05
 20
24.000092
 11
199.95
 21
24.000092
  0
LINE
  8
0
  6
CONTINUOUS
 62
     7
 10
150.64989
 20
22.500132
 11
151.14989
 21
22.500132
  0
LINE
  8
0
  6
CONTINUOUS
 62
     7
 10
150.64989
 20
16.500132
 11
151.14989
 21
16.500132
  0
LINE
  8
0
  6
CONTINUOUS
 62
     7
 10
151.14989
 20
23.250132
 11
151.54988
 21
23.250132
  0
LINE
  8
0
  6
CONTINUOUS
 62
     7
 10
151.14989
 20
15.750142
 11
151.54988
 21
15.750142
  0
LINE
  8
0
  6
CONTINUOUS
 62
     7
 10
151.14989
 20
23.250132
 11
151.14989
 21
15.750142
  0
LINE
  8
0
  6
CONTINUOUS
 62
     7
 10
200.84999
 20
13.850128
 11
199.95
 21
13.850128
  0
LINE
  8
0
  6
CONTINUOUS
 62
     7
 10
206.25011
 20
23.600138
 11
199.95
 21
23.600138
  0
LINE
  8
0
  6
CONTINUOUS
 62
     7
 10
206.75011
 20
5.0001221
 11
206.75011
 21
23.600138
  0
LINE
  8
0
  6
CONTINUOUS
 62
     7
 10
206.25009
 20
23.600132
 11
206.75009
 21
23.100142
  0
LINE
  8
0
  6
CONTINUOUS
 62
     7
 10
206.75009
 20
5.000124
 11
206.25009
 21
4.5001235
  0
LINE
  8
0
  6
CENTER
 62
     7
 10
206.15013
 20
21.30015
 11
202.75011
 21
21.30015
  0
LINE
  8
0
  6
CENTER
 62
     7
 10
204.45012
 20
19.600159
 11
204.45012
 21
23.000153
  0
LINE
  8
0
  6
CONTINUOUS
 62
     7
 10
208.45012
 20
23.600138
 11
206.75011
 21
23.600138
  0
LINE
  8
0
  6
CONTINUOUS
 62
     7
 10
208.45012
 20
5.0001426
 11
208.45012
 21
23.600138
  0
LINE
  8
0
  6
CONTINUOUS
 62
     7
 10
206.75011
 20
5.0001426
 11
208.45012
 21
5.0001426
  0
LINE
  8
0
  6
CONTINUOUS
 62
     7
 10
199.95
 20
13.850118
 11
199.95
 21
24.000092
  0
LINE
  8
0
  6
CONTINUOUS
 62
     7
 10
200.84999
 20
4.500071
 11
200.84999
 21
13.850128
  0
LINE
  8
0
  6
CENTER
 62
     7
 10
193
 20
25.000092
 11
193
 21
3.5000713
  0
LINE
  8
0
  6
CONTINUOUS
 62
     7
 10
194.392
 20
13.450063
 11
194.392
 21
7.0001321
  0
LINE
  8
0
  6
CONTINUOUS
 62
     7
 10
191.608
 20
13.450063
 11
191.608
 21
7.0001321
  0
LINE
  8
0
  6
CONTINUOUS
 62
     7
 10
153.74995
 20
4.500071
 11
206.25011
 21
4.500071
  0
LINE
  8
0
  6
CONTINUOUS
 62
     7
 10
160.05
 20
17.000101
 11
199.95
 21
17.000101
  0
LINE
  8
0
  6
CONTINUOUS
 62
     7
 10
168.39201
 20
13.450063
 11
168.39201
 21
7.0001321
  0
LINE
  8
0
  6
CONTINUOUS
 62
     7
 10
165.60802
 20
13.450063
 11
165.60802
 21
7.0001321
  0
LINE
  8
0
  6
DASHED
 62
     7
 10
169.25
 20
24.000092
 11
169.25
 21
17.000101
  0
LINE
  8
0
  6
DASHED
 62
     7
 10
164.75
 20
24.000092
 11
164.75
 21
17.000101
  0
LINE
  8
0
  6
CENTER
 62
     7
 10
167
 20
25.000092
 11
167
 21
3.5000713
  0
LINE
  8
0
  6
CONTINUOUS
 62
     7
 10
159.15001
 20
4.500071
 11
159.15001
 21
13.850128
  0
LINE
  8
0
  6
CONTINUOUS
 62
     7
 10
160.05
 20
13.850118
 11
160.05
 21
24.000092
  0
LINE
  8
0
  6
CONTINUOUS
 62
     7
 10
153.24989
 20
5.0001426
 11
151.54988
 21
5.0001426
  0
LINE
  8
0
  6
CONTINUOUS
 62
     7
 10
151.54988
 20
5.0001426
 11
151.54988
 21
23.600138
  0
LINE
  8
0
  6
CONTINUOUS
 62
     7
 10
-14.24998
 20
23.999956
 11
-24.999994
 21
23.999956
  0
LINE
  8
0
  6
CONTINUOUS
 62
     7
 10
1.4995757
 20
0.40002441
 11
-1.5002178
 21
0.40002441
  0
LINE
  8
0
  6
CONTINUOUS
 62
     7
 10
1.8996001
 20
0
 11
1.4995757
 21
0.40002441
  0
LINE
  8
0
  6
CONTINUOUS
 62
     7
 10
-1.5002178
 20
0.40002441
 11
-1.9003253
 21
-8.3029292E-005
  0
LINE
  8
0
  6
CONTINUOUS
 62
     7
 10
17.000021
 20
6.9999719
 11
17.000021
 21
14.45002
  0
LINE
  8
0
  6
CONTINUOUS
 62
     7
 10
16.400045
 20
15.049995
 11
16.400045
 21
23.099977
  0
LINE
  8
0
  6
CONTINUOUS
 62
     7
 10
-15.900092
 20
23.599977
 11
15.900044
 21
23.599977
  0
LINE
  8
0
  6
CONTINUOUS
 62
     7
 10
7.5
 20
10.97924
 11
7.5
 21
12.049993
  0
LINE
  8
0
  6
CONTINUOUS
 62
     7
 10
7.0499878
 20
12.500003
 11
6.6660972
 21
12.500003
  0
LINE
  8
0
  6
CONTINUOUS
 62
     7
 10
16.400066
 20
23.100002
 11
15.900077
 21
23.599993
  0
LINE
  8
0
  6
CONTINUOUS
 62
     7
 10
8.0026855
 20
14.799965
 11
-8.0027027
 21
14.799965
  0
LINE
  8
0
  6
CONTINUOUS
 62
     7
 10
9.7999954
 20
13.002671
 11
8.0026941
 21
14.799973
  0
LINE
  8
0
  6
CONTINUOUS
 62
     7
 10
9.7999878
 20
13.002658
 11
9.7999878
 21
10.35601
  0
LINE
  8
0
  6
CONTINUOUS
 62
     7
 10
9.799983
 20
10.355995
 11
8.2018461
 21
7.5879407
  0
LINE
  8
0
  6
CONTINUOUS
 62
     7
 10
11.684361
 20
4.9999595
 11
8.3848591
 21
6.9049282
  0
LINE
  8
0
  6
CONTINUOUS
 62
     7
 10
15.00002
 20
4.9999719
 11
7.0959926
 21
4.9999719
  0
LINE
  8
0
  6
CONTINUOUS
 62
     7
 10
4.8438926
 20
12.500003
 11
-4.8439326
 21
12.500003
  0
LINE
  8
0
  6
CONTINUOUS
 62
     7
 10
7.5
 20
12.049993
 11
7.0499873
 21
12.500006
  0
LINE
  8
0
  6
CONTINUOUS
 62
     7
 10
14.50002
 20
4.4999719
 11
8.5540771
 21
4.4999719
  0
LINE
  8
0
  6
CONTINUOUS
 62
     7
 10
8.5538282
 20
4.499999
 11
7.6878729
 21
4.999958
  0
LINE
  8
0
  6
CENTER
 62
     7
 10
10.25
 20
21.399925
 11
10.25
 21
17.199928
  0
LINE
  8
0
  6
CENTER
 62
     7
 10
12.349996
 20
19.299929
 11
8.1499834
 21
19.299929
  0
LINE
  8
0
  6
CONTINUOUS
 62
     7
 10
17.000021
 20
14.45003
 11
16.400047
 21
15.050004
  0
LINE
  8
0
  6
CENTER
 62
     7
 10
155.54988
 20
19.600159
 11
155.54988
 21
23.000153
  0
LINE
  8
0
  6
CENTER
 62
     7
 10
154.64989
 20
22.000143
 11
156.44987
 21
22.000143
  0
LINE
  8
0
  6
CENTER
 62
     7
 10
153.84987
 20
21.30015
 11
157.24989
 21
21.30015
  0
LINE
  8
0
  6
CONTINUOUS
 62
     7
 10
151.54988
 20
23.600138
 11
153.24989
 21
23.600138
  0
LINE
  8
0
  6
CENTER
 62
     7
 10
146.74525
 20
19.500132
 11
153.74989
 21
19.500132
  0
LINE
  8
0
  6
CENTER
 62
     7
 10
0
 20
-1
 11
0
 21
24.999956
  0
LINE
  8
0
  6
CONTINUOUS
 62
     7
 10
-16.910067
 20
15.397148
 11
-25.173693
 21
16.854248
  0
LINE
  8
0
  6
CONTINUOUS
 62
     7
 10
-13.792888
 20
23.749947
 11
-8.2071533
 21
23.749947
  0
LINE
  8
0
  6
CONTINUOUS
 62
     7
 10
-14.249972
 20
23.99995
 11
-14.14642
 21
23.896399
  0
LINE
  8
0
  6
CONTINUOUS
 62
     7
 10
-7.8535843
 20
23.896399
 11
-7.7500324
 21
23.99995
  0
LINE
  8
0
  6
CONTINUOUS
 62
     7
 10
-24.999994
 20
23.999956
 11
-25.702171
 21
23.297779
  0
LINE
  8
0
  6
DASHED
 62
     7
 10
-16.75004
 20
16.999956
 11
-25.543985
 21
16.999956
  0
LINE
  8
0
  6
CENTER
 62
     7
 10
-20.50004
 20
24.999956
 11
-20.50004
 21
15.999957
  0
LINE
  8
0
  6
CONTINUOUS
 62
     7
 10
14.249959
 20
23.999956
 11
25.000002
 21
23.999956
  0
LINE
  8
0
  6
CONTINUOUS
 62
     7
 10
7.7500815
 20
23.999956
 11
-7.7500405
 21
23.999956
  0
LINE
  8
0
  6
DASHED
 62
     7
 10
-16.75004
 20
15.338356
 11
-16.75004
 21
16.999956
  0
LINE
  8
0
  6
DASHED
 62
     7
 10
-18.25004
 20
23.999956
 11
-18.25004
 21
16.999956
  0
LINE
  8
0
  6
DASHED
 62
     7
 10
-22.75004
 20
23.999956
 11
-22.75004
 21
16.999956
  0
LINE
  8
0
  6
CONTINUOUS
 62
     7
 10
13.792867
 20
23.749947
 11
8.2071533
 21
23.749947
  0
LINE
  8
0
  6
CONTINUOUS
 62
     7
 10
14.249954
 20
23.999958
 11
14.146418
 21
23.89642
  0
LINE
  8
0
  6
CENTER
 62
     7
 10
20.500021
 20
24.999956
 11
20.500021
 21
15.999957
  0
LINE
  8
0
  6
CONTINUOUS
 62
     7
 10
16.913122
 20
15.397706
 11
25.27367
 21
16.871897
  0
LINE
  8
0
  6
CONTINUOUS
 62
     7
 10
25.000002
 20
23.999956
 11
25.807127
 21
23.192827
  0
LINE
  8
0
  6
CONTINUOUS
 62
     7
 10
7.7500744
 20
23.999958
 11
7.8536115
 21
23.89642
  0
LINE
  8
0
  6
CONTINUOUS
 62
     7
 10
153.24989
 20
5.0001426
 11
153.24989
 21
23.600138
  0
LINE
  8
0
  6
CONTINUOUS
 62
     7
 10
159.15001
 20
13.850128
 11
160.05
 21
13.850128
  0
LINE
  8
0
  6
CONTINUOUS
 62
     7
 10
-1.9002422
 20
0
 11
-6.6503115
 21
0
  0
LINE
  8
0
  6
DASHED
 62
     7
 10
3.75
 20
7.2000017
 11
3.75
 21
12.500003
  0
LINE
  8
0
  6
DASHED
 62
     7
 10
-3.75
 20
7.2000017
 11
-3.75
 21
12.500003
  0
LINE
  8
0
  6
DASHED
 62
     7
 10
3.75
 20
7.2000017
 11
-3.75
 21
7.2000017
  0
LINE
  8
0
  6
DASHED
 62
     7
 10
2.25
 20
0
 11
2.25
 21
7.2000017
  0
LINE
  8
0
  6
DASHED
 62
     7
 10
-2.25
 20
0
 11
-2.25
 21
7.2000017
  0
LINE
  8
0
  6
CONTINUOUS
 62
     7
 10
-7.5
 20
12.05006
 11
-7.0500574
 21
12.500003
  0
LINE
  8
0
  6
CONTINUOUS
 62
     7
 10
-6.6573968
 20
9.5197039
 11
-5.1600022
 21
6.9261403
  0
LINE
  8
0
  6
CONTINUOUS
 62
     7
 10
-7.5
 20
10.979136
 11
-7.404129
 21
10.813082
  0
LINE
  8
0
  6
CONTINUOUS
 62
     7
 10
-7.5
 20
4.7670493
 11
-5.4027257
 21
5.9779115
  0
LINE
  8
0
  6
CONTINUOUS
 62
     7
 10
-7.5
 20
10.979136
 11
-7.5
 21
12.05006
  0
LINE
  8
0
  6
CONTINUOUS
 62
     7
 10
-7.0500574
 20
12.500003
 11
-6.6663213
 21
12.500003
  0
LINE
  8
0
  6
CONTINUOUS
 62
     7
 10
6.6570668
 20
9.5192375
 11
5.159874
 21
6.926024
  0
LINE
  8
0
  6
CONTINUOUS
 62
     7
 10
7.5
 20
10.97924
 11
7.4041905
 21
10.813293
  0
LINE
  8
0
  6
CONTINUOUS
 62
     7
 10
7.5
 20
4.7667179
 11
5.4160743
 21
5.969873
  0
LINE
  8
0
  6
CONTINUOUS
 62
     7
 10
-7.5
 20
0.84968716
 11
-6.6503115
 21
-1.5824747E-007
  0
LINE
  8
0
  6
CONTINUOUS
 62
     7
 10
7.5
 20
0.8501842
 11
6.6498146
 21
-1.5793327E-007
  0
LINE
  8
0
  6
CONTINUOUS
 62
     7
 10
7.5
 20
0.85018432
 11
7.5
 21
4.7668481
  0
LINE
  8
0
  6
CONTINUOUS
 62
     7
 10
-7.5
 20
0.84968734
 11
-7.5
 21
4.7668481
  0
LINE
  8
0
  6
CONTINUOUS
 62
     7
 10
1.8996001
 20
0
 11
6.6498146
 21
0
  0
LINE
  8
0
  6
CONTINUOUS
 62
     7
 10
26
 20
17.420738
 11
26
 21
22.9217
  0
LINE
  8
0
  6
CONTINUOUS
 62
     7
 10
-26
 20
17.830122
 11
-26
 21
22.57678
  0
LINE
  8
0
  6
CONTINUOUS
 62
     7
 10
153.74989
 20
23.600138
 11
160.05
 21
23.600138
  0
LINE
  8
0
  6
CONTINUOUS
 62
     7
 10
153.74992
 20
23.600121
 11
153.24992
 21
23.100121
  0
LINE
  8
0
  6
CONTINUOUS
 62
     7
 10
153.24989
 20
5.0001297
 11
153.74995
 21
4.5000696
  0
LINE
  8
0
  6
CONTINUOUS
 62
     7
 10
-17.000021
 20
6.9999719
 11
-17.000021
 21
14.45003
  0
LINE
  8
0
  6
CONTINUOUS
 62
     7
 10
-16.400045
 20
15.050006
 11
-16.400045
 21
23.099977
  0
LINE
  8
0
  6
CONTINUOUS
 62
     7
 10
-16.400066
 20
23.100002
 11
-15.900077
 21
23.599993
  0
LINE
  8
0
  6
CONTINUOUS
 62
     7
 10
-9.7999954
 20
13.002671
 11
-8.0026941
 21
14.799973
  0
LINE
  8
0
  6
CONTINUOUS
 62
     7
 10
-9.7999878
 20
13.002658
 11
-9.7999878
 21
10.35601
  0
LINE
  8
0
  6
CONTINUOUS
 62
     7
 10
-9.799983
 20
10.355995
 11
-8.2018461
 21
7.5879407
  0
LINE
  8
0
  6
CONTINUOUS
 62
     7
 10
-11.68434
 20
4.9999719
 11
-8.3848591
 21
6.9049282
  0
LINE
  8
0
  6
CONTINUOUS
 62
     7
 10
-15.00002
 20
4.9999719
 11
-7.0965667
 21
4.9999719
  0
LINE
  8
0
  6
CONTINUOUS
 62
     7
 10
-14.50002
 20
4.4999719
 11
-8.553875
 21
4.4999719
  0
LINE
  8
0
  6
CONTINUOUS
 62
     7
 10
-8.553875
 20
4.4999719
 11
-7.6878495
 21
4.9999719
  0
LINE
  8
0
  6
CENTER
 62
     7
 10
-10.25
 20
21.399925
 11
-10.25
 21
17.199928
  0
LINE
  8
0
  6
CENTER
 62
     7
 10
-12.349996
 20
19.299929
 11
-8.1499834
 21
19.299929
  0
LINE
  8
0
  6
CONTINUOUS
 62
     7
 10
-17.000021
 20
14.45003
 11
-16.400045
 21
15.050006
  0
LINE
  8
0
  6
CENTER
 62
     7
 10
-5
 20
19.499969
 11
5
 21
19.499969
  0
LINE
  8
0
  6
CENTER
 62
     7
 10
90
 20
13.5
 11
90
 21
-1
  0
LINE
  8
0
  6
CENTER
 62
     7
 10
150
 20
13.5
 11
150
 21
-1
  0
LINE
  8
0
  6
CENTER
 62
     7
 10
210
 20
13.5
 11
210
 21
-1
  0
LINE
  8
0
  6
CENTER
 62
     7
 10
270
 20
13.5
 11
270
 21
-1
  0
LINE
  8
0
  6
CONTINUOUS
 62
     7
 10
290
 20
12.5
 11
290
 21
-2.8421709E-014
  0
LINE
  8
0
  6
CENTER
 62
     7
 10
69
 20
110.00009
 11
291
 21
110.00009
  0
LINE
  8
0
  6
CONTINUOUS
 62
     7
 10
160.05
 20
84.000092
 11
199.95
 21
84.000092
  0
LINE
  8
0
  6
CONTINUOUS
 62
     7
 10
160.05
 20
136.00009
 11
199.95
 21
136.00009
  0
LINE
  8
0
  6
CONTINUOUS
 62
     7
 10
151.54988
 20
127.00011
 11
160.05
 21
127.00011
  0
LINE
  8
0
  6
CONTINUOUS
 62
     7
 10
151.54988
 20
93.000069
 11
160.05
 21
93.000069
  0
LINE
  8
0
  6
CONTINUOUS
 62
     7
 10
199.95
 20
136.00009
 11
199.95
 21
84.000092
  0
LINE
  8
0
  6
CONTINUOUS
 62
     7
 10
160.05
 20
136.00009
 11
160.05
 21
84.000092
  0
LINE
  8
0
  6
CONTINUOUS
 62
     7
 10
153.24989
 20
127.00011
 11
153.24989
 21
93.000069
  0
LINE
  8
0
  6
CONTINUOUS
 62
     7
 10
151.54988
 20
127.00011
 11
151.54988
 21
93.000069
  0
LINE
  8
0
  6
CONTINUOUS
 62
     7
 10
206.75011
 20
127.00011
 11
206.75011
 21
93.000069
  0
LINE
  8
0
  6
CONTINUOUS
 62
     7
 10
208.45012
 20
127.00011
 11
199.95
 21
127.00011
  0
LINE
  8
0
  6
CONTINUOUS
 62
     7
 10
208.45012
 20
127.00011
 11
208.45012
 21
93.000069
  0
LINE
  8
0
  6
CONTINUOUS
 62
     7
 10
208.45012
 20
93.000069
 11
199.95
 21
93.000069
  0
LINE
  8
0
  6
CONTINUOUS
 62
     7
 10
160.05
 20
95.75013
 11
199.95
 21
95.75013
  0
LINE
  8
0
  6
CONTINUOUS
 62
     7
 10
160.05
 20
102.25001
 11
199.95
 21
102.25001
  0
LINE
  8
0
  6
CONTINUOUS
 62
     7
 10
160.05
 20
117.75013
 11
199.95
 21
117.75013
  0
LINE
  8
0
  6
CONTINUOUS
 62
     7
 10
160.05
 20
124.25007
 11
199.95
 21
124.25007
  0
LINE
  8
0
  6
CENTER
 62
     7
 10
170.25
 20
89.500069
 11
163.75
 21
89.500069
  0
LINE
  8
0
  6
CENTER
 62
     7
 10
167
 20
92.750069
 11
167
 21
86.250069
  0
LINE
  8
0
  6
CENTER
 62
     7
 10
193
 20
92.750069
 11
193
 21
86.250069
  0
LINE
  8
0
  6
CENTER
 62
     7
 10
189.75
 20
89.500069
 11
196.25
 21
89.500069
  0
LINE
  8
0
  6
CENTER
 62
     7
 10
193
 20
127.25011
 11
193
 21
133.75012
  0
LINE
  8
0
  6
CENTER
 62
     7
 10
167
 20
127.25011
 11
167
 21
133.75012
  0
LINE
  8
0
  6
CENTER
 62
     7
 10
189.75
 20
130.50012
 11
196.25
 21
130.50012
  0
LINE
  8
0
  6
CENTER
 62
     7
 10
170.25
 20
130.50012
 11
163.75
 21
130.50012
  0
LINE
  8
0
  6
CONTINUOUS
 62
     7
 10
70
 20
117.50009
 11
151.54988
 21
117.50009
  0
LINE
  8
0
  6
CONTINUOUS
 62
     7
 10
70
 20
116.66635
 11
151.54988
 21
116.66635
  0
LINE
  8
0
  6
CONTINUOUS
 62
     7
 10
70
 20
114.84402
 11
151.54988
 21
114.84402
  0
LINE
  8
0
  6
CONTINUOUS
 62
     7
 10
70
 20
105.1562
 11
151.54988
 21
105.1562
  0
LINE
  8
0
  6
CONTINUOUS
 62
     7
 10
70
 20
103.33399
 11
151.54988
 21
103.33399
  0
LINE
  8
0
  6
CONTINUOUS
 62
     7
 10
70
 20
102.50009
 11
151.54988
 21
102.50009
  0
LINE
  8
0
  6
CONTINUOUS
 62
     7
 10
70
 20
117.50009
 11
70
 21
102.50009
  0
LINE
  8
0
  6
CONTINUOUS
 62
     7
 10
290
 20
117.50009
 11
290
 21
102.50009
  0
LINE
  8
0
  6
CENTER
 62
     7
 10
90
 20
114.75009
 11
90
 21
105.25009
  0
LINE
  8
0
  6
CENTER
 62
     7
 10
150
 20
114.75009
 11
150
 21
105.25009
  0
LINE
  8
0
  6
CENTER
 62
     7
 10
210
 20
114.75009
 11
210
 21
105.25009
  0
LINE
  8
0
  6
CENTER
 62
     7
 10
270
 20
114.75009
 11
270
 21
105.25009
  0
LINE
  8
0
  6
CONTINUOUS
 62
     7
 10
208.45012
 20
102.50009
 11
290
 21
102.50009
  0
LINE
  8
0
  6
CONTINUOUS
 62
     7
 10
208.45012
 20
103.33399
 11
290
 21
103.33399
  0
LINE
  8
0
  6
CONTINUOUS
 62
     7
 10
208.45012
 20
105.1562
 11
290
 21
105.1562
  0
LINE
  8
0
  6
CONTINUOUS
 62
     7
 10
208.45012
 20
114.84402
 11
290
 21
114.84402
  0
LINE
  8
0
  6
CONTINUOUS
 62
     7
 10
208.45012
 20
116.66635
 11
290
 21
116.66635
  0
LINE
  8
0
  6
CONTINUOUS
 62
     7
 10
208.45012
 20
117.50009
 11
290
 21
117.50009
  0
LINE
  8
0
  6
CONTINUOUS
 62
     7
 10
150.64989
 20
113.00009
 11
151.14989
 21
113.00009
  0
LINE
  8
0
  6
CONTINUOUS
 62
     7
 10
150.64989
 20
107.00009
 11
151.14989
 21
107.00009
  0
LINE
  8
0
  6
CONTINUOUS
 62
     7
 10
151.14989
 20
113.75009
 11
151.54988
 21
113.75009
  0
LINE
  8
0
  6
CONTINUOUS
 62
     7
 10
151.14989
 20
106.25009
 11
151.54988
 21
106.25009
  0
LINE
  8
0
  6
CONTINUOUS
 62
     7
 10
151.14989
 20
113.75009
 11
151.14989
 21
106.25009
  0
LINE
  8
0
  6
CONTINUOUS
 62
     7
 10
70
 20
12.049991
 11
151.54988
 21
12.049991
  0
LINE
  8
0
  6
CONTINUOUS
 62
     7
 10
70
 20
10.813293
 11
151.54988
 21
10.813293
  0
LINE
  8
0
  6
CONTINUOUS
 62
     7
 10
70
 20
9.5195007
 11
151.54988
 21
9.5195007
  0
LINE
  8
0
  6
CONTINUOUS
 62
     7
 10
70
 20
4.7668481
 11
153.48317
 21
4.7668481
  0
LINE
  8
0
  6
CONTINUOUS
 62
     7
 10
208.45012
 20
10.813293
 11
290
 21
10.813293
  0
LINE
  8
0
  6
CONTINUOUS
 62
     7
 10
208.45012
 20
12.049991
 11
290
 21
12.049991
  0
LINE
  8
0
  6
CONTINUOUS
 62
     7
 10
208.45012
 20
9.5195007
 11
290
 21
9.5195007
  0
LINE
  8
0
  6
CONTINUOUS
 62
     7
 10
206.51682
 20
4.7668481
 11
290
 21
4.7668481
  0
ARC
  8
0
  6
CONTINUOUS
 62
     7
 10
150.64989
 20
19.500132
 40
3
 50
89.999982
 51
269.99995
  0
CIRCLE
  8
0
  6
CONTINUOUS
 62
     7
 10
155.54988
 20
21.30015
 40
1.5
  0
CIRCLE
  8
0
  6
CONTINUOUS
 62
     7
 10
155.54988
 20
22.000143
 40
0.69999999
  0
ARC
  8
0
  6
CONTINUOUS
 62
     7
 10
-5.7663574
 20
6.5760522
 40
0.70000029
 50
298.70305
 51
30.000001
  0
ARC
  8
0
  6
CONTINUOUS
 62
     7
 10
-5.755127
 20
13.627933
 40
1.4500003
 50
231.06709
 51
308.93291
  0
ARC
  8
0
  6
CONTINUOUS
 62
     7
 10
-8.1071777
 20
9.5449247
 40
1.4500003
 50
359.00337
 51
60.996629
  0
ARC
  8
0
  6
CONTINUOUS
 62
     7
 10
5.7662354
 20
6.5760522
 40
0.70000029
 50
149.99957
 51
240.00047
  0
ARC
  8
0
  6
CONTINUOUS
 62
     7
 10
8.1069946
 20
9.545001
 40
1.4499999
 50
118.99233
 51
181.00768
  0
ARC
  8
0
  6
CONTINUOUS
 62
     7
 10
5.7550049
 20
13.627998
 40
1.4499999
 50
231.07153
 51
308.92856
  0
ARC
  8
0
  6
CONTINUOUS
 62
     7
 10
15.00002
 20
6.9999719
 40
2
 50
270
 51
360
  0
ARC
  8
0
  6
CONTINUOUS
 62
     7
 10
8.6348467
 20
7.337944
 40
0.5
 50
150
 51
240.00001
  0
ARC
  8
0
  6
CONTINUOUS
 62
     7
 10
14.50002
 20
6.9999719
 40
2.5
 50
270
 51
360
  0
ARC
  8
0
  6
CONTINUOUS
 62
     7
 10
8.2071533
 20
24.249947
 40
0.5
 50
225
 51
270
  0
ARC
  8
0
  6
CONTINUOUS
 62
     7
 10
25.100037
 20
22.485735
 40
1
 50
25.846746
 51
45.000001
  0
ARC
  8
0
  6
CONTINUOUS
 62
     7
 10
25.100037
 20
17.856707
 40
1
 50
280
 51
334.15325
  0
ARC
  8
0
  6
CONTINUOUS
 62
     7
 10
16.999939
 20
14.905292
 40
0.5
 50
100
 51
175.06966
  0
ARC
  8
0
  6
CONTINUOUS
 62
     7
 10
13.792867
 20
24.249947
 40
0.5
 50
270
 51
315
  0
ARC
  8
0
  6
CONTINUOUS
 62
     7
 10
-16.999939
 20
14.905292
 40
0.5
 50
4.9302594
 51
80.354942
  0
ARC
  8
0
  6
CONTINUOUS
 62
     7
 10
-25.00004
 20
17.839073
 40
1
 50
180.51282
 51
260
  0
ARC
  8
0
  6
CONTINUOUS
 62
     7
 10
-25.00004
 20
22.585732
 40
1
 50
134.59823
 51
180.51282
  0
ARC
  8
0
  6
CONTINUOUS
 62
     7
 10
-13.792888
 20
24.249947
 40
0.5
 50
225
 51
270
  0
ARC
  8
0
  6
CONTINUOUS
 62
     7
 10
-8.2071533
 20
24.249947
 40
0.5
 50
270
 51
315
  0
ARC
  8
0
  6
CONTINUOUS
 62
     7
 10
-15.00002
 20
6.9999719
 40
2
 50
179.99999
 51
270
  0
ARC
  8
0
  6
CONTINUOUS
 62
     7
 10
-8.6348467
 20
7.337944
 40
0.5
 50
299.99999
 51
30.000004
  0
ARC
  8
0
  6
CONTINUOUS
 62
     7
 10
-14.50002
 20
6.9999719
 40
2.5
 50
179.99999
 51
270
  0
CIRCLE
  8
0
  6
CONTINUOUS
 62
     7
 10
-10.25
 20
19.299929
 40
1.2
  0
CIRCLE
  8
0
  6
CONTINUOUS
 62
     7
 10
0
 20
19.499969
 40
3.75
  0
CIRCLE
  8
0
  6
CONTINUOUS
 62
     7
 10
0
 20
19.499969
 40
3
  0
CIRCLE
  8
0
  6
CONTINUOUS
 62
     7
 10
167
 20
89.500069
 40
2.25
  0
CIRCLE
  8
0
  6
CONTINUOUS
 62
     7
 10
90
 20
110.00009
 40
2.25
  0
CIRCLE
  8
0
  6
CONTINUOUS
 62
     7
 10
90
 20
110.00009
 40
3.75
  0
ARC
  8
0
  6
CONTINUOUS
 62
     7
 10
150.64989
 20
110.00009
 40
3
 50
89.999982
 51
269.99995
  0
POLYLINE
  8
0
  6
CONTINUOUS
 62
     7
 66
     1
 10
0
 20
0
  0
VERTEX
  8
0
  6
CONTINUOUS
 62
     7
 10
168.39201
 20
7.0001321
 42
-0.098633751
  0
VERTEX
  8
0
  6
CONTINUOUS
 62
     7
 10
167.56949
 20
6.1084647
 42
-0.34749716
  0
VERTEX
  8
0
  6
CONTINUOUS
 62
     7
 10
166.43113
 20
6.1080567
 42
-0.09873958
  0
VERTEX
  8
0
  6
CONTINUOUS
 62
     7
 10
165.60802
 20
7.0001321
 42
0
  0
SEQEND
  8
0
  0
POLYLINE
  8
0
  6
CONTINUOUS
 62
     7
 66
     1
 10
0
 20
0
  0
VERTEX
  8
0
  6
CONTINUOUS
 62
     7
 10
197
 20
17.000082
 42
-0.33811128
  0
VERTEX
  8
0
  6
CONTINUOUS
 62
     7
 10
196.18353
 20
15.735154
 42
-0.082239842
  0
VERTEX
  8
0
  6
CONTINUOUS
 62
     7
 10
194.61449
 20
15.390621
 42
-0.020685011
  0
VERTEX
  8
0
  6
CONTINUOUS
 62
     7
 10
193
 20
15.338481
 42
-0.02065338
  0
VERTEX
  8
0
  6
CONTINUOUS
 62
     7
 10
191.38663
 20
15.390526
 42
-0.082303941
  0
VERTEX
  8
0
  6
CONTINUOUS
 62
     7
 10
189.81603
 20
15.735356
 42
-0.3380355
  0
VERTEX
  8
0
  6
CONTINUOUS
 62
     7
 10
189
 20
17.000082
 42
0
  0
SEQEND
  8
0
  0
POLYLINE
  8
0
  6
CONTINUOUS
 62
     7
 66
     1
 10
0
 20
0
  0
VERTEX
  8
0
  6
CONTINUOUS
 62
     7
 10
194.392
 20
13.450063
 42
0.05546476
  0
VERTEX
  8
0
  6
CONTINUOUS
 62
     7
 10
193.4735
 20
13.670579
 42
0.062174907
  0
VERTEX
  8
0
  6
CONTINUOUS
 62
     7
 10
192.52697
 20
13.670636
 42
0.055492687
  0
VERTEX
  8
0
  6
CONTINUOUS
 62
     7
 10
191.608
 20
13.450063
 42
0
  0
SEQEND
  8
0
  0
POLYLINE
  8
0
  6
CONTINUOUS
 62
     7
 66
     1
 10
0
 20
0
  0
VERTEX
  8
0
  6
CONTINUOUS
 62
     7
 10
163
 20
17.000082
 42
0.33811128
  0
VERTEX
  8
0
  6
CONTINUOUS
 62
     7
 10
163.81647
 20
15.735154
 42
0.082239842
  0
VERTEX
  8
0
  6
CONTINUOUS
 62
     7
 10
165.38551
 20
15.390621
 42
0.020685011
  0
VERTEX
  8
0
  6
CONTINUOUS
 62
     7
 10
167
 20
15.338481
 42
0.02065338
  0
VERTEX
  8
0
  6
CONTINUOUS
 62
     7
 10
168.61337
 20
15.390526
 42
0.082303941
  0
VERTEX
  8
0
  6
CONTINUOUS
 62
     7
 10
170.18397
 20
15.735356
 42
0.3380355
  0
VERTEX
  8
0
  6
CONTINUOUS
 62
     7
 10
171
 20
17.000082
 42
0
  0
SEQEND
  8
0
  0
POLYLINE
  8
0
  6
CONTINUOUS
 62
     7
 66
     1
 10
0
 20
0
  0
VERTEX
  8
0
  6
CONTINUOUS
 62
     7
 10
191.608
 20
7.0001321
 42
0.098633283
  0
VERTEX
  8
0
  6
CONTINUOUS
 62
     7
 10
192.43052
 20
6.1084605
 42
0.34749447
  0
VERTEX
  8
0
  6
CONTINUOUS
 62
     7
 10
193.56887
 20
6.1080545
 42
0.098741701
  0
VERTEX
  8
0
  6
CONTINUOUS
 62
     7
 10
194.392
 20
7.0001321
 42
0
  0
SEQEND
  8
0
  0
POLYLINE
  8
0
  6
CONTINUOUS
 62
     7
 66
     1
 10
0
 20
0
  0
VERTEX
  8
0
  6
CONTINUOUS
 62
     7
 10
165.60802
 20
13.450063
 42
-0.055465225
  0
VERTEX
  8
0
  6
CONTINUOUS
 62
     7
 10
166.52652
 20
13.67058
 42
-0.06217391
  0
VERTEX
  8
0
  6
CONTINUOUS
 62
     7
 10
167.47303
 20
13.670636
 42
-0.055493202
  0
VERTEX
  8
0
  6
CONTINUOUS
 62
     7
 10
168.39201
 20
13.450063
 42
0
  0
SEQEND
  8
0
  0
TEXT
  8
0
  6
CONTINUOUS
 62
     7
 10
-1.2855
 20
-41.8
 40
3.5999999
 41
1.0040715
  1
C0= 16.5  kN
  0
TEXT
  8
0
  6
CONTINUOUS
 62
     7
 10
-1.2855
 20
-36.8
 40
3.5999999
 41
1.0040715
  1
C =  9.51 kN
  0
TEXT
  8
0
  6
CONTINUOUS
 62
     7
 10
-11.2855
 20
-31.8
 40
3.5999999
 41
1.0061957
  1
SSR15XTB
  0
ENDSEC
  0
EOF
