  0
SECTION
  2
HEADER
  0
ENDSEC
  0
SECTION
  2
TABLES
  0
TABLE
  2
LTYPE
 70
    22
  0
LTYPE
  2
CONTINUOUS
 70
    64
  3
Solid line
 72
    65
 73
     0
 40
0.000000
  0
LTYPE
  2
DASHED
 70
    64
  3
__ __ __ __ __ __ __ __ __ __ __ __ __ __ __
 72
    65
 73
     2
 40
3.500000
 49
2.000000
 49
-1.500000
  0
LTYPE
  2
CENTER
 70
    64
  3
____ _ ____ _ ____ _ ____ _ ____ _ ____ _ ____
 72
    65
 73
     4
 40
17.500000
 49
13.000000
 49
-1.500000
 49
1.500000
 49
-1.500000
  0
LTYPE
  2
PHANTOM
 70
    64
  3
_____ _ _ _____ _ _ _____ _ _ _____ _ _ ____  
 72
    65
 73
     6
 40
15.500000
 49
8.000000
 49
-1.500000
 49
1.500000
 49
-1.500000
 49
1.500000
 49
-1.500000
  0
LTYPE
  2
DOT
 70
    64
  3
. . . . . . . . . . . . . . . . . . . . . . . .
 72
    65
 73
     2
 40
0.25
 49
0.0
 49
-0.25
  0
ENDTAB
  0
TABLE
  2
LAYER
 70
     1
  0
LAYER
  2
0
 70
     0
 62
     7
  6
CONTINUOUS
  0
ENDTAB
  0
TABLE
  2
STYLE
 70
     1
  0
STYLE
  2
STANDARD
 70
     0
 40
0.000000
 41
1.000000
 50
0.000000
 71
     0
 42
0.200000
  3
txt
  0
ENDTAB
  0
TABLE
  2
VIEW
 70
     0
  0
ENDTAB
  0
ENDSEC
  0
SECTION
  2
BLOCKS
  0
ENDSEC
  0
SECTION
  2
ENTITIES
  0
LINE
  8
0
  6
CONTINUOUS
 62
     7
 10
70
 20
12.5
 11
151.54988
 21
12.5
  0
LINE
  8
0
  6
CONTINUOUS
 62
     7
 10
70
 20
0
 11
290
 21
0
  0
LINE
  8
0
  6
CONTINUOUS
 62
     7
 10
208.45012
 20
12.5
 11
290
 21
12.5
  0
LINE
  8
0
  6
CENTER
 62
     7
 10
90
 20
13.5
 11
90
 21
-1
  0
LINE
  8
0
  6
DASHED
 62
     7
 10
86.25
 20
12.5
 11
86.25
 21
7.1999917
  0
LINE
  8
0
  6
DASHED
 62
     7
 10
93.75
 20
12.5
 11
93.75
 21
7.1999917
  0
LINE
  8
0
  6
DASHED
 62
     7
 10
87.75
 20
7.1999917
 11
87.75
 21
0
  0
LINE
  8
0
  6
DASHED
 62
     7
 10
92.25
 20
7.1999917
 11
92.25
 21
0
  0
LINE
  8
0
  6
DASHED
 62
     7
 10
86.25
 20
7.1999917
 11
93.75
 21
7.1999917
  0
LINE
  8
0
  6
CONTINUOUS
 62
     7
 10
-7.5
 20
12.050072
 11
-7.0502157
 21
12.499855
  0
LINE
  8
0
  6
CONTINUOUS
 62
     7
 10
-6.6573968
 20
9.5197001
 11
-5.1599998
 21
6.9261327
  0
LINE
  8
0
  6
CONTINUOUS
 62
     7
 10
-7.5001345
 20
4.7669625
 11
-5.4163666
 21
5.9700265
  0
LINE
  8
0
  6
CONTINUOUS
 62
     7
 10
-7.5
 20
10.861671
 11
-7.5
 21
12.050072
  0
LINE
  8
0
  6
CONTINUOUS
 62
     7
 10
-7.0501709
 20
12.499997
 11
-6.6662598
 21
12.499997
  0
LINE
  8
0
  6
CONTINUOUS
 62
     7
 10
6.6572189
 20
9.5195045
 11
5.1599188
 21
6.926105
  0
LINE
  8
0
  6
CONTINUOUS
 62
     7
 10
7.5
 20
4.7667141
 11
5.4160709
 21
5.969871
  0
LINE
  8
0
  6
CONTINUOUS
 62
     7
 10
4.8438993
 20
12.499997
 11
-4.8439326
 21
12.499997
  0
LINE
  8
0
  6
CONTINUOUS
 62
     7
 10
-7.5
 20
0.84967506
 11
-6.6503234
 21
-1.5825515E-007
  0
LINE
  8
0
  6
CONTINUOUS
 62
     7
 10
7.5
 20
0.8501997
 11
6.6497989
 21
-1.5792347E-007
  0
LINE
  8
0
  6
CONTINUOUS
 62
     7
 10
-1.9002246
 20
0
 11
-6.6503239
 21
0
  0
LINE
  8
0
  6
CONTINUOUS
 62
     7
 10
7.5
 20
0.85019982
 11
7.5
 21
4.7667141
  0
LINE
  8
0
  6
CONTINUOUS
 62
     7
 10
-7.5
 20
0.84967518
 11
-7.5
 21
4.7670403
  0
LINE
  8
0
  6
CONTINUOUS
 62
     7
 10
1.8996047
 20
0
 11
6.6497989
 21
0
  0
LINE
  8
0
  6
CONTINUOUS
 62
     7
 10
1.8996047
 20
0
 11
1.4995803
 21
0.40002441
  0
LINE
  8
0
  6
CONTINUOUS
 62
     7
 10
1.4995803
 20
0.40002441
 11
-1.5002002
 21
0.40002441
  0
LINE
  8
0
  6
CONTINUOUS
 62
     7
 10
-1.5002002
 20
0.40002441
 11
-1.9002246
 21
0
  0
LINE
  8
0
  6
CONTINUOUS
 62
     7
 10
17.00004
 20
6.9999671
 11
17.00004
 21
14.700366
  0
LINE
  8
0
  6
CONTINUOUS
 62
     7
 10
16.400064
 20
15.049995
 11
16.400064
 21
23.099974
  0
LINE
  8
0
  6
CONTINUOUS
 62
     7
 10
7.5
 20
10.861837
 11
7.5
 21
12.049998
  0
LINE
  8
0
  6
CONTINUOUS
 62
     7
 10
7.0500011
 20
12.499997
 11
6.6661105
 21
12.499997
  0
LINE
  8
0
  6
CONTINUOUS
 62
     7
 10
16.40007
 20
23.099989
 11
15.900065
 21
23.599993
  0
LINE
  8
0
  6
CONTINUOUS
 62
     7
 10
9.8000069
 20
13.002666
 11
8.0027056
 21
14.799967
  0
LINE
  8
0
  6
CONTINUOUS
 62
     7
 10
9.7999878
 20
13.002685
 11
9.7999878
 21
10.356007
  0
LINE
  8
0
  6
CONTINUOUS
 62
     7
 10
9.7999802
 20
10.355993
 11
8.2018433
 21
7.5879393
  0
LINE
  8
0
  6
CONTINUOUS
 62
     7
 10
11.684358
 20
4.999958
 11
8.3848562
 21
6.9049263
  0
LINE
  8
0
  6
CONTINUOUS
 62
     7
 10
15.000041
 20
4.9999671
 11
7.095994
 21
4.9999671
  0
LINE
  8
0
  6
CONTINUOUS
 62
     7
 10
7.5
 20
12.049998
 11
7.0500011
 21
12.499997
  0
LINE
  8
0
  6
CONTINUOUS
 62
     7
 10
14.500041
 20
4.4999671
 11
8.5538778
 21
4.4999671
  0
LINE
  8
0
  6
CONTINUOUS
 62
     7
 10
8.5538244
 20
4.4999976
 11
7.68787
 21
4.9999566
  0
LINE
  8
0
  6
CONTINUOUS
 62
     7
 10
-14.5
 20
4.4999976
 11
-8.5538244
 21
4.4999976
  0
LINE
  8
0
  6
CONTINUOUS
 62
     7
 10
-17
 20
6.9999976
 11
-17
 21
14.70116
  0
LINE
  8
0
  6
CONTINUOUS
 62
     7
 10
17
 20
18.507109
 11
17
 21
22.921251
  0
LINE
  8
0
  6
CONTINUOUS
 62
     7
 10
15.999961
 20
23.999996
 11
16.807236
 21
23.192764
  0
LINE
  8
0
  6
CONTINUOUS
 62
     7
 10
16.953608
 20
18.453438
 11
16.646442
 21
18.146273
  0
LINE
  8
0
  6
CONTINUOUS
 62
     7
 10
16.5
 20
16.632372
 11
16.5
 21
17.792742
  0
LINE
  8
0
  6
CONTINUOUS
 62
     7
 10
17.00008
 20
14.700224
 11
16.517036
 21
16.502962
  0
LINE
  8
0
  6
CONTINUOUS
 62
     7
 10
3.4928386
 20
23.699999
 11
-3.493103
 21
23.699999
  0
LINE
  8
0
  6
CONTINUOUS
 62
     7
 10
-4.0002456
 20
23.999998
 11
-3.8466775
 21
23.84643
  0
LINE
  8
0
  6
CONTINUOUS
 62
     7
 10
-16.807093
 20
23.192507
 11
-15.999604
 21
23.999996
  0
LINE
  8
0
  6
CONTINUOUS
 62
     7
 10
3.9998682
 20
23.999998
 11
3.8463721
 21
23.846506
  0
LINE
  8
0
  6
CONTINUOUS
 62
     7
 10
-17
 20
17.500036
 11
-16.646452
 21
17.146488
  0
LINE
  8
0
  6
CONTINUOUS
 62
     7
 10
-17.000002
 20
14.701152
 11
-16.517065
 21
16.503494
  0
LINE
  8
0
  6
CONTINUOUS
 62
     7
 10
-16.5
 20
16.792936
 11
-16.5
 21
16.632902
  0
LINE
  8
0
  6
CENTER
 62
     7
 10
10.25
 20
21.399925
 11
10.25
 21
17.199928
  0
LINE
  8
0
  6
CENTER
 62
     7
 10
12.350017
 20
19.299925
 11
8.1499834
 21
19.299925
  0
LINE
  8
0
  6
DASHED
 62
     7
 10
-15
 20
17.000059
 11
-15
 21
23.999996
  0
LINE
  8
0
  6
DASHED
 62
     7
 10
-11
 20
17.000059
 11
-11
 21
23.999996
  0
LINE
  8
0
  6
DASHED
 62
     7
 10
-11.3
 20
16.48041
 11
-11.000106
 21
16.999844
  0
LINE
  8
0
  6
DASHED
 62
     7
 10
-15
 20
17.000059
 11
-11
 21
17.000059
  0
LINE
  8
0
  6
CENTER
 62
     7
 10
-13
 20
12.564232
 11
-13
 21
25.009996
  0
LINE
  8
0
  6
DASHED
 62
     7
 10
-14.7
 20
16.480375
 11
-15.000005
 21
16.999998
  0
LINE
  8
0
  6
DASHED
 62
     7
 10
-14.7
 20
14.500058
 11
-11.379028
 21
14.500058
  0
LINE
  8
0
  6
CONTINUOUS
 62
     7
 10
17.000032
 20
14.450025
 11
16.400059
 21
15.049997
  0
LINE
  8
0
  6
DASHED
 62
     7
 10
-3.75
 20
12.499997
 11
-3.75
 21
7.1999946
  0
LINE
  8
0
  6
DASHED
 62
     7
 10
3.75
 20
12.499997
 11
3.75
 21
7.1999946
  0
LINE
  8
0
  6
DASHED
 62
     7
 10
-2.25
 20
7.1999993
 11
-2.25
 21
0
  0
LINE
  8
0
  6
CENTER
 62
     7
 10
0
 20
-1
 11
0
 21
25.009996
  0
LINE
  8
0
  6
DASHED
 62
     7
 10
-3.75
 20
7.1999993
 11
3.75
 21
7.1999993
  0
LINE
  8
0
  6
CENTER
 62
     7
 10
13
 20
12.564232
 11
13
 21
25.009996
  0
LINE
  8
0
  6
DASHED
 62
     7
 10
2.25
 20
7.1999993
 11
2.25
 21
0
  0
LINE
  8
0
  6
CONTINUOUS
 62
     7
 10
-17
 20
17.500036
 11
-17
 21
22.921251
  0
LINE
  8
0
  6
CONTINUOUS
 62
     7
 10
159.15001
 20
13.850209
 11
160.05
 21
13.850209
  0
LINE
  8
0
  6
CONTINUOUS
 62
     7
 10
153.74989
 20
23.600229
 11
160.05
 21
23.600229
  0
LINE
  8
0
  6
CONTINUOUS
 62
     7
 10
153.24989
 20
5.0002036
 11
153.24989
 21
23.60022
  0
LINE
  8
0
  6
CONTINUOUS
 62
     7
 10
153.74991
 20
23.600224
 11
153.24991
 21
23.100222
  0
LINE
  8
0
  6
CONTINUOUS
 62
     7
 10
153.24991
 20
5.000205
 11
153.74991
 21
4.5001988
  0
LINE
  8
0
  6
CENTER
 62
     7
 10
153.84987
 20
21.300241
 11
157.24989
 21
21.300241
  0
LINE
  8
0
  6
CENTER
 62
     7
 10
155.54988
 20
19.600241
 11
155.54988
 21
23.000235
  0
LINE
  8
0
  6
CENTER
 62
     7
 10
154.64989
 20
22.000223
 11
156.44987
 21
22.000223
  0
LINE
  8
0
  6
CONTINUOUS
 62
     7
 10
153.24989
 20
5.0002236
 11
151.54988
 21
5.0002236
  0
LINE
  8
0
  6
CONTINUOUS
 62
     7
 10
151.54988
 20
5.0002236
 11
151.54988
 21
23.60022
  0
LINE
  8
0
  6
CENTER
 62
     7
 10
146.74525
 20
19.500214
 11
153.74989
 21
19.500214
  0
LINE
  8
0
  6
CONTINUOUS
 62
     7
 10
151.54988
 20
23.60022
 11
153.24989
 21
23.60022
  0
LINE
  8
0
  6
CONTINUOUS
 62
     7
 10
160.05
 20
13.8502
 11
160.05
 21
24.000214
  0
LINE
  8
0
  6
CONTINUOUS
 62
     7
 10
159.15001
 20
4.5001526
 11
159.15001
 21
13.850209
  0
LINE
  8
0
  6
CONTINUOUS
 62
     7
 10
200.84999
 20
13.850209
 11
199.95
 21
13.850209
  0
LINE
  8
0
  6
CONTINUOUS
 62
     7
 10
206.25011
 20
23.600229
 11
199.95
 21
23.600229
  0
LINE
  8
0
  6
CONTINUOUS
 62
     7
 10
206.75011
 20
5.0002036
 11
206.75011
 21
23.60022
  0
LINE
  8
0
  6
CONTINUOUS
 62
     7
 10
206.25009
 20
23.600218
 11
206.75009
 21
23.100227
  0
LINE
  8
0
  6
CONTINUOUS
 62
     7
 10
206.75009
 20
5.0002103
 11
206.25009
 21
4.5002098
  0
LINE
  8
0
  6
CENTER
 62
     7
 10
206.15013
 20
21.300241
 11
202.75011
 21
21.300241
  0
LINE
  8
0
  6
CENTER
 62
     7
 10
204.45012
 20
19.600241
 11
204.45012
 21
23.000235
  0
LINE
  8
0
  6
CONTINUOUS
 62
     7
 10
206.75011
 20
5.0002236
 11
208.45012
 21
5.0002236
  0
LINE
  8
0
  6
CONTINUOUS
 62
     7
 10
208.45012
 20
5.0002236
 11
208.45012
 21
23.60022
  0
LINE
  8
0
  6
CONTINUOUS
 62
     7
 10
208.45012
 20
23.60022
 11
206.75011
 21
23.60022
  0
LINE
  8
0
  6
CONTINUOUS
 62
     7
 10
199.95
 20
13.8502
 11
199.95
 21
24.000214
  0
LINE
  8
0
  6
CONTINUOUS
 62
     7
 10
200.84999
 20
4.5001526
 11
200.84999
 21
13.850209
  0
LINE
  8
0
  6
CONTINUOUS
 62
     7
 10
199.95
 20
18.000153
 11
160.05
 21
18.000153
  0
LINE
  8
0
  6
CENTER
 62
     7
 10
192.99998
 20
12.564244
 11
192.99998
 21
25.010214
  0
LINE
  8
0
  6
CONTINUOUS
 62
     7
 10
206.25011
 20
4.5001526
 11
200.84999
 21
4.5001526
  0
LINE
  8
0
  6
CONTINUOUS
 62
     7
 10
150.64989
 20
22.500214
 11
151.14989
 21
22.500214
  0
LINE
  8
0
  6
CONTINUOUS
 62
     7
 10
150.64989
 20
16.500214
 11
151.14989
 21
16.500214
  0
LINE
  8
0
  6
CONTINUOUS
 62
     7
 10
151.14989
 20
23.250214
 11
151.54988
 21
23.250214
  0
LINE
  8
0
  6
CONTINUOUS
 62
     7
 10
151.14989
 20
15.750214
 11
151.54988
 21
15.750214
  0
LINE
  8
0
  6
CONTINUOUS
 62
     7
 10
151.14989
 20
23.250214
 11
151.14989
 21
15.750214
  0
LINE
  8
0
  6
CONTINUOUS
 62
     7
 10
-16.400064
 20
15.049995
 11
-16.400064
 21
23.099974
  0
LINE
  8
0
  6
CONTINUOUS
 62
     7
 10
15.900086
 20
23.599974
 11
-15.900065
 21
23.599974
  0
LINE
  8
0
  6
CONTINUOUS
 62
     7
 10
-16.40007
 20
23.099989
 11
-15.900065
 21
23.599993
  0
LINE
  8
0
  6
CONTINUOUS
 62
     7
 10
-8.0026855
 20
14.799965
 11
8.0027075
 21
14.799965
  0
LINE
  8
0
  6
CONTINUOUS
 62
     7
 10
-9.8000069
 20
13.002666
 11
-8.0027056
 21
14.799967
  0
LINE
  8
0
  6
CONTINUOUS
 62
     7
 10
-9.7999878
 20
13.002652
 11
-9.7999878
 21
10.356007
  0
LINE
  8
0
  6
CONTINUOUS
 62
     7
 10
-9.7999878
 20
10.356007
 11
-8.2002172
 21
7.5851231
  0
LINE
  8
0
  6
CONTINUOUS
 62
     7
 10
-11.684358
 20
4.999958
 11
-8.3848562
 21
6.9049263
  0
LINE
  8
0
  6
CONTINUOUS
 62
     7
 10
-15.000041
 20
4.9999671
 11
-7.0965586
 21
4.9999671
  0
LINE
  8
0
  6
CENTER
 62
     7
 10
-10.25
 20
21.399925
 11
-10.25
 21
17.199928
  0
LINE
  8
0
  6
CENTER
 62
     7
 10
-12.350017
 20
19.299925
 11
-8.1499834
 21
19.299925
  0
LINE
  8
0
  6
CONTINUOUS
 62
     7
 10
-17.000032
 20
14.450025
 11
-16.400059
 21
15.049997
  0
LINE
  8
0
  6
CONTINUOUS
 62
     7
 10
-8.5538254
 20
4.4999971
 11
-7.68787
 21
4.9999566
  0
LINE
  8
0
  6
CENTER
 62
     7
 10
-5
 20
19.499964
 11
5
 21
19.499964
  0
LINE
  8
0
  6
CONTINUOUS
 62
     7
 10
70
 20
12.5
 11
70
 21
0
  0
LINE
  8
0
  6
CENTER
 62
     7
 10
150
 20
13.5
 11
150
 21
-1
  0
LINE
  8
0
  6
CENTER
 62
     7
 10
210
 20
13.5
 11
210
 21
-1
  0
LINE
  8
0
  6
CENTER
 62
     7
 10
270
 20
13.5
 11
270
 21
-1
  0
LINE
  8
0
  6
CONTINUOUS
 62
     7
 10
290
 20
12.5
 11
290
 21
0
  0
LINE
  8
0
  6
CONTINUOUS
 62
     7
 10
159.15001
 20
4.5001526
 11
153.74995
 21
4.5001526
  0
LINE
  8
0
  6
CONTINUOUS
 62
     7
 10
200.84999
 20
4.5001526
 11
159.15001
 21
4.5001526
  0
LINE
  8
0
  6
CONTINUOUS
 62
     7
 10
-15.999604
 20
23.999996
 11
-4.0002456
 21
23.999996
  0
LINE
  8
0
  6
CONTINUOUS
 62
     7
 10
3.9998674
 20
23.999996
 11
15.999962
 21
23.999996
  0
LINE
  8
0
  6
DASHED
 62
     7
 10
-11.3
 20
14.500058
 11
-11.3
 21
23.999996
  0
LINE
  8
0
  6
DASHED
 62
     7
 10
-14.7
 20
14.500058
 11
-14.7
 21
23.999996
  0
LINE
  8
0
  6
DASHED
 62
     7
 10
-14.7
 20
14.500058
 11
-13.000001
 21
13.518563
  0
LINE
  8
0
  6
DASHED
 62
     7
 10
-11.3
 20
14.500058
 11
-13
 21
13.518562
  0
LINE
  8
0
  6
CONTINUOUS
 62
     7
 10
199.95
 20
24.000214
 11
160.05
 21
24.000214
  0
LINE
  8
0
  6
DASHED
 62
     7
 10
165.00002
 20
17.000275
 11
165.00002
 21
24.000214
  0
LINE
  8
0
  6
DASHED
 62
     7
 10
165.30002
 20
14.500275
 11
165.30002
 21
24.000214
  0
LINE
  8
0
  6
DASHED
 62
     7
 10
169.00002
 20
17.000275
 11
169.00002
 21
24.000214
  0
LINE
  8
0
  6
DASHED
 62
     7
 10
168.70003
 20
14.500275
 11
168.70003
 21
24.000214
  0
LINE
  8
0
  6
DASHED
 62
     7
 10
168.70001
 20
16.480627
 11
168.99991
 21
17.000063
  0
LINE
  8
0
  6
DASHED
 62
     7
 10
165.00002
 20
17.000275
 11
169.00002
 21
17.000275
  0
LINE
  8
0
  6
CENTER
 62
     7
 10
167.00002
 20
12.564447
 11
167.00002
 21
25.010214
  0
LINE
  8
0
  6
DASHED
 62
     7
 10
165.30003
 20
16.480593
 11
165.00002
 21
17.000219
  0
LINE
  8
0
  6
DASHED
 62
     7
 10
165.30003
 20
14.500273
 11
167.00002
 21
13.518782
  0
LINE
  8
0
  6
DASHED
 62
     7
 10
165.30002
 20
14.500275
 11
168.62099
 21
14.500275
  0
LINE
  8
0
  6
DASHED
 62
     7
 10
168.70003
 20
14.500279
 11
167.00002
 21
13.518781
  0
LINE
  8
0
  6
CENTER
 62
     7
 10
291
 20
101.00021
 11
69
 21
101.00021
  0
LINE
  8
0
  6
CONTINUOUS
 62
     7
 10
151.54988
 20
118.00021
 11
208.45012
 21
118.00021
  0
LINE
  8
0
  6
CONTINUOUS
 62
     7
 10
151.54988
 20
84.000214
 11
208.45012
 21
84.000214
  0
LINE
  8
0
  6
CONTINUOUS
 62
     7
 10
151.54988
 20
118.00021
 11
151.54988
 21
84.000214
  0
LINE
  8
0
  6
CONTINUOUS
 62
     7
 10
153.24989
 20
118.00021
 11
153.24989
 21
84.000214
  0
LINE
  8
0
  6
CONTINUOUS
 62
     7
 10
160.05
 20
118.00021
 11
160.05
 21
84.000214
  0
LINE
  8
0
  6
CONTINUOUS
 62
     7
 10
199.95
 20
118.00021
 11
199.95
 21
84.000214
  0
LINE
  8
0
  6
CONTINUOUS
 62
     7
 10
206.75011
 20
118.00021
 11
206.75011
 21
84.000214
  0
LINE
  8
0
  6
CONTINUOUS
 62
     7
 10
208.45012
 20
118.00021
 11
208.45012
 21
84.000214
  0
LINE
  8
0
  6
CENTER
 62
     7
 10
167.00002
 20
91.000214
 11
167.00002
 21
85.000214
  0
LINE
  8
0
  6
CENTER
 62
     7
 10
164.00002
 20
88.000214
 11
170.00002
 21
88.000214
  0
LINE
  8
0
  6
CENTER
 62
     7
 10
195.99998
 20
88.000214
 11
189.99998
 21
88.000214
  0
LINE
  8
0
  6
CENTER
 62
     7
 10
192.99998
 20
91.000214
 11
192.99998
 21
85.000214
  0
LINE
  8
0
  6
CENTER
 62
     7
 10
192.99998
 20
111.00021
 11
192.99998
 21
117.00021
  0
LINE
  8
0
  6
CENTER
 62
     7
 10
164.00002
 20
114.00021
 11
170.00002
 21
114.00021
  0
LINE
  8
0
  6
CENTER
 62
     7
 10
167.00002
 20
111.00021
 11
167.00002
 21
117.00021
  0
LINE
  8
0
  6
CENTER
 62
     7
 10
195.99998
 20
114.00021
 11
189.99998
 21
114.00021
  0
LINE
  8
0
  6
CONTINUOUS
 62
     7
 10
160.05
 20
97.000343
 11
199.95
 21
97.000343
  0
LINE
  8
0
  6
CONTINUOUS
 62
     7
 10
160.05
 20
105.00046
 11
199.95
 21
105.00046
  0
LINE
  8
0
  6
CONTINUOUS
 62
     7
 10
150.64989
 20
104.00021
 11
151.14989
 21
104.00021
  0
LINE
  8
0
  6
CONTINUOUS
 62
     7
 10
150.64989
 20
98.000214
 11
151.14989
 21
98.000214
  0
LINE
  8
0
  6
CONTINUOUS
 62
     7
 10
150.64989
 20
104.00021
 11
150.64989
 21
98.000214
  0
LINE
  8
0
  6
CONTINUOUS
 62
     7
 10
151.14989
 20
104.75021
 11
151.54988
 21
104.75021
  0
LINE
  8
0
  6
CONTINUOUS
 62
     7
 10
151.14989
 20
97.250214
 11
151.54988
 21
97.250214
  0
LINE
  8
0
  6
CONTINUOUS
 62
     7
 10
151.14989
 20
104.75021
 11
151.14989
 21
97.250214
  0
LINE
  8
0
  6
CONTINUOUS
 62
     7
 10
70
 20
93.500214
 11
151.54988
 21
93.500214
  0
LINE
  8
0
  6
CONTINUOUS
 62
     7
 10
70
 20
108.50021
 11
151.54988
 21
108.50021
  0
LINE
  8
0
  6
CONTINUOUS
 62
     7
 10
70
 20
107.66653
 11
151.54988
 21
107.66653
  0
LINE
  8
0
  6
CONTINUOUS
 62
     7
 10
70
 20
105.84415
 11
151.54988
 21
105.84415
  0
LINE
  8
0
  6
CONTINUOUS
 62
     7
 10
70
 20
96.156311
 11
151.54988
 21
96.156311
  0
LINE
  8
0
  6
CONTINUOUS
 62
     7
 10
70
 20
94.334099
 11
151.54988
 21
94.334099
  0
LINE
  8
0
  6
CONTINUOUS
 62
     7
 10
70
 20
108.50021
 11
70
 21
93.500214
  0
LINE
  8
0
  6
CONTINUOUS
 62
     7
 10
290
 20
108.50021
 11
290
 21
93.500214
  0
LINE
  8
0
  6
CONTINUOUS
 62
     7
 10
208.45012
 20
93.500214
 11
290
 21
93.500214
  0
LINE
  8
0
  6
CONTINUOUS
 62
     7
 10
208.45012
 20
94.334099
 11
290
 21
94.334099
  0
LINE
  8
0
  6
CONTINUOUS
 62
     7
 10
208.45012
 20
96.156311
 11
290
 21
96.156311
  0
LINE
  8
0
  6
CONTINUOUS
 62
     7
 10
208.45012
 20
105.84415
 11
290
 21
105.84415
  0
LINE
  8
0
  6
CONTINUOUS
 62
     7
 10
208.45012
 20
107.66653
 11
290
 21
107.66653
  0
LINE
  8
0
  6
CONTINUOUS
 62
     7
 10
208.45012
 20
108.50021
 11
290
 21
108.50021
  0
LINE
  8
0
  6
CENTER
 62
     7
 10
90
 20
105.75021
 11
90
 21
96.250214
  0
LINE
  8
0
  6
CENTER
 62
     7
 10
150
 20
105.75021
 11
150
 21
96.250214
  0
LINE
  8
0
  6
CENTER
 62
     7
 10
210
 20
105.75021
 11
210
 21
96.250214
  0
LINE
  8
0
  6
CENTER
 62
     7
 10
270
 20
105.75021
 11
270
 21
96.250214
  0
LINE
  8
0
  6
CONTINUOUS
 62
     7
 10
70
 20
12.049985
 11
151.54988
 21
12.049985
  0
LINE
  8
0
  6
CONTINUOUS
 62
     7
 10
70
 20
10.861835
 11
151.54988
 21
10.861835
  0
LINE
  8
0
  6
CONTINUOUS
 62
     7
 10
70
 20
9.5192356
 11
151.54988
 21
9.5192356
  0
LINE
  8
0
  6
CONTINUOUS
 62
     7
 10
70
 20
4.7668433
 11
153.48326
 21
4.7668433
  0
LINE
  8
0
  6
CONTINUOUS
 62
     7
 10
208.45012
 20
12.049985
 11
290
 21
12.049985
  0
LINE
  8
0
  6
CONTINUOUS
 62
     7
 10
208.45012
 20
10.861835
 11
290
 21
10.861835
  0
LINE
  8
0
  6
CONTINUOUS
 62
     7
 10
208.45012
 20
9.5192356
 11
290
 21
9.5192356
  0
LINE
  8
0
  6
CONTINUOUS
 62
     7
 10
206.51672
 20
4.7668433
 11
290
 21
4.7668433
  0
ARC
  8
0
  6
CONTINUOUS
 62
     7
 10
5.7662354
 20
6.5760474
 40
0.70000029
 50
149.99957
 51
240.00047
  0
ARC
  8
0
  6
CONTINUOUS
 62
     7
 10
-8.1071777
 20
9.544919
 40
1.4500003
 50
359.00345
 51
65.244733
  0
ARC
  8
0
  6
CONTINUOUS
 62
     7
 10
-5.755127
 20
13.627927
 40
1.4500003
 50
231.07144
 51
308.93291
  0
ARC
  8
0
  6
CONTINUOUS
 62
     7
 10
-5.7663574
 20
6.5760474
 40
0.70000029
 50
299.9995
 51
30.000414
  0
ARC
  8
0
  6
CONTINUOUS
 62
     7
 10
8.1069946
 20
9.545001
 40
1.4499999
 50
114.7473
 51
181.00754
  0
ARC
  8
0
  6
CONTINUOUS
 62
     7
 10
5.7550049
 20
13.627998
 40
1.4499999
 50
231.07153
 51
308.92839
  0
ARC
  8
0
  6
CONTINUOUS
 62
     7
 10
15.000041
 20
6.9999671
 40
2
 50
270
 51
8.6514222E-006
  0
ARC
  8
0
  6
CONTINUOUS
 62
     7
 10
8.6348467
 20
7.337944
 40
0.5
 50
150
 51
240.00001
  0
ARC
  8
0
  6
CONTINUOUS
 62
     7
 10
14.500041
 20
6.9999671
 40
2.5
 50
269.99997
 51
360
  0
ARC
  8
0
  6
CONTINUOUS
 62
     7
 10
-14.5
 20
6.9999976
 40
2.5
 50
179.99999
 51
269.99997
  0
ARC
  8
0
  6
CONTINUOUS
 62
     7
 10
16.599976
 20
18.807085
 40
0.5
 50
315
 51
323.13476
  0
ARC
  8
0
  6
CONTINUOUS
 62
     7
 10
16.099976
 20
22.485411
 40
1
 50
25.838723
 51
45.001483
  0
ARC
  8
0
  6
CONTINUOUS
 62
     7
 10
17
 20
17.792894
 40
0.5
 50
135
 51
180.00001
  0
ARC
  8
0
  6
CONTINUOUS
 62
     7
 10
17
 20
16.632372
 40
0.5
 50
179.99999
 51
195
  0
ARC
  8
0
  6
CONTINUOUS
 62
     7
 10
-3.493103
 20
24.199999
 40
0.5
 50
225
 51
270
  0
ARC
  8
0
  6
CONTINUOUS
 62
     7
 10
-16.099976
 20
22.485411
 40
1
 50
134.99851
 51
154.16128
  0
ARC
  8
0
  6
CONTINUOUS
 62
     7
 10
3.4928386
 20
24.200041
 40
0.5
 50
270
 51
315
  0
ARC
  8
0
  6
CONTINUOUS
 62
     7
 10
-17
 20
16.792936
 40
0.5
 50
0
 51
45.000001
  0
ARC
  8
0
  6
CONTINUOUS
 62
     7
 10
-17
 20
16.632902
 40
0.5
 50
345
 51
0
  0
CIRCLE
  8
0
  6
CONTINUOUS
 62
     7
 10
155.54988
 20
21.300241
 40
1.5
  0
CIRCLE
  8
0
  6
CONTINUOUS
 62
     7
 10
155.54988
 20
22.000223
 40
0.69999999
  0
ARC
  8
0
  6
CONTINUOUS
 62
     7
 10
150.64989
 20
19.500214
 40
3
 50
89.999982
 51
269.99995
  0
ARC
  8
0
  6
CONTINUOUS
 62
     7
 10
-15.000041
 20
6.9999671
 40
2
 50
179.99999
 51
270
  0
ARC
  8
0
  6
CONTINUOUS
 62
     7
 10
-8.6348467
 20
7.337944
 40
0.5
 50
299.99999
 51
29.627407
  0
CIRCLE
  8
0
  6
CONTINUOUS
 62
     7
 10
-10.25
 20
19.299925
 40
1.2
  0
CIRCLE
  8
0
  6
CONTINUOUS
 62
     7
 10
0
 20
19.499964
 40
3.75
  0
CIRCLE
  8
0
  6
CONTINUOUS
 62
     7
 10
0
 20
19.499964
 40
3
  0
CIRCLE
  8
0
  6
CONTINUOUS
 62
     7
 10
167.00002
 20
88.000214
 40
2
  0
CIRCLE
  8
0
  6
CONTINUOUS
 62
     7
 10
167.00002
 20
88.000214
 40
1.7
  0
ARC
  8
0
  6
CONTINUOUS
 62
     7
 10
150.64989
 20
101.00021
 40
3
 50
89.999982
 51
269.99995
  0
CIRCLE
  8
0
  6
CONTINUOUS
 62
     7
 10
90
 20
101.00021
 40
2.25
  0
CIRCLE
  8
0
  6
CONTINUOUS
 62
     7
 10
90
 20
101.00021
 40
3.75
  0
TEXT
  8
0
  6
CONTINUOUS
 62
     7
 10
-1.2855
 20
-41.8
 40
3.5999999
 41
1.0040715
  1
C0= 16.5  kN
  0
TEXT
  8
0
  6
CONTINUOUS
 62
     7
 10
-1.2855
 20
-36.8
 40
3.5999999
 41
1.0040715
  1
C =  9.51 kN
  0
TEXT
  8
0
  6
CONTINUOUS
 62
     7
 10
-11.2855
 20
-31.8
 40
3.5999999
 41
1.0071251
  1
SSR15XW
  0
ENDSEC
  0
EOF
