  0
SECTION
  2
HEADER
  0
ENDSEC
  0
SECTION
  2
TABLES
  0
TABLE
  2
LTYPE
 70
    22
  0
LTYPE
  2
CONTINUOUS
 70
    64
  3
Solid line
 72
    65
 73
     0
 40
0.000000
  0
LTYPE
  2
DASHED
 70
    64
  3
__ __ __ __ __ __ __ __ __ __ __ __ __ __ __
 72
    65
 73
     2
 40
3.500000
 49
2.000000
 49
-1.500000
  0
LTYPE
  2
CENTER
 70
    64
  3
____ _ ____ _ ____ _ ____ _ ____ _ ____ _ ____
 72
    65
 73
     4
 40
17.500000
 49
13.000000
 49
-1.500000
 49
1.500000
 49
-1.500000
  0
LTYPE
  2
PHANTOM
 70
    64
  3
_____ _ _ _____ _ _ _____ _ _ _____ _ _ ____  
 72
    65
 73
     6
 40
15.500000
 49
8.000000
 49
-1.500000
 49
1.500000
 49
-1.500000
 49
1.500000
 49
-1.500000
  0
LTYPE
  2
DOT
 70
    64
  3
. . . . . . . . . . . . . . . . . . . . . . . .
 72
    65
 73
     2
 40
0.25
 49
0.0
 49
-0.25
  0
ENDTAB
  0
TABLE
  2
LAYER
 70
     1
  0
LAYER
  2
0
 70
     0
 62
     7
  6
CONTINUOUS
  0
ENDTAB
  0
TABLE
  2
STYLE
 70
     1
  0
STYLE
  2
STANDARD
 70
     0
 40
0.000000
 41
1.000000
 50
0.000000
 71
     0
 42
0.200000
  3
txt
  0
ENDTAB
  0
TABLE
  2
VIEW
 70
     0
  0
ENDTAB
  0
ENDSEC
  0
SECTION
  2
BLOCKS
  0
ENDSEC
  0
SECTION
  2
ENTITIES
  0
LINE
  8
0
  6
CONTINUOUS
 62
     7
 10
70.000412
 20
18
 11
150
 21
18
  0
LINE
  8
0
  6
CONTINUOUS
 62
     7
 10
70.000412
 20
0
 11
290.0004
 21
0
  0
LINE
  8
0
  6
DASHED
 62
     7
 10
84.500412
 20
9
 11
95.500412
 21
9
  0
LINE
  8
0
  6
DASHED
 62
     7
 10
84.500412
 20
18
 11
84.500412
 21
9
  0
LINE
  8
0
  6
DASHED
 62
     7
 10
95.500412
 20
18
 11
95.500412
 21
9
  0
LINE
  8
0
  6
DASHED
 62
     7
 10
86.500412
 20
9
 11
86.500412
 21
0
  0
LINE
  8
0
  6
DASHED
 62
     7
 10
93.500412
 20
9
 11
93.500412
 21
0
  0
LINE
  8
0
  6
CENTER
 62
     7
 10
90.000412
 20
19
 11
90.000412
 21
-1
  0
LINE
  8
0
  6
CONTINUOUS
 62
     7
 10
209.99995
 20
18
 11
290.0004
 21
18
  0
LINE
  8
0
  6
CONTINUOUS
 62
     7
 10
70.000412
 20
18
 11
70.000412
 21
0
  0
LINE
  8
0
  6
CONTINUOUS
 62
     7
 10
146.6998
 20
23.000006
 11
149.6998
 21
23.000006
  0
LINE
  8
0
  6
CONTINUOUS
 62
     7
 10
149.2998
 20
27.000004
 11
147.7998
 21
30.500008
  0
LINE
  8
0
  6
CONTINUOUS
 62
     7
 10
148.39986
 20
27.000044
 11
146.79985
 21
30.500053
  0
LINE
  8
0
  6
CONTINUOUS
 62
     7
 10
147.7998
 20
30.500006
 11
142.59979
 21
30.500006
  0
LINE
  8
0
  6
CONTINUOUS
 62
     7
 10
142.59979
 20
30.499945
 11
142.1998
 21
29.919939
  0
LINE
  8
0
  6
CONTINUOUS
 62
     7
 10
142.59979
 20
23.499998
 11
142.19978
 21
24.080004
  0
LINE
  8
0
  6
CONTINUOUS
 62
     7
 10
148.39986
 20
27.000008
 11
146.79985
 21
23.500013
  0
LINE
  8
0
  6
CONTINUOUS
 62
     7
 10
149.29984
 20
27.000006
 11
147.79984
 21
23.500008
  0
LINE
  8
0
  6
CONTINUOUS
 62
     7
 10
147.7998
 20
23.459997
 11
147.7998
 21
23.500006
  0
LINE
  8
0
  6
CONTINUOUS
 62
     7
 10
147.7998
 20
23.500006
 11
142.59979
 21
23.500006
  0
LINE
  8
0
  6
CONTINUOUS
 62
     7
 10
149.6998
 20
31.119982
 11
150
 21
31.420176
  0
LINE
  8
0
  6
CONTINUOUS
 62
     7
 10
150
 20
22.579792
 11
149.69978
 21
22.880001
  0
LINE
  8
0
  6
CONTINUOUS
 62
     7
 10
146.6998
 20
31.000006
 11
149.6998
 21
31.000006
  0
LINE
  8
0
  6
CONTINUOUS
 62
     7
 10
149.6998
 20
22.880011
 11
149.6998
 21
31.119986
  0
LINE
  8
0
  6
CENTER
 62
     7
 10
203.40019
 20
29.699987
 11
207.40019
 21
29.699987
  0
LINE
  8
0
  6
CONTINUOUS
 62
     7
 10
207.50018
 20
7.3130803
 11
206.98711
 21
6.8000031
  0
LINE
  8
0
  6
CENTER
 62
     7
 10
138.42572
 20
27.000006
 11
151
 21
27.000006
  0
LINE
  8
0
  6
CONTINUOUS
 62
     7
 10
199.60007
 20
20.069992
 11
198.40007
 21
20.069992
  0
LINE
  8
0
  6
CONTINUOUS
 62
     7
 10
210
 20
6.8000002
 11
210
 21
32.602997
  0
LINE
  8
0
  6
CONTINUOUS
 62
     7
 10
198.39999
 20
32.602997
 11
207.0002
 21
32.602997
  0
LINE
  8
0
  6
CENTER
 62
     7
 10
205.40019
 20
31.699987
 11
205.40019
 21
27.699987
  0
LINE
  8
0
  6
CONTINUOUS
 62
     7
 10
207.5002
 20
32.602997
 11
207.5002
 21
6.8000002
  0
LINE
  8
0
  6
CONTINUOUS
 62
     7
 10
199.60019
 20
20.069992
 11
199.60019
 21
6.8000002
  0
LINE
  8
0
  6
CONTINUOUS
 62
     7
 10
210
 20
32.602997
 11
207.5002
 21
32.602997
  0
LINE
  8
0
  6
CONTINUOUS
 62
     7
 10
207.0002
 20
32.602978
 11
207.50011
 21
32.103077
  0
LINE
  8
0
  6
CONTINUOUS
 62
     7
 10
198.40007
 20
20.069992
 11
198.40007
 21
33
  0
LINE
  8
0
  6
CONTINUOUS
 62
     7
 10
161.59991
 20
20.069992
 11
161.59991
 21
33
  0
LINE
  8
0
  6
CENTER
 62
     7
 10
155.7998
 20
30.199987
 11
153.39981
 21
30.199987
  0
LINE
  8
0
  6
CENTER
 62
     7
 10
156.59979
 20
29.699987
 11
152.59979
 21
29.699987
  0
LINE
  8
0
  6
CONTINUOUS
 62
     7
 10
152.4998
 20
7.3130794
 11
153.01288
 21
6.8000021
  0
LINE
  8
0
  6
CONTINUOUS
 62
     7
 10
160.39993
 20
20.069992
 11
161.59991
 21
20.069992
  0
LINE
  8
0
  6
CONTINUOUS
 62
     7
 10
150
 20
6.8000002
 11
150
 21
32.602997
  0
LINE
  8
0
  6
CONTINUOUS
 62
     7
 10
161.60001
 20
32.602997
 11
152.99982
 21
32.602997
  0
LINE
  8
0
  6
CONTINUOUS
 62
     7
 10
152.49982
 20
32.602997
 11
152.49982
 21
6.8000002
  0
LINE
  8
0
  6
CENTER
 62
     7
 10
154.59979
 20
31.699987
 11
154.59979
 21
27.699987
  0
LINE
  8
0
  6
CONTINUOUS
 62
     7
 10
150
 20
32.602997
 11
152.49982
 21
32.602997
  0
LINE
  8
0
  6
CONTINUOUS
 62
     7
 10
152.99979
 20
32.602985
 11
152.49988
 21
32.103069
  0
LINE
  8
0
  6
CONTINUOUS
 62
     7
 10
160.39981
 20
20.069992
 11
160.39981
 21
6.8000002
  0
LINE
  8
0
  6
CONTINUOUS
 62
     7
 10
23.499983
 20
31.602999
 11
22.500002
 21
32.602978
  0
LINE
  8
0
  6
CONTINUOUS
 62
     7
 10
11.500153
 20
1.3499947
 11
11.500153
 21
6.2642288
  0
LINE
  8
0
  6
CONTINUOUS
 62
     7
 10
-11.5
 20
15.737457
 11
-11.5
 21
17.150158
  0
LINE
  8
0
  6
CONTINUOUS
 62
     7
 10
-11.500153
 20
1.3499947
 11
-11.500153
 21
6.2642441
  0
LINE
  8
0
  6
CENTER
 62
     7
 10
0
 20
-1
 11
0
 21
34
  0
LINE
  8
0
  6
CONTINUOUS
 62
     7
 10
-11.500108
 20
6.2642665
 11
-8.4561214
 21
8.0217133
  0
LINE
  8
0
  6
CONTINUOUS
 62
     7
 10
10.150177
 20
0
 11
2.5003459
 21
0
  0
LINE
  8
0
  6
CONTINUOUS
 62
     7
 10
-10.314838
 20
13.671098
 11
-7.8964267
 21
9.4822865
  0
LINE
  8
0
  6
CONTINUOUS
 62
     7
 10
23.5
 20
31.602997
 11
23.5
 21
21.403008
  0
LINE
  8
0
  6
DASHED
 62
     7
 10
5.5
 20
9.0000553
 11
-5.5
 21
9.0000553
  0
LINE
  8
0
  6
DASHED
 62
     7
 10
-3.5
 20
0
 11
-3.5
 21
9.0000553
  0
LINE
  8
0
  6
DASHED
 62
     7
 10
3.5
 20
0
 11
3.5
 21
9.0000553
  0
LINE
  8
0
  6
DASHED
 62
     7
 10
-5.5
 20
9.0000553
 11
-5.5
 21
18
  0
LINE
  8
0
  6
DASHED
 62
     7
 10
5.5
 20
9.0000553
 11
5.5
 21
18
  0
LINE
  8
0
  6
CONTINUOUS
 62
     7
 10
2.5003459
 20
0
 11
1.9001867
 21
0.60015929
  0
LINE
  8
0
  6
CONTINUOUS
 62
     7
 10
1.9000549
 20
0.60009766
 11
-1.9000549
 21
0.60009766
  0
LINE
  8
0
  6
CONTINUOUS
 62
     7
 10
-2.4999173
 20
0.00010680011
 11
-1.8998433
 21
0.60018075
  0
LINE
  8
0
  6
CENTER
 62
     7
 10
14.5
 20
30.150007
 11
14.5
 21
25.849997
  0
LINE
  8
0
  6
CONTINUOUS
 62
     7
 10
11.500153
 20
15.737427
 11
11.500153
 21
17.150024
  0
LINE
  8
0
  6
CONTINUOUS
 62
     7
 10
7.72052
 20
18
 11
-7.7205505
 21
18
  0
LINE
  8
0
  6
CONTINUOUS
 62
     7
 10
10.315052
 20
13.671392
 11
7.8962746
 21
9.4819469
  0
LINE
  8
0
  6
CONTINUOUS
 62
     7
 10
23.999777
 20
20.903238
 11
23.500002
 21
21.403013
  0
LINE
  8
0
  6
CONTINUOUS
 62
     7
 10
11.525278
 20
6.8529768
 11
8.0981493
 21
8.8316269
  0
LINE
  8
0
  6
CONTINUOUS
 62
     7
 10
17.330793
 20
6.8529801
 11
11.89041
 21
9.9939861
  0
LINE
  8
0
  6
CONTINUOUS
 62
     7
 10
14.403076
 20
18.35257
 11
14.403076
 21
14.946312
  0
LINE
  8
0
  6
CONTINUOUS
 62
     7
 10
14.403078
 20
14.946091
 11
11.780588
 21
10.403806
  0
LINE
  8
0
  6
CONTINUOUS
 62
     7
 10
11.852753
 20
20.902885
 11
-11.852775
 21
20.902885
  0
LINE
  8
0
  6
CONTINUOUS
 62
     7
 10
23.999786
 20
20.969078
 11
23.999786
 21
8.8129196
  0
LINE
  8
0
  6
CONTINUOUS
 62
     7
 10
22.5
 20
32.602997
 11
-22.499983
 21
32.602997
  0
LINE
  8
0
  6
CONTINUOUS
 62
     7
 10
21.999786
 20
6.8529892
 11
11.525269
 21
6.8529892
  0
LINE
  8
0
  6
CENTER
 62
     7
 10
16.649994
 20
27.999998
 11
12.350006
 21
27.999998
  0
LINE
  8
0
  6
CONTINUOUS
 62
     7
 10
11.852766
 20
20.902893
 11
14.403081
 21
18.352579
  0
LINE
  8
0
  6
CONTINUOUS
 62
     7
 10
11.5001
 20
1.3499418
 11
10.150084
 21
-7.39319E-005
  0
LINE
  8
0
  6
CONTINUOUS
 62
     7
 10
11.50012
 20
6.2642736
 11
8.4561338
 21
8.0217199
  0
LINE
  8
0
  6
CONTINUOUS
 62
     7
 10
10.650177
 20
18
 11
10.492676
 21
18
  0
LINE
  8
0
  6
CONTINUOUS
 62
     7
 10
10.65018
 20
17.999996
 11
11.500184
 21
17.149992
  0
LINE
  8
0
  6
CONTINUOUS
 62
     7
 10
-10.650177
 20
18
 11
-10.492676
 21
18
  0
LINE
  8
0
  6
CONTINUOUS
 62
     7
 10
-10.650161
 20
17.999996
 11
-11.5
 21
17.150158
  0
LINE
  8
0
  6
CONTINUOUS
 62
     7
 10
-11.500113
 20
1.3499243
 11
-10.150098
 21
-9.0790636E-005
  0
LINE
  8
0
  6
CENTER
 62
     7
 10
-17.5
 20
18.527857
 11
-17.5
 21
34
  0
LINE
  8
0
  6
DASHED
 62
     7
 10
-14.499553
 20
23.999968
 11
-14.95
 21
23.21977
  0
LINE
  8
0
  6
DASHED
 62
     7
 10
-20.049999
 20
21.000099
 11
-14.95
 21
21.000099
  0
LINE
  8
0
  6
DASHED
 62
     7
 10
-20.5
 20
24.000099
 11
-14.5
 21
24.000099
  0
LINE
  8
0
  6
DASHED
 62
     7
 10
-20.50004
 20
24.000021
 11
-20.050001
 21
23.22053
  0
LINE
  8
0
  6
DASHED
 62
     7
 10
-14.5
 20
24.000099
 11
-14.5
 21
33
  0
LINE
  8
0
  6
DASHED
 62
     7
 10
-20.5
 20
24.000099
 11
-20.5
 21
33
  0
LINE
  8
0
  6
CONTINUOUS
 62
     7
 10
-24
 20
24.5033
 11
-24
 21
31.72538
  0
LINE
  8
0
  6
CONTINUOUS
 62
     7
 10
-22.802849
 20
33
 11
-23.826786
 21
31.976068
  0
LINE
  8
0
  6
CONTINUOUS
 62
     7
 10
23.999783
 20
20.96909
 11
23.5
 21
23.803501
  0
LINE
  8
0
  6
CONTINUOUS
 62
     7
 10
23.999998
 20
25.502546
 11
23.500002
 21
25.002548
  0
LINE
  8
0
  6
CONTINUOUS
 62
     7
 10
6.2968903
 20
33
 11
6.146215
 21
32.849327
  0
LINE
  8
0
  6
CONTINUOUS
 62
     7
 10
22.802921
 20
33
 11
23.826815
 21
31.97611
  0
LINE
  8
0
  6
CONTINUOUS
 62
     7
 10
-23.999802
 20
20.96908
 11
-23.499638
 21
23.805653
  0
LINE
  8
0
  6
CONTINUOUS
 62
     7
 10
-24
 20
24.5033
 11
-23.631756
 21
24.135057
  0
LINE
  8
0
  6
CONTINUOUS
 62
     7
 10
-6.2968698
 20
33
 11
-6.1461744
 21
32.849304
  0
LINE
  8
0
  6
CONTINUOUS
 62
     7
 10
5.7924805
 20
32.703125
 11
-5.7924805
 21
32.703125
  0
LINE
  8
0
  6
CONTINUOUS
 62
     7
 10
-10.150188
 20
0
 11
-2.5
 21
0
  0
LINE
  8
0
  6
CONTINUOUS
 62
     7
 10
24
 20
25.502548
 11
24
 21
31.725348
  0
LINE
  8
0
  6
CONTINUOUS
 62
     7
 10
-22.802849
 20
33
 11
-6.2968702
 21
33
  0
LINE
  8
0
  6
CONTINUOUS
 62
     7
 10
6.2968898
 20
33
 11
22.802923
 21
33
  0
LINE
  8
0
  6
CONTINUOUS
 62
     7
 10
-23.499983
 20
31.602999
 11
-22.500002
 21
32.602978
  0
LINE
  8
0
  6
CONTINUOUS
 62
     7
 10
-23.5
 20
31.602997
 11
-23.5
 21
21.403008
  0
LINE
  8
0
  6
CENTER
 62
     7
 10
-14.5
 20
30.150007
 11
-14.5
 21
25.849997
  0
LINE
  8
0
  6
CONTINUOUS
 62
     7
 10
-23.999777
 20
20.903238
 11
-23.500002
 21
21.403013
  0
LINE
  8
0
  6
CONTINUOUS
 62
     7
 10
-11.525278
 20
6.8529768
 11
-8.0981493
 21
8.8316269
  0
LINE
  8
0
  6
CONTINUOUS
 62
     7
 10
-17.330793
 20
6.8529801
 11
-11.89041
 21
9.9939861
  0
LINE
  8
0
  6
CONTINUOUS
 62
     7
 10
-14.403076
 20
18.35257
 11
-14.403076
 21
14.946312
  0
LINE
  8
0
  6
CONTINUOUS
 62
     7
 10
-14.403078
 20
14.946091
 11
-11.780588
 21
10.403806
  0
LINE
  8
0
  6
CONTINUOUS
 62
     7
 10
-11.676715
 20
6.8529892
 11
-11.768495
 21
6.8000002
  0
LINE
  8
0
  6
CONTINUOUS
 62
     7
 10
-23.999786
 20
20.969078
 11
-23.999786
 21
8.8129997
  0
LINE
  8
0
  6
CONTINUOUS
 62
     7
 10
-21.999786
 20
6.8529892
 11
-11.525269
 21
6.8529892
  0
LINE
  8
0
  6
CENTER
 62
     7
 10
-16.649994
 20
27.999998
 11
-12.350006
 21
27.999998
  0
LINE
  8
0
  6
CONTINUOUS
 62
     7
 10
-11.852766
 20
20.902893
 11
-14.403081
 21
18.352579
  0
LINE
  8
0
  6
CENTER
 62
     7
 10
-6.3699951
 20
27.000029
 11
13.309982
 21
27.000029
  0
LINE
  8
0
  6
CONTINUOUS
 62
     7
 10
1.7799988
 20
30.497028
 11
5.8599854
 21
30.497028
  0
LINE
  8
0
  6
CONTINUOUS
 62
     7
 10
1.7799988
 20
23.497028
 11
5.8599854
 21
23.497028
  0
LINE
  8
0
  6
CONTINUOUS
 62
     7
 10
1.1299887
 20
26.99699
 11
1.7799826
 21
23.49699
  0
LINE
  8
0
  6
CONTINUOUS
 62
     7
 10
1.1299883
 20
26.997007
 11
1.7799795
 21
30.496992
  0
LINE
  8
0
  6
CONTINUOUS
 62
     7
 10
3.4400034
 20
26.996986
 11
4.0900145
 21
23.496975
  0
LINE
  8
0
  6
CONTINUOUS
 62
     7
 10
3.4399757
 20
26.997002
 11
4.0899868
 21
30.497015
  0
LINE
  8
0
  6
CONTINUOUS
 62
     7
 10
5.9500036
 20
23.967009
 11
5.8599911
 21
23.497005
  0
LINE
  8
0
  6
CONTINUOUS
 62
     7
 10
5.9500275
 20
30.017033
 11
5.8600197
 21
30.497023
  0
LINE
  8
0
  6
CONTINUOUS
 62
     7
 10
7.7659483
 20
23.751318
 11
10.51998
 21
24.496992
  0
LINE
  8
0
  6
CONTINUOUS
 62
     7
 10
7.7499738
 20
30.247023
 11
10.519986
 21
29.497021
  0
LINE
  8
0
  6
CONTINUOUS
 62
     7
 10
0.0004941037
 20
22.37792
 11
1.9477189
 21
23.497028
  0
LINE
  8
0
  6
CONTINUOUS
 62
     7
 10
0.00051197992
 20
22.377932
 11
-4.0005155
 21
24.687925
  0
LINE
  8
0
  6
CONTINUOUS
 62
     7
 10
-4.0004816
 20
24.687923
 11
-4.0009985
 21
29.307022
  0
LINE
  8
0
  6
CONTINUOUS
 62
     7
 10
-4.0010142
 20
29.30703
 11
-0.00049144303
 21
31.616137
  0
LINE
  8
0
  6
CONTINUOUS
 62
     7
 10
-0.00051677122
 20
31.616127
 11
1.9378215
 21
30.497026
  0
LINE
  8
0
  6
CONTINUOUS
 62
     7
 10
161.59991
 20
33
 11
198.40007
 21
33
  0
LINE
  8
0
  6
CONTINUOUS
 62
     7
 10
290.0004
 20
18
 11
290.0004
 21
0
  0
LINE
  8
0
  6
CENTER
 62
     7
 10
150.00041
 20
7.8000002
 11
150.00041
 21
-1
  0
LINE
  8
0
  6
CENTER
 62
     7
 10
210.00041
 20
7.8000002
 11
210.00041
 21
-1
  0
LINE
  8
0
  6
CENTER
 62
     7
 10
270.0004
 20
19
 11
270.0004
 21
-1
  0
LINE
  8
0
  6
DASHED
 62
     7
 10
-14.95
 20
21.000099
 11
-14.95
 21
33
  0
LINE
  8
0
  6
DASHED
 62
     7
 10
-20.049999
 20
21.000099
 11
-20.049999
 21
33
  0
LINE
  8
0
  6
DASHED
 62
     7
 10
-20.049999
 20
21.000099
 11
-17.5
 21
19.527857
  0
LINE
  8
0
  6
DASHED
 62
     7
 10
-14.95
 20
21.000099
 11
-17.5
 21
19.527855
  0
LINE
  8
0
  6
CENTER
 62
     7
 10
17.5
 20
18.527857
 11
17.5
 21
34
  0
LINE
  8
0
  6
DASHED
 62
     7
 10
177.45
 20
21.000105
 11
180
 21
19.527861
  0
LINE
  8
0
  6
DASHED
 62
     7
 10
182.55
 20
21.000103
 11
180
 21
19.527859
  0
LINE
  8
0
  6
CENTER
 62
     7
 10
180
 20
18.527857
 11
180
 21
34
  0
LINE
  8
0
  6
DASHED
 62
     7
 10
183.00044
 20
23.999969
 11
182.55
 21
23.219772
  0
LINE
  8
0
  6
DASHED
 62
     7
 10
177.44998
 20
21.000099
 11
182.54999
 21
21.000099
  0
LINE
  8
0
  6
DASHED
 62
     7
 10
177
 20
24.000099
 11
183
 21
24.000099
  0
LINE
  8
0
  6
DASHED
 62
     7
 10
176.99995
 20
24.000017
 11
177.45
 21
23.220528
  0
LINE
  8
0
  6
DASHED
 62
     7
 10
182.54999
 20
21.000099
 11
182.54999
 21
33
  0
LINE
  8
0
  6
DASHED
 62
     7
 10
183
 20
24.000099
 11
183
 21
33
  0
LINE
  8
0
  6
DASHED
 62
     7
 10
177.44998
 20
21.000099
 11
177.44998
 21
33
  0
LINE
  8
0
  6
DASHED
 62
     7
 10
177
 20
24.000099
 11
177
 21
33
  0
LINE
  8
0
  6
CONTINUOUS
 62
     7
 10
-21.986786
 20
6.8000002
 11
-11.768495
 21
6.8000002
  0
LINE
  8
0
  6
CONTINUOUS
 62
     7
 10
21.986786
 20
6.8000002
 11
11.768495
 21
6.8000002
  0
LINE
  8
0
  6
CONTINUOUS
 62
     7
 10
11.676715
 20
6.8529892
 11
11.768495
 21
6.8000002
  0
LINE
  8
0
  6
CONTINUOUS
 62
     7
 10
150
 20
6.8000002
 11
152.49982
 21
6.8000002
  0
LINE
  8
0
  6
CONTINUOUS
 62
     7
 10
153.01288
 20
6.8000002
 11
160.39981
 21
6.8000002
  0
LINE
  8
0
  6
CONTINUOUS
 62
     7
 10
207.5002
 20
6.8000002
 11
210
 21
6.8000002
  0
LINE
  8
0
  6
CONTINUOUS
 62
     7
 10
160.39981
 20
6.8000002
 11
199.60019
 21
6.8000002
  0
LINE
  8
0
  6
CONTINUOUS
 62
     7
 10
199.60019
 20
6.8000002
 11
206.98711
 21
6.8000002
  0
LINE
  8
0
  6
CONTINUOUS
 62
     7
 10
70.000412
 20
17.150024
 11
150
 21
17.150024
  0
LINE
  8
0
  6
CONTINUOUS
 62
     7
 10
70.000412
 20
15.737371
 11
150
 21
15.737371
  0
LINE
  8
0
  6
CONTINUOUS
 62
     7
 10
70.000412
 20
13.671508
 11
150
 21
13.671508
  0
LINE
  8
0
  6
CONTINUOUS
 62
     7
 10
70.000412
 20
6.2642288
 11
290.0004
 21
6.2642288
  0
LINE
  8
0
  6
CONTINUOUS
 62
     7
 10
210
 20
17.150024
 11
290.0004
 21
17.150024
  0
LINE
  8
0
  6
CONTINUOUS
 62
     7
 10
210
 20
15.737371
 11
290.0004
 21
15.737371
  0
LINE
  8
0
  6
CONTINUOUS
 62
     7
 10
210
 20
13.671508
 11
290.0004
 21
13.671508
  0
LINE
  8
0
  6
CENTER
 62
     7
 10
69.000412
 20
117
 11
291.0004
 21
117
  0
LINE
  8
0
  6
CONTINUOUS
 62
     7
 10
150
 20
141
 11
210
 21
141
  0
LINE
  8
0
  6
CONTINUOUS
 62
     7
 10
150
 20
93
 11
210
 21
93
  0
LINE
  8
0
  6
CONTINUOUS
 62
     7
 10
150
 20
141
 11
150
 21
93
  0
LINE
  8
0
  6
CONTINUOUS
 62
     7
 10
152.49982
 20
141
 11
152.49982
 21
93
  0
LINE
  8
0
  6
CONTINUOUS
 62
     7
 10
207.5002
 20
141
 11
207.5002
 21
93
  0
LINE
  8
0
  6
CONTINUOUS
 62
     7
 10
210
 20
141
 11
210
 21
93
  0
LINE
  8
0
  6
CONTINUOUS
 62
     7
 10
161.59991
 20
141
 11
161.59991
 21
93
  0
LINE
  8
0
  6
CONTINUOUS
 62
     7
 10
198.40007
 20
141
 11
198.40007
 21
93
  0
LINE
  8
0
  6
CENTER
 62
     7
 10
184
 20
99.5
 11
176
 21
99.5
  0
LINE
  8
0
  6
CENTER
 62
     7
 10
180
 20
103.5
 11
180
 21
95.5
  0
LINE
  8
0
  6
CONTINUOUS
 62
     7
 10
161.59991
 20
110.70311
 11
198.40007
 21
110.70311
  0
LINE
  8
0
  6
CONTINUOUS
 62
     7
 10
161.59991
 20
123.29687
 11
198.40007
 21
123.29687
  0
LINE
  8
0
  6
CONTINUOUS
 62
     7
 10
70.000412
 20
105.49985
 11
150
 21
105.49985
  0
LINE
  8
0
  6
CONTINUOUS
 62
     7
 10
70.000412
 20
128.5
 11
150
 21
128.5
  0
LINE
  8
0
  6
CONTINUOUS
 62
     7
 10
70.000412
 20
127.49237
 11
150
 21
127.49237
  0
LINE
  8
0
  6
CONTINUOUS
 62
     7
 10
70.000412
 20
124.72052
 11
150
 21
124.72052
  0
LINE
  8
0
  6
CONTINUOUS
 62
     7
 10
70.000412
 20
109.27948
 11
140.31061
 21
109.27948
  0
LINE
  8
0
  6
CONTINUOUS
 62
     7
 10
70.000412
 20
106.50731
 11
142.52713
 21
106.50731
  0
LINE
  8
0
  6
CONTINUOUS
 62
     7
 10
70.000412
 20
128.5
 11
70.000412
 21
105.49985
  0
LINE
  8
0
  6
CONTINUOUS
 62
     7
 10
290.0004
 20
128.5
 11
290.0004
 21
105.49985
  0
LINE
  8
0
  6
CONTINUOUS
 62
     7
 10
210
 20
105.49985
 11
290.0004
 21
105.49985
  0
LINE
  8
0
  6
CONTINUOUS
 62
     7
 10
210
 20
106.50731
 11
290.0004
 21
106.50731
  0
LINE
  8
0
  6
CONTINUOUS
 62
     7
 10
210
 20
109.27948
 11
290.0004
 21
109.27948
  0
LINE
  8
0
  6
CONTINUOUS
 62
     7
 10
210
 20
124.72052
 11
290.0004
 21
124.72052
  0
LINE
  8
0
  6
CONTINUOUS
 62
     7
 10
210
 20
127.49237
 11
290.0004
 21
127.49237
  0
LINE
  8
0
  6
CONTINUOUS
 62
     7
 10
210
 20
128.5
 11
290.0004
 21
128.5
  0
LINE
  8
0
  6
CENTER
 62
     7
 10
90.000412
 20
123.5
 11
90.000412
 21
110.5
  0
LINE
  8
0
  6
CONTINUOUS
 62
     7
 10
149.69983
 20
112.99998
 11
149.69983
 21
120.99998
  0
LINE
  8
0
  6
CONTINUOUS
 62
     7
 10
146.39992
 20
121
 11
149.69983
 21
121
  0
LINE
  8
0
  6
CONTINUOUS
 62
     7
 10
148.01994
 20
113
 11
149.69983
 21
113
  0
LINE
  8
0
  6
CONTINUOUS
 62
     7
 10
142.39992
 20
117
 11
142.39992
 21
115.32788
  0
LINE
  8
0
  6
CONTINUOUS
 62
     7
 10
149.69981
 20
121
 11
150
 21
121
  0
LINE
  8
0
  6
CONTINUOUS
 62
     7
 10
149.69981
 20
113
 11
150
 21
113
  0
LINE
  8
0
  6
CENTER
 62
     7
 10
141.95168
 20
105.47788
 11
146.81697
 21
117.22377
  0
LINE
  8
0
  6
CONTINUOUS
 62
     7
 10
140.1826
 20
107.47844
 11
144.61722
 21
105.64156
  0
LINE
  8
0
  6
CONTINUOUS
 62
     7
 10
140.38435
 20
110.31734
 11
146.48195
 21
107.79163
  0
LINE
  8
0
  6
CONTINUOUS
 62
     7
 10
140.1826
 20
107.47845
 11
140.38437
 21
110.31734
  0
LINE
  8
0
  6
CONTINUOUS
 62
     7
 10
144.61723
 20
105.64156
 11
146.48198
 21
107.79163
  0
LINE
  8
0
  6
CONTINUOUS
 62
     7
 10
141.12308
 20
114.03819
 11
141.53775
 21
115.03926
  0
LINE
  8
0
  6
CONTINUOUS
 62
     7
 10
148.59067
 20
110.94501
 11
149.00533
 21
111.94607
  0
LINE
  8
0
  6
CONTINUOUS
 62
     7
 10
142.31717
 20
115.36209
 11
141.53773
 21
115.03923
  0
LINE
  8
0
  6
CONTINUOUS
 62
     7
 10
142.76038
 20
112.7106
 11
143.63295
 21
114.81716
  0
LINE
  8
0
  6
CONTINUOUS
 62
     7
 10
146.49416
 20
111.164
 11
147.36671
 21
113.27057
  0
LINE
  8
0
  6
CONTINUOUS
 62
     7
 10
142.31718
 20
115.36216
 11
148.6825
 21
112.72556
  0
LINE
  8
0
  6
CONTINUOUS
 62
     7
 10
149.00534
 20
111.94606
 11
148.68248
 21
112.72552
  0
LINE
  8
0
  6
CONTINUOUS
 62
     7
 10
141.51465
 20
111.73949
 11
146.68835
 21
109.59645
  0
LINE
  8
0
  6
CONTINUOUS
 62
     7
 10
141.35287
 20
113.29361
 11
147.90166
 21
110.58101
  0
LINE
  8
0
  6
CONTINUOUS
 62
     7
 10
146.72609
 20
109.27948
 11
150
 21
109.27948
  0
LINE
  8
0
  6
CONTINUOUS
 62
     7
 10
145.36809
 20
106.50731
 11
150
 21
106.50731
  0
LINE
  8
0
  6
CENTER
 62
     7
 10
150.00041
 20
123.5
 11
150.00041
 21
110.5
  0
LINE
  8
0
  6
CENTER
 62
     7
 10
210.00041
 20
123.5
 11
210.00041
 21
110.5
  0
LINE
  8
0
  6
CENTER
 62
     7
 10
270.00043
 20
123.5
 11
270.00043
 21
110.5
  0
LINE
  8
0
  6
CENTER
 62
     7
 10
180
 20
130.5
 11
180
 21
138.5
  0
LINE
  8
0
  6
CENTER
 62
     7
 10
184
 20
134.5
 11
176
 21
134.5
  0
LINE
  8
0
  6
CONTINUOUS
 62
     7
 10
161.59991
 20
25
 11
198.40007
 21
25
  0
ARC
  8
0
  6
CONTINUOUS
 62
     7
 10
146.69989
 20
27.000067
 40
3.9824657
 50
241.50409
 51
269.99991
  0
ARC
  8
0
  6
CONTINUOUS
 62
     7
 10
151.59988
 20
23.41007
 40
1.8969393
 50
147.50082
 51
178.19122
  0
ARC
  8
0
  6
CONTINUOUS
 62
     7
 10
152.99988
 20
26.470068
 40
3.3184967
 50
186.05432
 51
205.3131
  0
ARC
  8
0
  6
CONTINUOUS
 62
     7
 10
152.99988
 20
27.530066
 40
3.3178797
 50
154.70944
 51
173.94585
  0
ARC
  8
0
  6
CONTINUOUS
 62
     7
 10
151.59976
 20
30.590063
 40
1.9009399
 50
181.80867
 51
212.69479
  0
ARC
  8
0
  6
CONTINUOUS
 62
     7
 10
146.69989
 20
27.000067
 40
4
 50
89.999982
 51
118.4958
  0
CIRCLE
  8
0
  6
CONTINUOUS
 62
     7
 10
154.59979
 20
29.699987
 40
1.5
  0
CIRCLE
  8
0
  6
CONTINUOUS
 62
     7
 10
154.59979
 20
30.199987
 40
0.69999999
  0
ARC
  8
0
  6
CONTINUOUS
 62
     7
 10
-8.9561157
 20
8.8877335
 40
1
 50
300.00001
 51
331.26859
  0
ARC
  8
0
  6
CONTINUOUS
 62
     7
 10
12.040405
 20
10.253807
 40
0.29999998
 50
150
 51
240.00001
  0
ARC
  8
0
  6
CONTINUOUS
 62
     7
 10
8.3481445
 20
9.2646484
 40
0.5
 50
150
 51
240.00003
  0
ARC
  8
0
  6
CONTINUOUS
 62
     7
 10
12.365723
 20
13.868042
 40
2.0600007
 50
114.84372
 51
185.4791
  0
ARC
  8
0
  6
CONTINUOUS
 62
     7
 10
-12.365387
 20
13.867989
 40
2.0600007
 50
354.5119
 51
65.159383
  0
ARC
  8
0
  6
CONTINUOUS
 62
     7
 10
21.999786
 20
8.8529892
 40
2
 50
270
 51
8.6514222E-006
  0
ARC
  8
0
  6
CONTINUOUS
 62
     7
 10
8.8141785
 20
9.085144
 40
1
 50
156.62157
 51
222.69661
  0
ARC
  8
0
  6
CONTINUOUS
 62
     7
 10
8.9561157
 20
8.8877335
 40
1
 50
208.7314
 51
240
  0
ARC
  8
0
  6
CONTINUOUS
 62
     7
 10
-8.8141785
 20
9.085144
 40
1
 50
317.30339
 51
23.399677
  0
ARC
  8
0
  6
CONTINUOUS
 62
     7
 10
5.7924805
 20
33.203125
 40
0.5
 50
269.99315
 51
314.99514
  0
ARC
  8
0
  6
CONTINUOUS
 62
     7
 10
23.10025
 20
31.28894
 40
1
 50
25.874807
 51
43.402939
  0
ARC
  8
0
  6
CONTINUOUS
 62
     7
 10
-23.999847
 20
23.796638
 40
0.5
 50
359.99982
 51
42.68092
  0
ARC
  8
0
  6
CONTINUOUS
 62
     7
 10
-5.7924805
 20
33.203125
 40
0.5
 50
225.00485
 51
270.00687
  0
ARC
  8
0
  6
CONTINUOUS
 62
     7
 10
-23.10025
 20
31.28894
 40
1
 50
136.59706
 51
154.12386
  0
ARC
  8
0
  6
CONTINUOUS
 62
     7
 10
-12.040405
 20
10.253807
 40
0.29999998
 50
299.99999
 51
30.000004
  0
ARC
  8
0
  6
CONTINUOUS
 62
     7
 10
-8.3481445
 20
9.2646484
 40
0.5
 50
299.99996
 51
30.000004
  0
ARC
  8
0
  6
CONTINUOUS
 62
     7
 10
-21.999786
 20
8.8529892
 40
2
 50
179.99999
 51
270
  0
CIRCLE
  8
0
  6
CONTINUOUS
 62
     7
 10
-14.5
 20
27.999998
 40
1.2000002
  0
ARC
  8
0
  6
CONTINUOUS
 62
     7
 10
9.1065979
 20
19.523926
 40
2.0600007
 50
227.71179
 51
312.28524
  0
ARC
  8
0
  6
CONTINUOUS
 62
     7
 10
-9.1064453
 20
19.524078
 40
2.0600007
 50
227.71475
 51
312.28524
  0
ARC
  8
0
  6
CONTINUOUS
 62
     7
 10
7.6100006
 20
24.70702
 40
0.96834219
 50
215.33146
 51
278.29722
  0
ARC
  8
0
  6
CONTINUOUS
 62
     7
 10
6.6200104
 20
22.917027
 40
1.2461481
 50
80.764528
 51
142.12504
  0
ARC
  8
0
  6
CONTINUOUS
 62
     7
 10
6.6200104
 20
31.07703
 40
1.254199
 50
217.87496
 51
279.23536
  0
ARC
  8
0
  6
CONTINUOUS
 62
     7
 10
7.6100006
 20
29.287022
 40
0.97016114
 50
81.702887
 51
144.66854
  0
ARC
  8
0
  6
CONTINUOUS
 62
     7
 10
0
 20
26.997028
 40
4
 50
240.00002
 51
241.04499
  0
ARC
  8
0
  6
CONTINUOUS
 62
     7
 10
0
 20
26.997028
 40
3.998106
 50
61.09402
 51
298.90591
  0
ARC
  8
0
  6
CONTINUOUS
 62
     7
 10
-21.986786
 20
8.8129997
 40
2.013
 50
179.99999
 51
270
  0
ARC
  8
0
  6
CONTINUOUS
 62
     7
 10
21.986786
 20
8.8129997
 40
2.013
 50
270
 51
0.5700351
  0
CIRCLE
  8
0
  6
CONTINUOUS
 62
     7
 10
180
 20
99.5
 40
2.55
  0
CIRCLE
  8
0
  6
CONTINUOUS
 62
     7
 10
180
 20
99.5
 40
3
  0
CIRCLE
  8
0
  6
CONTINUOUS
 62
     7
 10
90.000412
 20
117
 40
3.5
  0
CIRCLE
  8
0
  6
CONTINUOUS
 62
     7
 10
90.000412
 20
117
 40
5.5
  0
ARC
  8
0
  6
CONTINUOUS
 62
     7
 10
153.94957
 20
119
 40
4.2497711
 50
158.33546
 51
201.66453
  0
ARC
  8
0
  6
CONTINUOUS
 62
     7
 10
153.94969
 20
115
 40
4.2498856
 50
158.33604
 51
201.66396
  0
ARC
  8
0
  6
CONTINUOUS
 62
     7
 10
143.43317
 20
109.05447
 40
3.2999992
 50
131.58037
 51
157.49995
  0
ARC
  8
0
  6
CONTINUOUS
 62
     7
 10
143.43317
 20
109.05447
 40
3.2999992
 50
337.50002
 51
3.4196023
  0
ARC
  8
0
  6
CONTINUOUS
 62
     7
 10
135.51682
 20
111.90057
 40
6
 50
2.4336508
 51
20.87174
  0
ARC
  8
0
  6
CONTINUOUS
 62
     7
 10
151.04335
 20
105.46927
 40
6
 50
114.12782
 51
132.56632
  0
ARC
  8
0
  6
CONTINUOUS
 62
     7
 10
140.71211
 20
112.12137
 40
0.79999995
 50
311.57983
 51
2.4330498
  0
ARC
  8
0
  6
CONTINUOUS
 62
     7
 10
147.52585
 20
109.29903
 40
0.79999995
 50
132.56698
 51
183.42014
  0
ARC
  8
0
  6
CONTINUOUS
 62
     7
 10
146.39992
 20
117
 40
4
 50
89.999982
 51
180.00002
  0
POLYLINE
  8
0
  6
CONTINUOUS
 62
     7
 66
     1
 10
0
 20
0
  0
VERTEX
  8
0
  6
CONTINUOUS
 62
     7
 10
141.27581
 20
24.818954
 42
0.062831995
  0
VERTEX
  8
0
  6
CONTINUOUS
 62
     7
 10
141.84011
 20
24.292782
 42
0.066496984
  0
VERTEX
  8
0
  6
CONTINUOUS
 62
     7
 10
142.52011
 20
23.928277
 42
0.069155518
  0
VERTEX
  8
0
  6
CONTINUOUS
 62
     7
 10
143.27246
 20
23.759418
 42
0.069752947
  0
VERTEX
  8
0
  6
CONTINUOUS
 62
     7
 10
144.04122
 20
23.803416
 42
0.068163475
  0
VERTEX
  8
0
  6
CONTINUOUS
 62
     7
 10
144.76906
 20
24.055238
 42
0.064995866
  0
VERTEX
  8
0
  6
CONTINUOUS
 62
     7
 10
145.40563
 20
24.490069
 42
0.06129088
  0
VERTEX
  8
0
  6
CONTINUOUS
 62
     7
 10
145.91368
 20
25.07017
 42
0.058079597
  0
VERTEX
  8
0
  6
CONTINUOUS
 62
     7
 10
146.27068
 20
25.754164
 42
0.055905376
  0
VERTEX
  8
0
  6
CONTINUOUS
 62
     7
 10
146.46434
 20
26.501308
 42
0.054963678
  0
VERTEX
  8
0
  6
CONTINUOUS
 62
     7
 10
146.48936
 20
27.272031
 42
0.055473857
  0
VERTEX
  8
0
  6
CONTINUOUS
 62
     7
 10
146.34528
 20
28.02992
 42
0.057280379
  0
VERTEX
  8
0
  6
CONTINUOUS
 62
     7
 10
146.03587
 20
28.736362
 42
0.06026825
  0
VERTEX
  8
0
  6
CONTINUOUS
 62
     7
 10
145.57063
 20
29.351671
 42
0.063952398
  0
VERTEX
  8
0
  6
CONTINUOUS
 62
     7
 10
144.96842
 20
29.83405
 42
0.067444923
  0
VERTEX
  8
0
  6
CONTINUOUS
 62
     7
 10
144.26177
 20
30.143512
 42
0.06944156
  0
VERTEX
  8
0
  6
CONTINUOUS
 62
     7
 10
143.49988
 20
30.250067
 42
0
  0
SEQEND
  8
0
  0
POLYLINE
  8
0
  6
CONTINUOUS
 62
     7
 66
     1
 10
0
 20
0
  0
VERTEX
  8
0
  6
CONTINUOUS
 62
     7
 10
143.49988
 20
30.250067
 42
0.014349218
  0
VERTEX
  8
0
  6
CONTINUOUS
 62
     7
 10
143.341
 20
30.245506
 42
0.014260561
  0
VERTEX
  8
0
  6
CONTINUOUS
 62
     7
 10
143.18339
 20
30.23193
 42
0.014175678
  0
VERTEX
  8
0
  6
CONTINUOUS
 62
     7
 10
143.02729
 20
30.209488
 42
0.01415087
  0
VERTEX
  8
0
  6
CONTINUOUS
 62
     7
 10
142.87233
 20
30.178165
 42
0.014101582
  0
VERTEX
  8
0
  6
CONTINUOUS
 62
     7
 10
142.71906
 20
30.138057
 42
0.014029578
  0
VERTEX
  8
0
  6
CONTINUOUS
 62
     7
 10
142.56805
 20
30.089313
 42
0.013936997
  0
VERTEX
  8
0
  6
CONTINUOUS
 62
     7
 10
142.4198
 20
30.032128
 42
0.013826277
  0
VERTEX
  8
0
  6
CONTINUOUS
 62
     7
 10
142.27481
 20
29.966738
 42
0.013700067
  0
VERTEX
  8
0
  6
CONTINUOUS
 62
     7
 10
142.13353
 20
29.89342
 42
0.013561144
  0
VERTEX
  8
0
  6
CONTINUOUS
 62
     7
 10
141.99641
 20
29.812476
 42
0.013322373
  0
VERTEX
  8
0
  6
CONTINUOUS
 62
     7
 10
141.8647
 20
29.724858
 42
0.013287801
  0
VERTEX
  8
0
  6
CONTINUOUS
 62
     7
 10
141.73668
 20
29.629495
 42
0.01315487
  0
VERTEX
  8
0
  6
CONTINUOUS
 62
     7
 10
141.61363
 20
29.52729
 42
0.012938335
  0
VERTEX
  8
0
  6
CONTINUOUS
 62
     7
 10
141.49658
 20
29.419276
 42
0.012780343
  0
VERTEX
  8
0
  6
CONTINUOUS
 62
     7
 10
141.38525
 20
29.305387
 42
0.012625331
  0
VERTEX
  8
0
  6
CONTINUOUS
 62
     7
 10
141.27984
 20
29.185989
 42
0
  0
SEQEND
  8
0
  0
POLYLINE
  8
0
  6
CONTINUOUS
 62
     7
 66
     1
 10
0
 20
0
 70
     1
  0
VERTEX
  8
0
  6
CONTINUOUS
 62
     7
 10
142.39987
 20
29.500067
 42
0.11037795
  0
VERTEX
  8
0
  6
CONTINUOUS
 62
     7
 10
141.48771
 20
29.29505
 42
0.1025061
  0
VERTEX
  8
0
  6
CONTINUOUS
 62
     7
 10
140.74038
 20
28.731042
 42
0.093289861
  0
VERTEX
  8
0
  6
CONTINUOUS
 62
     7
 10
140.26278
 20
27.92415
 42
0.087820861
  0
VERTEX
  8
0
  6
CONTINUOUS
 62
     7
 10
140.09988
 20
27.000051
 42
0.087772516
  0
VERTEX
  8
0
  6
CONTINUOUS
 62
     7
 10
140.26261
 20
26.076433
 42
0.093260581
  0
VERTEX
  8
0
  6
CONTINUOUS
 62
     7
 10
140.73991
 20
25.269628
 42
0.1026309
  0
VERTEX
  8
0
  6
CONTINUOUS
 62
     7
 10
141.48812
 20
24.704896
 42
0.1103318
  0
VERTEX
  8
0
  6
CONTINUOUS
 62
     7
 10
142.3999
 20
24.500067
 42
0.11037794
  0
VERTEX
  8
0
  6
CONTINUOUS
 62
     7
 10
143.31206
 20
24.705083
 42
0.10250614
  0
VERTEX
  8
0
  6
CONTINUOUS
 62
     7
 10
144.05939
 20
25.269091
 42
0.093289916
  0
VERTEX
  8
0
  6
CONTINUOUS
 62
     7
 10
144.537
 20
26.075983
 42
0.087820932
  0
VERTEX
  8
0
  6
CONTINUOUS
 62
     7
 10
144.69989
 20
27.000082
 42
0.087772498
  0
VERTEX
  8
0
  6
CONTINUOUS
 62
     7
 10
144.53716
 20
27.9237
 42
0.093260513
  0
VERTEX
  8
0
  6
CONTINUOUS
 62
     7
 10
144.05986
 20
28.730506
 42
0.10263085
  0
VERTEX
  8
0
  6
CONTINUOUS
 62
     7
 10
143.31166
 20
29.295237
 42
0.11033182
  0
SEQEND
  8
0
  0
POLYLINE
  8
0
  6
CONTINUOUS
 62
     7
 66
     1
 10
0
 20
0
  0
VERTEX
  8
0
  6
CONTINUOUS
 62
     7
 10
6.8199921
 20
29.847004
 42
0.18857455
  0
VERTEX
  8
0
  6
CONTINUOUS
 62
     7
 10
6.4602615
 20
29.687315
 42
0.075744661
  0
VERTEX
  8
0
  6
CONTINUOUS
 62
     7
 10
6.216027
 20
29.369479
 42
0.039335945
  0
VERTEX
  8
0
  6
CONTINUOUS
 62
     7
 10
6.0461653
 20
29.004145
 42
0.025771258
  0
VERTEX
  8
0
  6
CONTINUOUS
 62
     7
 10
5.9240109
 20
28.619995
 42
0.019505218
  0
VERTEX
  8
0
  6
CONTINUOUS
 62
     7
 10
5.8365203
 20
28.225783
 42
0.016214611
  0
VERTEX
  8
0
  6
CONTINUOUS
 62
     7
 10
5.7771603
 20
27.826192
 42
0.014466538
  0
VERTEX
  8
0
  6
CONTINUOUS
 62
     7
 10
5.7422928
 20
27.423667
 42
0.013691265
  0
VERTEX
  8
0
  6
CONTINUOUS
 62
     7
 10
5.7300449
 20
27.019523
 42
0.013604816
  0
VERTEX
  8
0
  6
CONTINUOUS
 62
     7
 10
5.7397618
 20
26.616678
 42
0.014315259
  0
VERTEX
  8
0
  6
CONTINUOUS
 62
     7
 10
5.7719122
 20
26.214427
 42
0.015981854
  0
VERTEX
  8
0
  6
CONTINUOUS
 62
     7
 10
5.8284239
 20
25.813609
 42
0.019026755
  0
VERTEX
  8
0
  6
CONTINUOUS
 62
     7
 10
5.9124864
 20
25.418456
 42
0.024879777
  0
VERTEX
  8
0
  6
CONTINUOUS
 62
     7
 10
6.0305029
 20
25.03206
 42
0.037296154
  0
VERTEX
  8
0
  6
CONTINUOUS
 62
     7
 10
6.1945786
 20
24.662877
 42
0.069982848
  0
VERTEX
  8
0
  6
CONTINUOUS
 62
     7
 10
6.4301648
 20
24.335547
 42
0.17382063
  0
VERTEX
  8
0
  6
CONTINUOUS
 62
     7
 10
6.7799327
 20
24.14895
 42
0
  0
SEQEND
  8
0
  0
POLYLINE
  8
0
  6
CONTINUOUS
 62
     7
 66
     1
 10
0
 20
0
 70
     1
  0
VERTEX
  8
0
  6
CONTINUOUS
 62
     7
 10
10.520004
 20
29.497028
 42
0.25515927
  0
VERTEX
  8
0
  6
CONTINUOUS
 62
     7
 10
9.9901944
 20
29.07214
 42
0.063191385
  0
VERTEX
  8
0
  6
CONTINUOUS
 62
     7
 10
9.7360993
 20
28.409254
 42
0.035186389
  0
VERTEX
  8
0
  6
CONTINUOUS
 62
     7
 10
9.6093696
 20
27.709204
 42
0.027985313
  0
VERTEX
  8
0
  6
CONTINUOUS
 62
     7
 10
9.5700073
 20
26.997028
 42
0.027899428
  0
VERTEX
  8
0
  6
CONTINUOUS
 62
     7
 10
9.609141
 20
26.286881
 42
0.03516018
  0
VERTEX
  8
0
  6
CONTINUOUS
 62
     7
 10
9.7356349
 20
25.58659
 42
0.063155732
  0
VERTEX
  8
0
  6
CONTINUOUS
 62
     7
 10
9.9896669
 20
24.92285
 42
0.25528443
  0
VERTEX
  8
0
  6
CONTINUOUS
 62
     7
 10
10.520004
 20
24.497028
 42
0.25515947
  0
VERTEX
  8
0
  6
CONTINUOUS
 62
     7
 10
11.049815
 20
24.921916
 42
0.06319156
  0
VERTEX
  8
0
  6
CONTINUOUS
 62
     7
 10
11.30391
 20
25.584802
 42
0.035186474
  0
VERTEX
  8
0
  6
CONTINUOUS
 62
     7
 10
11.430639
 20
26.284852
 42
0.027985392
  0
VERTEX
  8
0
  6
CONTINUOUS
 62
     7
 10
11.470001
 20
26.997028
 42
0.027899462
  0
VERTEX
  8
0
  6
CONTINUOUS
 62
     7
 10
11.430868
 20
27.707176
 42
0.035160224
  0
VERTEX
  8
0
  6
CONTINUOUS
 62
     7
 10
11.304374
 20
28.407466
 42
0.063155804
  0
VERTEX
  8
0
  6
CONTINUOUS
 62
     7
 10
11.050342
 20
29.071207
 42
0.25528432
  0
SEQEND
  8
0
  0
TEXT
  8
0
  6
CONTINUOUS
 62
     7
 10
-1.2855
 20
-41.8
 40
3.5999999
 41
1.0044532
  1
C0= 22.5 kN
  0
TEXT
  8
0
  6
CONTINUOUS
 62
     7
 10
-1.2855
 20
-36.8
 40
3.5999999
 41
1.0044532
  1
C = 11.7 kN
  0
TEXT
  8
0
  6
CONTINUOUS
 62
     7
 10
-11.2855
 20
-31.8
 40
3.5999999
 41
1.0071251
  1
SSR25XV
  0
ENDSEC
  0
EOF
