  0
SECTION
  2
HEADER
  9
$ACADVER
  1
AC1014
  9
$ACADMAINTVER
 70
     0
  9
$DWGCODEPAGE
  3
ANSI_932
  9
$INSBASE
 10
0.0
 20
0.0
 30
0.0
  9
$EXTMIN
 10
-30.005492
 20
-31.800063
 30
-0.001526
  9
$EXTMAX
 10
381.015931
 20
182.013108
 30
0.0
  9
$LIMMIN
 10
0.0
 20
0.0
  9
$LIMMAX
 10
420.0
 20
297.0
  9
$ORTHOMODE
 70
     0
  9
$REGENMODE
 70
     1
  9
$FILLMODE
 70
     1
  9
$QTEXTMODE
 70
     0
  9
$MIRRTEXT
 70
     1
  9
$DRAGMODE
 70
     2
  9
$LTSCALE
 40
1.0
  9
$OSMODE
 70
     0
  9
$ATTMODE
 70
     1
  9
$TEXTSIZE
 40
3.2
  9
$TRACEWID
 40
1.0
  9
$TEXTSTYLE
  7
STANDARD
  9
$CLAYER
  8
0
  9
$CELTYPE
  6
CONTINUOUS
  9
$CECOLOR
 62
   256
  9
$CELTSCALE
 40
1.0
  9
$DELOBJ
 70
     1
  9
$DISPSILH
 70
     0
  9
$DIMSCALE
 40
1.0
  9
$DIMASZ
 40
1.0
  9
$DIMEXO
 40
2.54
  9
$DIMDLI
 40
3.75
  9
$DIMRND
 40
0.0
  9
$DIMDLE
 40
0.0
  9
$DIMEXE
 40
2.54
  9
$DIMTP
 40
0.0
  9
$DIMTM
 40
0.0
  9
$DIMTXT
 40
4.2
  9
$DIMCEN
 40
2.5
  9
$DIMTSZ
 40
0.0
  9
$DIMTOL
 70
     0
  9
$DIMLIM
 70
     0
  9
$DIMTIH
 70
     0
  9
$DIMTOH
 70
     0
  9
$DIMSE1
 70
     0
  9
$DIMSE2
 70
     0
  9
$DIMTAD
 70
     1
  9
$DIMZIN
 70
     8
  9
$DIMBLK
  1

  9
$DIMASO
 70
     1
  9
$DIMSHO
 70
     0
  9
$DIMPOST
  1

  9
$DIMAPOST
  1

  9
$DIMALT
 70
     0
  9
$DIMALTD
 70
     4
  9
$DIMALTF
 40
0.0394
  9
$DIMLFAC
 40
1.0
  9
$DIMTOFL
 70
     1
  9
$DIMTVP
 40
1.0
  9
$DIMTIX
 70
     0
  9
$DIMSOXD
 70
     0
  9
$DIMSAH
 70
     1
  9
$DIMBLK1
  1

  9
$DIMBLK2
  1

  9
$DIMSTYLE
  2
STANDARD
  9
$DIMCLRD
 70
     0
  9
$DIMCLRE
 70
     0
  9
$DIMCLRT
 70
     0
  9
$DIMTFAC
 40
1.0
  9
$DIMGAP
 40
2.1
  9
$DIMJUST
 70
     0
  9
$DIMSD1
 70
     0
  9
$DIMSD2
 70
     0
  9
$DIMTOLJ
 70
     1
  9
$DIMTZIN
 70
     0
  9
$DIMALTZ
 70
     0
  9
$DIMALTTZ
 70
     0
  9
$DIMFIT
 70
     3
  9
$DIMUPT
 70
     0
  9
$DIMUNIT
 70
     8
  9
$DIMDEC
 70
     2
  9
$DIMTDEC
 70
     4
  9
$DIMALTU
 70
     8
  9
$DIMALTTD
 70
     4
  9
$DIMTXSTY
  7
STANDARD
  9
$DIMAUNIT
 70
     1
  9
$LUNITS
 70
     2
  9
$LUPREC
 70
     4
  9
$SKETCHINC
 40
1.0
  9
$FILLETRAD
 40
10.0
  9
$AUNITS
 70
     0
  9
$AUPREC
 70
     0
  9
$MENU
  1
acad
  9
$ELEVATION
 40
0.0
  9
$PELEVATION
 40
0.0
  9
$THICKNESS
 40
0.0
  9
$LIMCHECK
 70
     0
  9
$BLIPMODE
 70
     0
  9
$CHAMFERA
 40
10.0
  9
$CHAMFERB
 40
10.0
  9
$CHAMFERC
 40
20.0
  9
$CHAMFERD
 40
0.0
  9
$SKPOLY
 70
     0
  9
$TDCREATE
 40
2452416.954167893
  9
$TDUPDATE
 40
2452416.954167893
  9
$TDINDWG
 40
0.0000000000
  9
$TDUSRTIMER
 40
0.0000000000
  9
$USRTIMER
 70
     1
  9
$ANGBASE
 50
0.0
  9
$ANGDIR
 70
     0
  9
$PDMODE
 70
     0
  9
$PDSIZE
 40
0.0
  9
$PLINEWID
 40
0.0
  9
$COORDS
 70
     1
  9
$SPLFRAME
 70
     0
  9
$SPLINETYPE
 70
     6
  9
$SPLINESEGS
 70
     8
  9
$ATTDIA
 70
     0
  9
$ATTREQ
 70
     1
  9
$HANDLING
 70
     1
  9
$HANDSEED
  5
1FF
  9
$SURFTAB1
 70
     6
  9
$SURFTAB2
 70
     6
  9
$SURFTYPE
 70
     6
  9
$SURFU
 70
     6
  9
$SURFV
 70
     6
  9
$UCSNAME
  2

  9
$UCSORG
 10
0.0
 20
0.0
 30
0.0
  9
$UCSXDIR
 10
1.0
 20
0.0
 30
0.0
  9
$UCSYDIR
 10
0.0
 20
1.0
 30
0.0
  9
$PUCSNAME
  2

  9
$PUCSORG
 10
0.0
 20
0.0
 30
0.0
  9
$PUCSXDIR
 10
1.0
 20
0.0
 30
0.0
  9
$PUCSYDIR
 10
0.0
 20
1.0
 30
0.0
  9
$USERI1
 70
     0
  9
$USERI2
 70
     0
  9
$USERI3
 70
     0
  9
$USERI4
 70
     0
  9
$USERI5
 70
     0
  9
$USERR1
 40
0.0
  9
$USERR2
 40
0.0
  9
$USERR3
 40
0.0
  9
$USERR4
 40
0.0
  9
$USERR5
 40
0.0
  9
$WORLDVIEW
 70
     1
  9
$SHADEDGE
 70
     3
  9
$SHADEDIF
 70
    70
  9
$TILEMODE
 70
     1
  9
$MAXACTVP
 70
    48
  9
$PINSBASE
 10
0.0
 20
0.0
 30
0.0
  9
$PLIMCHECK
 70
     0
  9
$PEXTMIN
 10
1.000000E+20
 20
1.000000E+20
 30
1.000000E+20
  9
$PEXTMAX
 10
-1.000000E+20
 20
-1.000000E+20
 30
-1.000000E+20
  9
$PLIMMIN
 10
0.0
 20
0.0
  9
$PLIMMAX
 10
420.0
 20
297.0
  9
$UNITMODE
 70
     0
  9
$VISRETAIN
 70
     1
  9
$PLINEGEN
 70
     0
  9
$PSLTSCALE
 70
     1
  9
$TREEDEPTH
 70
  3020
  9
$PICKSTYLE
 70
     1
  9
$CMLSTYLE
  2
STANDARD
  9
$CMLJUST
 70
     0
  9
$CMLSCALE
 40
20.0
  9
$PROXYGRAPHICS
 70
     1
  9
$MEASUREMENT
 70
     1
  0
ENDSEC
  0
SECTION
  2
CLASSES
  0
ENDSEC
  0
SECTION
  2
TABLES
  0
TABLE
  2
VPORT
  5
D3
100
AcDbSymbolTable
 70
     1
  0
VPORT
  5
1FE
100
AcDbSymbolTableRecord
100
AcDbViewportTableRecord
  2
*ACTIVE
 70
     0
 10
0.0
 20
0.0
 11
1.0
 21
1.0
 12
175.505219
 22
75.106522
 13
0.0
 23
0.0
 14
10.0
 24
10.0
 15
10.0
 25
10.0
 16
0.0
 26
0.0
 36
1.0
 17
0.0
 27
0.0
 37
0.0
 40
288.580295
 41
1.431515
 42
50.0
 43
0.0
 44
0.0
 50
0.0
 51
0.0
 71
     0
 72
   100
 73
     1
 74
     1
 75
     0
 76
     0
 77
     0
 78
     0
  0
ENDTAB
  0
TABLE
  2
LTYPE
  5
25
100
AcDbSymbolTable
 70
    46
  0
LTYPE
  5
26
100
AcDbSymbolTableRecord
100
AcDbLinetypeTableRecord
  2
BYBLOCK
 70
     0
  3

 72
    65
 73
     0
 40
0.0
  0
LTYPE
  5
27
100
AcDbSymbolTableRecord
100
AcDbLinetypeTableRecord
  2
BYLAYER
 70
     0
  3

 72
    65
 73
     0
 40
0.0
  0
LTYPE
  5
28
100
AcDbSymbolTableRecord
100
AcDbLinetypeTableRecord
  2
CONTINUOUS
 70
     0
  3
Solid line
 72
    65
 73
     0
 40
0.0
  0
LTYPE
  5
29
100
AcDbSymbolTableRecord
100
AcDbLinetypeTableRecord
  2
DASHED
 70
     0
  3
Dashed __ __ __ __ __ __ __ __ __ __ __ __ __ _
 72
    65
 73
     2
 40
4.5
 49
3.0
 74
     0
 49
-1.5
 74
     0
  0
LTYPE
  5
2A
100
AcDbSymbolTableRecord
100
AcDbLinetypeTableRecord
  2
CENTER
 70
     0
  3
Center ____ _ ____ _ ____ _ ____ _ ____ _ ____
 72
    65
 73
     4
 40
12.0
 49
7.5
 74
     0
 49
-1.5
 74
     0
 49
1.5
 74
     0
 49
-1.5
 74
     0
  0
LTYPE
  5
2B
100
AcDbSymbolTableRecord
100
AcDbLinetypeTableRecord
  2
PHANTOM
 70
     0
  3
Phantom ______  __  __  ______  __  __  ______
 72
    65
 73
     6
 40
15.0
 49
7.5
 74
     0
 49
-1.5
 74
     0
 49
1.5
 74
     0
 49
-1.5
 74
     0
 49
1.5
 74
     0
 49
-1.5
 74
     0
  0
LTYPE
  5
2C
100
AcDbSymbolTableRecord
100
AcDbLinetypeTableRecord
  2
DOT
 70
     0
  3
Dot . . . . . . . . . . . . . . . . . . . . . .
 72
    65
 73
     2
 40
1.5
 49
0.0
 74
     0
 49
-1.5
 74
     0
  0
LTYPE
  5
2D
100
AcDbSymbolTableRecord
100
AcDbLinetypeTableRecord
  2
HIDDEN
 70
     0
  3
Hidden __ __ __ __ __ __ __ __ __ __ __ __ __ _
 72
    65
 73
     2
 40
4.5
 49
3.0
 74
     0
 49
-1.5
 74
     0
  0
LTYPE
  5
2E
100
AcDbSymbolTableRecord
100
AcDbLinetypeTableRecord
  2
BORDER
 70
     0
  3
Border __ __ . __ __ . __ __ . __ __ . __ __ .
 72
    65
 73
     6
 40
3.5
 49
1.0
 74
     0
 49
-0.5
 74
     0
 49
1.0
 74
     0
 49
-0.5
 74
     0
 49
0.0
 74
     0
 49
-0.5
 74
     0
  0
LTYPE
  5
2F
100
AcDbSymbolTableRecord
100
AcDbLinetypeTableRecord
  2
BORDER2
 70
     0
  3
Border (.5x) __.__.__.__.__.__.__.__.__.__.__.
 72
    65
 73
     6
 40
1.75
 49
0.5
 74
     0
 49
-0.25
 74
     0
 49
0.5
 74
     0
 49
-0.25
 74
     0
 49
0.0
 74
     0
 49
-0.25
 74
     0
  0
LTYPE
  5
30
100
AcDbSymbolTableRecord
100
AcDbLinetypeTableRecord
  2
BORDERX2
 70
     0
  3
Border (2x) ____  ____  .  ____  ____  .  ___
 72
    65
 73
     6
 40
7.0
 49
2.0
 74
     0
 49
-1.0
 74
     0
 49
2.0
 74
     0
 49
-1.0
 74
     0
 49
0.0
 74
     0
 49
-1.0
 74
     0
  0
LTYPE
  5
31
100
AcDbSymbolTableRecord
100
AcDbLinetypeTableRecord
  2
CENTER2
 70
     0
  3
Center (.5x) ___ _ ___ _ ___ _ ___ _ ___ _ ___
 72
    65
 73
     4
 40
6.0
 49
3.75
 74
     0
 49
-0.75
 74
     0
 49
0.75
 74
     0
 49
-0.75
 74
     0
  0
LTYPE
  5
32
100
AcDbSymbolTableRecord
100
AcDbLinetypeTableRecord
  2
CENTERX2
 70
     0
  3
Center (2x) ________  __  ________  __  _____
 72
    65
 73
     4
 40
24.0
 49
15.0
 74
     0
 49
-3.0
 74
     0
 49
3.0
 74
     0
 49
-3.0
 74
     0
  0
LTYPE
  5
33
100
AcDbSymbolTableRecord
100
AcDbLinetypeTableRecord
  2
DASHDOT
 70
     0
  3
Dash dot __ . __ . __ . __ . __ . __ . __ . __
 72
    65
 73
     4
 40
6.0
 49
3.0
 74
     0
 49
-1.5
 74
     0
 49
0.0
 74
     0
 49
-1.5
 74
     0
  0
LTYPE
  5
34
100
AcDbSymbolTableRecord
100
AcDbLinetypeTableRecord
  2
DASHDOT2
 70
     0
  3
Dash dot (.5x) _._._._._._._._._._._._._._._.
 72
    65
 73
     4
 40
3.0
 49
1.5
 74
     0
 49
-0.75
 74
     0
 49
0.0
 74
     0
 49
-0.75
 74
     0
  0
LTYPE
  5
35
100
AcDbSymbolTableRecord
100
AcDbLinetypeTableRecord
  2
DASHDOTX2
 70
     0
  3
Dash dot (2x) ____  .  ____  .  ____  .  ___
 72
    65
 73
     4
 40
12.0
 49
6.0
 74
     0
 49
-3.0
 74
     0
 49
0.0
 74
     0
 49
-3.0
 74
     0
  0
LTYPE
  5
36
100
AcDbSymbolTableRecord
100
AcDbLinetypeTableRecord
  2
DASHED2
 70
     0
  3
Dashed (.5x) _ _ _ _ _ _ _ _ _ _ _ _ _ _ _ _ _
 72
    65
 73
     2
 40
2.25
 49
1.5
 74
     0
 49
-0.75
 74
     0
  0
LTYPE
  5
37
100
AcDbSymbolTableRecord
100
AcDbLinetypeTableRecord
  2
DASHEDX2
 70
     0
  3
Dashed (2x) ____  ____  ____  ____  ____  ___
 72
    65
 73
     2
 40
9.0
 49
6.0
 74
     0
 49
-3.0
 74
     0
  0
LTYPE
  5
38
100
AcDbSymbolTableRecord
100
AcDbLinetypeTableRecord
  2
DIVIDE
 70
     0
  3
Divide ____ . . ____ . . ____ . . ____ . . ____
 72
    65
 73
     6
 40
7.5
 49
3.0
 74
     0
 49
-1.5
 74
     0
 49
0.0
 74
     0
 49
-1.5
 74
     0
 49
0.0
 74
     0
 49
-1.5
 74
     0
  0
LTYPE
  5
39
100
AcDbSymbolTableRecord
100
AcDbLinetypeTableRecord
  2
DIVIDE2
 70
     0
  3
Divide (.5x) __..__..__..__..__..__..__..__.._
 72
    65
 73
     6
 40
3.75
 49
1.5
 74
     0
 49
-0.75
 74
     0
 49
0.0
 74
     0
 49
-0.75
 74
     0
 49
0.0
 74
     0
 49
-0.75
 74
     0
  0
LTYPE
  5
3A
100
AcDbSymbolTableRecord
100
AcDbLinetypeTableRecord
  2
DIVIDEX2
 70
     0
  3
Divide (2x) ________  .  .  ________  .  .  _
 72
    65
 73
     6
 40
15.0
 49
6.0
 74
     0
 49
-3.0
 74
     0
 49
0.0
 74
     0
 49
-3.0
 74
     0
 49
0.0
 74
     0
 49
-3.0
 74
     0
  0
LTYPE
  5
3B
100
AcDbSymbolTableRecord
100
AcDbLinetypeTableRecord
  2
DOT2
 70
     0
  3
Dot (.5x) .....................................
 72
    65
 73
     2
 40
0.75
 49
0.0
 74
     0
 49
-0.75
 74
     0
  0
LTYPE
  5
3C
100
AcDbSymbolTableRecord
100
AcDbLinetypeTableRecord
  2
DOTX2
 70
     0
  3
Dot (2x) .  .  .  .  .  .  .  .  .  .  .  .  . 
 72
    65
 73
     2
 40
3.0
 49
0.0
 74
     0
 49
-3.0
 74
     0
  0
LTYPE
  5
3D
100
AcDbSymbolTableRecord
100
AcDbLinetypeTableRecord
  2
HIDDEN2
 70
     0
  3
Hidden (.5x) _ _ _ _ _ _ _ _ _ _ _ _ _ _ _ _ _
 72
    65
 73
     2
 40
2.25
 49
1.5
 74
     0
 49
-0.75
 74
     0
  0
LTYPE
  5
3E
100
AcDbSymbolTableRecord
100
AcDbLinetypeTableRecord
  2
HIDDENX2
 70
     0
  3
Hidden (2x) ____ ____ ____ ____ ____ ____ ____
 72
    65
 73
     2
 40
9.0
 49
6.0
 74
     0
 49
-3.0
 74
     0
  0
LTYPE
  5
3F
100
AcDbSymbolTableRecord
100
AcDbLinetypeTableRecord
  2
PHANTOM2
 70
     0
  3
Phantom (.5x) ___ _ _ ___ _ _ ___ _ _ ___ _ _
 72
    65
 73
     6
 40
7.5
 49
3.75
 74
     0
 49
-0.75
 74
     0
 49
0.75
 74
     0
 49
-0.75
 74
     0
 49
0.75
 74
     0
 49
-0.75
 74
     0
  0
LTYPE
  5
40
100
AcDbSymbolTableRecord
100
AcDbLinetypeTableRecord
  2
PHANTOMX2
 70
     0
  3
Phantom (2x) ____________    ____    ____   _
 72
    65
 73
     6
 40
30.0
 49
15.0
 74
     0
 49
-3.0
 74
     0
 49
3.0
 74
     0
 49
-3.0
 74
     0
 49
3.0
 74
     0
 49
-3.0
 74
     0
  0
LTYPE
  5
41
100
AcDbSymbolTableRecord
100
AcDbLinetypeTableRecord
  2
ACAD_ISO02W100
 70
     0
  3
ISO dash __ __ __ __ __ __ __ __ __ __ __ __ __
 72
    65
 73
     2
 40
15.0
 49
12.0
 74
     0
 49
-3.0
 74
     0
  0
LTYPE
  5
42
100
AcDbSymbolTableRecord
100
AcDbLinetypeTableRecord
  2
ACAD_ISO03W100
 70
     0
  3
ISO dash space __    __    __    __    __    __
 72
    65
 73
     2
 40
30.0
 49
12.0
 74
     0
 49
-18.0
 74
     0
  0
LTYPE
  5
43
100
AcDbSymbolTableRecord
100
AcDbLinetypeTableRecord
  2
ACAD_ISO04W100
 70
     0
  3
ISO long-dash dot ____ . ____ . ____ . ____ . _
 72
    65
 73
     4
 40
30.0
 49
24.0
 74
     0
 49
-3.0
 74
     0
 49
0.0
 74
     0
 49
-3.0
 74
     0
  0
LTYPE
  5
44
100
AcDbSymbolTableRecord
100
AcDbLinetypeTableRecord
  2
ACAD_ISO05W100
 70
     0
  3
ISO long-dash double-dot ____ .. ____ .. ____ .
 72
    65
 73
     6
 40
33.0
 49
24.0
 74
     0
 49
-3.0
 74
     0
 49
0.0
 74
     0
 49
-3.0
 74
     0
 49
0.0
 74
     0
 49
-3.0
 74
     0
  0
LTYPE
  5
45
100
AcDbSymbolTableRecord
100
AcDbLinetypeTableRecord
  2
ACAD_ISO06W100
 70
     0
  3
ISO long-dash triple-dot ____ ... ____ ... ____
 72
    65
 73
     8
 40
36.0
 49
24.0
 74
     0
 49
-3.0
 74
     0
 49
0.0
 74
     0
 49
-3.0
 74
     0
 49
0.0
 74
     0
 49
-3.0
 74
     0
 49
0.0
 74
     0
 49
-3.0
 74
     0
  0
LTYPE
  5
46
100
AcDbSymbolTableRecord
100
AcDbLinetypeTableRecord
  2
ACAD_ISO07W100
 70
     0
  3
ISO dot . . . . . . . . . . . . . . . . . . . .
 72
    65
 73
     2
 40
3.0
 49
0.0
 74
     0
 49
-3.0
 74
     0
  0
LTYPE
  5
47
100
AcDbSymbolTableRecord
100
AcDbLinetypeTableRecord
  2
ACAD_ISO08W100
 70
     0
  3
ISO long-dash short-dash ____ __ ____ __ ____ _
 72
    65
 73
     4
 40
36.0
 49
24.0
 74
     0
 49
-3.0
 74
     0
 49
6.0
 74
     0
 49
-3.0
 74
     0
  0
LTYPE
  5
48
100
AcDbSymbolTableRecord
100
AcDbLinetypeTableRecord
  2
ACAD_ISO09W100
 70
     0
  3
ISO long-dash double-short-dash ____ __ __ ____
 72
    65
 73
     6
 40
45.0
 49
24.0
 74
     0
 49
-3.0
 74
     0
 49
6.0
 74
     0
 49
-3.0
 74
     0
 49
6.0
 74
     0
 49
-3.0
 74
     0
  0
LTYPE
  5
49
100
AcDbSymbolTableRecord
100
AcDbLinetypeTableRecord
  2
ACAD_ISO10W100
 70
     0
  3
ISO dash dot __ . __ . __ . __ . __ . __ . __ .
 72
    65
 73
     4
 40
18.0
 49
12.0
 74
     0
 49
-3.0
 74
     0
 49
0.0
 74
     0
 49
-3.0
 74
     0
  0
LTYPE
  5
4A
100
AcDbSymbolTableRecord
100
AcDbLinetypeTableRecord
  2
ACAD_ISO11W100
 70
     0
  3
ISO double-dash dot __ __ . __ __ . __ __ . __ 
 72
    65
 73
     6
 40
33.0
 49
12.0
 74
     0
 49
-3.0
 74
     0
 49
12.0
 74
     0
 49
-3.0
 74
     0
 49
0.0
 74
     0
 49
-3.0
 74
     0
  0
LTYPE
  5
4B
100
AcDbSymbolTableRecord
100
AcDbLinetypeTableRecord
  2
ACAD_ISO12W100
 70
     0
  3
ISO dash double-dot __ . . __ . . __ . . __ . .
 72
    65
 73
     6
 40
21.0
 49
12.0
 74
     0
 49
-3.0
 74
     0
 49
0.0
 74
     0
 49
-3.0
 74
     0
 49
0.0
 74
     0
 49
-3.0
 74
     0
  0
LTYPE
  5
4C
100
AcDbSymbolTableRecord
100
AcDbLinetypeTableRecord
  2
ACAD_ISO13W100
 70
     0
  3
ISO double-dash double-dot __ __ . . __ __ . . 
 72
    65
 73
     8
 40
36.0
 49
12.0
 74
     0
 49
-3.0
 74
     0
 49
12.0
 74
     0
 49
-3.0
 74
     0
 49
0.0
 74
     0
 49
-3.0
 74
     0
 49
0.0
 74
     0
 49
-3.0
 74
     0
  0
LTYPE
  5
4D
100
AcDbSymbolTableRecord
100
AcDbLinetypeTableRecord
  2
ACAD_ISO14W100
 70
     0
  3
ISO dash triple-dot __ . . . __ . . . __ . . . 
 72
    65
 73
     8
 40
24.0
 49
12.0
 74
     0
 49
-3.0
 74
     0
 49
0.0
 74
     0
 49
-3.0
 74
     0
 49
0.0
 74
     0
 49
-3.0
 74
     0
 49
0.0
 74
     0
 49
-3.0
 74
     0
  0
LTYPE
  5
4E
100
AcDbSymbolTableRecord
100
AcDbLinetypeTableRecord
  2
ACAD_ISO15W100
 70
     0
  3
ISO double-dash triple-dot __ __ . . . __ __ . 
 72
    65
 73
    10
 40
39.0
 49
12.0
 74
     0
 49
-3.0
 74
     0
 49
12.0
 74
     0
 49
-3.0
 74
     0
 49
0.0
 74
     0
 49
-3.0
 74
     0
 49
0.0
 74
     0
 49
-3.0
 74
     0
 49
0.0
 74
     0
 49
-3.0
 74
     0
  0
LTYPE
  5
4F
100
AcDbSymbolTableRecord
100
AcDbLinetypeTableRecord
  2
FENCELINE1
 70
     0
  3
Fenceline circle ----0-----0----0-----0----0---
 72
    65
 73
     4
 40
1.45
 49
0.25
 74
     0
 49
-0.1
 74
     4
 75
   133
340
24
 46
0.1
 50
0.0
 44
-0.1
 45
0.0
 49
-0.1
 74
     0
 49
1.0
 74
     0
  0
LTYPE
  5
50
100
AcDbSymbolTableRecord
100
AcDbLinetypeTableRecord
  2
FENCELINE2
 70
     0
  3
Fenceline square ----[]-----[]----[]-----[]----
 72
    65
 73
     4
 40
1.45
 49
0.25
 74
     0
 49
-0.1
 74
     4
 75
   132
340
24
 46
0.1
 50
0.0
 44
-0.1
 45
0.0
 49
-0.1
 74
     0
 49
1.0
 74
     0
  0
LTYPE
  5
51
100
AcDbSymbolTableRecord
100
AcDbLinetypeTableRecord
  2
TRACKS
 70
     0
  3
Tracks -|-|-|-|-|-|-|-|-|-|-|-|-|-|-|-|-|-|-|-|
 72
    65
 73
     2
 40
0.3
 49
0.15
 74
     4
 75
   130
340
24
 46
0.25
 50
0.0
 44
0.0
 45
0.0
 49
0.15
 74
     0
  0
LTYPE
  5
52
100
AcDbSymbolTableRecord
100
AcDbLinetypeTableRecord
  2
BATTING
 70
     0
  3
Batting SSSSSSSSSSSSSSSSSSSSSSSSSSSSSSSSSSSSSSS
 72
    65
 73
     4
 40
0.4001
 49
0.0001
 74
     0
 49
-0.1
 74
     4
 75
   134
340
24
 46
0.1
 50
0.0
 44
-0.1
 45
0.0
 49
-0.2
 74
     4
 75
   134
340
24
 46
0.1
 50
180.0
 44
0.1
 45
0.0
 49
-0.1
 74
     0
  0
LTYPE
  5
53
100
AcDbSymbolTableRecord
100
AcDbLinetypeTableRecord
  2
HOT_WATER_SUPPLY
 70
     0
  3
Hot water supply ---- HW ---- HW ---- HW ----
 72
    65
 73
     3
 40
0.9
 49
0.5
 74
     0
 49
-0.2
 74
     2
 75
     0
340
23
 46
0.1
 50
0.0
 44
-0.1
 45
-0.05
  9
HW
 49
-0.2
 74
     0
  0
LTYPE
  5
54
100
AcDbSymbolTableRecord
100
AcDbLinetypeTableRecord
  2
GAS_LINE
 70
     0
  3
Gas line ----GAS----GAS----GAS----GAS----GAS---
 72
    65
 73
     3
 40
0.95
 49
0.5
 74
     0
 49
-0.2
 74
     2
 75
     0
340
23
 46
0.1
 50
0.0
 44
-0.1
 45
-0.05
  9
GAS
 49
-0.25
 74
     0
  0
LTYPE
  5
55
100
AcDbSymbolTableRecord
100
AcDbLinetypeTableRecord
  2
ZIGZAG
 70
     0
  3
Zig zag /\/\/\/\/\/\/\/\/\/\/\/\/\/\/\/\/\/\/\/
 72
    65
 73
     4
 40
0.8001
 49
0.0001
 74
     0
 49
-0.2
 74
     4
 75
   131
340
24
 46
0.2
 50
0.0
 44
-0.2
 45
0.0
 49
-0.4
 74
     4
 75
   131
340
24
 46
0.2
 50
180.0
 44
0.2
 45
0.0
 49
-0.2
 74
     0
  0
ENDTAB
  0
TABLE
  2
LAYER
  5
C8
100
AcDbSymbolTable
 70
     1
  0
LAYER
  5
C9
100
AcDbSymbolTableRecord
100
AcDbLayerTableRecord
  2
0
 70
     0
 62
     7
  6
CONTINUOUS
  0
ENDTAB
  0
TABLE
  2
STYLE
  5
CA
100
AcDbSymbolTable
 70
     2
  0
STYLE
  5
23
100
AcDbSymbolTableRecord
100
AcDbTextStyleTableRecord
  2
STANDARD
 70
     0
 40
0.0
 41
1.0
 50
0.0
 71
     0
 42
0.2
  3
txt
  4

  0
STYLE
  5
24
100
AcDbSymbolTableRecord
100
AcDbTextStyleTableRecord
  2

 70
     1
 40
0.0
 41
1.0
 50
0.0
 71
     0
 42
0.2
  3
ltypeshp.shx
  4

  0
ENDTAB
  0
TABLE
  2
VIEW
  5
CE
100
AcDbSymbolTable
 70
     0
  0
ENDTAB
  0
TABLE
  2
UCS
  5
CF
100
AcDbSymbolTable
 70
     0
  0
ENDTAB
  0
TABLE
  2
APPID
  5
CC
100
AcDbSymbolTable
 70
     1
  0
APPID
  5
CD
100
AcDbSymbolTableRecord
100
AcDbRegAppTableRecord
  2
ACAD
 70
     0
  0
ENDTAB
  0
TABLE
  2
DIMSTYLE
  5
CB
100
AcDbSymbolTable
 70
     1
  0
DIMSTYLE
105
1FB
100
AcDbSymbolTableRecord
100
AcDbDimStyleTableRecord
  2
STANDARD
 70
     0
  3

  4

  5

  6

  7

 40
1.0
 41
0.18
 42
0.0625
 43
0.38
 44
0.18
 45
0.0
 46
0.0
 47
0.0
 48
0.0
140
0.18
141
0.09
142
0.0
143
25.4
144
1.0
145
0.0
146
1.0
147
0.09
 71
     0
 72
     0
 73
     1
 74
     1
 75
     0
 76
     0
 77
     0
 78
     0
170
     0
171
     2
172
     0
173
     0
174
     0
175
     0
176
     0
177
     0
178
     0
270
     2
271
     4
272
     4
273
     2
274
     2
340
23
275
     0
280
     0
281
     0
282
     0
283
     1
284
     0
285
     0
286
     0
287
     3
288
     0
  0
ENDTAB
  0
TABLE
  2
BLOCK_RECORD
  5
D0
100
AcDbSymbolTable
 70
     0
  0
BLOCK_RECORD
  5
D1
100
AcDbSymbolTableRecord
100
AcDbBlockTableRecord
  2
*MODEL_SPACE
  0
BLOCK_RECORD
  5
D2
100
AcDbSymbolTableRecord
100
AcDbBlockTableRecord
  2
*PAPER_SPACE
  0
ENDTAB
  0
ENDSEC
  0
SECTION
  2
BLOCKS
  0
BLOCK
  5
D4
100
AcDbEntity
  8
0
100
AcDbBlockBegin
  2
*MODEL_SPACE
 70
     0
 10
0.0
 20
0.0
 30
0.0
  3
*MODEL_SPACE
  1

  0
ENDBLK
  5
D5
100
AcDbEntity
  8
0
100
AcDbBlockEnd
  0
BLOCK
  5
D6
100
AcDbEntity
 67
     1
  8
0
100
AcDbBlockBegin
  2
*PAPER_SPACE
 70
     0
 10
0.0
 20
0.0
 30
0.0
  3
*PAPER_SPACE
  1

  0
ENDBLK
  5
D7
100
AcDbEntity
 67
     1
  8
0
100
AcDbBlockEnd
  0
ENDSEC
  0
SECTION
  2
ENTITIES
  0
LINE
  5
D8
100
AcDbEntity
  8
0
  6
CENTER
 62
     7
100
AcDbLine
 10
195.85524
 20
38.500076
 30
0.0
 11
198.26207
 21
38.500076
 31
0.0
  0
LINE
  5
D9
100
AcDbEntity
  8
0
  6
CONTINUOUS
 62
     7
100
AcDbLine
 10
194.44989
 20
9.499981
 30
0.0
 11
193.94986
 21
10.000013
 31
0.0
  0
LINE
  5
DA
100
AcDbEntity
  8
0
  6
CENTER
 62
     7
100
AcDbLine
 10
197.04987
 20
40.307098
 30
0.0
 11
197.04987
 21
34.824875
 31
0.0
  0
LINE
  5
DB
100
AcDbEntity
  8
0
  6
CONTINUOUS
 62
     7
100
AcDbLine
 10
193.94989
 20
41.600052
 30
0.0
 11
193.94989
 21
9.499992
 31
0.0
  0
LINE
  5
DC
100
AcDbEntity
  8
0
  6
CONTINUOUS
 62
     7
100
AcDbLine
 10
194.44986
 20
41.600075
 30
0.0
 11
204.64998
 21
41.600075
 31
0.0
  0
LINE
  5
DD
100
AcDbEntity
  8
0
  6
CONTINUOUS
 62
     7
100
AcDbLine
 10
203.14998
 20
26.600006
 30
0.0
 11
203.14998
 21
9.499992
 31
0.0
  0
LINE
  5
DE
100
AcDbEntity
  8
0
  6
CONTINUOUS
 62
     7
100
AcDbLine
 10
203.14998
 20
26.600006
 30
0.0
 11
204.64998
 21
26.600006
 31
0.0
  0
LINE
  5
DF
100
AcDbEntity
  8
0
  6
CONTINUOUS
 62
     7
100
AcDbLine
 10
194.39987
 20
9.499992
 30
0.0
 11
285.60013
 21
9.499992
 31
0.0
  0
LINE
  5
E0
100
AcDbEntity
  8
0
  6
CONTINUOUS
 62
     7
100
AcDbLine
 10
204.64998
 20
42.0
 30
0.0
 11
204.64998
 21
26.600006
 31
0.0
  0
LINE
  5
E1
100
AcDbEntity
  8
0
  6
CENTER
 62
     7
100
AcDbLine
 10
282.95013
 20
40.307098
 30
0.0
 11
282.95013
 21
34.824875
 31
0.0
  0
LINE
  5
E2
100
AcDbEntity
  8
0
  6
CONTINUOUS
 62
     7
100
AcDbLine
 10
285.55008
 20
9.500022
 30
0.0
 11
286.05008
 21
10.000023
 31
0.0
  0
LINE
  5
E3
100
AcDbEntity
  8
0
  6
CONTINUOUS
 62
     7
100
AcDbLine
 10
286.05014
 20
41.600052
 30
0.0
 11
288.5
 21
41.600052
 31
0.0
  0
LINE
  5
E4
100
AcDbEntity
  8
0
  6
CONTINUOUS
 62
     7
100
AcDbLine
 10
285.55008
 20
41.600052
 30
0.0
 11
286.05008
 21
41.100052
 31
0.0
  0
LINE
  5
E5
100
AcDbEntity
  8
0
  6
CONTINUOUS
 62
     7
100
AcDbLine
 10
288.5
 20
9.499992
 30
0.0
 11
286.05014
 21
9.499992
 31
0.0
  0
LINE
  5
E6
100
AcDbEntity
  8
0
  6
CENTER
 62
     7
100
AcDbLine
 10
285.52643
 20
37.5
 30
0.0
 11
280.35623
 21
37.5
 31
0.0
  0
LINE
  5
E7
100
AcDbEntity
  8
0
  6
CONTINUOUS
 62
     7
100
AcDbLine
 10
288.5
 20
9.499992
 30
0.0
 11
288.5
 21
41.600052
 31
0.0
  0
LINE
  5
E8
100
AcDbEntity
  8
0
  6
CONTINUOUS
 62
     7
100
AcDbLine
 10
286.05014
 20
41.600052
 30
0.0
 11
286.05014
 21
9.499992
 31
0.0
  0
LINE
  5
E9
100
AcDbEntity
  8
0
  6
CONTINUOUS
 62
     7
100
AcDbLine
 10
285.55014
 20
41.600075
 30
0.0
 11
275.35001
 21
41.600075
 31
0.0
  0
LINE
  5
EA
100
AcDbEntity
  8
0
  6
CONTINUOUS
 62
     7
100
AcDbLine
 10
276.85001
 20
26.600006
 30
0.0
 11
276.85001
 21
9.499992
 31
0.0
  0
LINE
  5
EB
100
AcDbEntity
  8
0
  6
CONTINUOUS
 62
     7
100
AcDbLine
 10
276.85001
 20
26.600006
 30
0.0
 11
275.35001
 21
26.600006
 31
0.0
  0
LINE
  5
EC
100
AcDbEntity
  8
0
  6
CONTINUOUS
 62
     7
100
AcDbLine
 10
275.35001
 20
28.79995
 30
0.0
 11
204.64998
 21
28.79995
 31
0.0
  0
LINE
  5
ED
100
AcDbEntity
  8
0
  6
CONTINUOUS
 62
     7
100
AcDbLine
 10
275.35001
 20
33.200043
 30
0.0
 11
204.64998
 21
33.200043
 31
0.0
  0
LINE
  5
EE
100
AcDbEntity
  8
0
  6
CONTINUOUS
 62
     7
100
AcDbLine
 10
275.35001
 20
42.0
 30
0.0
 11
275.35001
 21
26.600006
 31
0.0
  0
LINE
  5
EF
100
AcDbEntity
  8
0
  6
CONTINUOUS
 62
     7
100
AcDbLine
 10
275.35001
 20
42.0
 30
0.0
 11
204.64998
 21
42.0
 31
0.0
  0
LINE
  5
F0
100
AcDbEntity
  8
0
  6
CENTER
 62
     7
100
AcDbLine
 10
179.94987
 20
34.000008
 30
0.0
 11
195.87845
 21
34.000008
 31
0.0
  0
LINE
  5
F1
100
AcDbEntity
  8
0
  6
CONTINUOUS
 62
     7
100
AcDbLine
 10
191.14989
 20
29.879997
 30
0.0
 11
191.14989
 21
38.119972
 31
0.0
  0
LINE
  5
F2
100
AcDbEntity
  8
0
  6
CONTINUOUS
 62
     7
100
AcDbLine
 10
188.14989
 20
37.999992
 30
0.0
 11
191.14989
 21
37.999992
 31
0.0
  0
LINE
  5
F3
100
AcDbEntity
  8
0
  6
CONTINUOUS
 62
     7
100
AcDbLine
 10
191.5
 20
29.529844
 30
0.0
 11
191.14984
 21
29.880009
 31
0.0
  0
LINE
  5
F4
100
AcDbEntity
  8
0
  6
CONTINUOUS
 62
     7
100
AcDbLine
 10
191.14987
 20
38.119968
 30
0.0
 11
191.50003
 21
38.470123
 31
0.0
  0
LINE
  5
F5
100
AcDbEntity
  8
0
  6
CONTINUOUS
 62
     7
100
AcDbLine
 10
189.24985
 20
30.499992
 30
0.0
 11
184.04988
 21
30.499992
 31
0.0
  0
LINE
  5
F6
100
AcDbEntity
  8
0
  6
CONTINUOUS
 62
     7
100
AcDbLine
 10
189.24985
 20
30.459984
 30
0.0
 11
189.24985
 21
30.499992
 31
0.0
  0
LINE
  5
F7
100
AcDbEntity
  8
0
  6
CONTINUOUS
 62
     7
100
AcDbLine
 10
190.74986
 20
34.000019
 30
0.0
 11
189.24986
 21
30.500023
 31
0.0
  0
LINE
  5
F8
100
AcDbEntity
  8
0
  6
CONTINUOUS
 62
     7
100
AcDbLine
 10
189.8499
 20
34.000015
 30
0.0
 11
188.24989
 21
30.500027
 31
0.0
  0
LINE
  5
F9
100
AcDbEntity
  8
0
  6
CONTINUOUS
 62
     7
100
AcDbLine
 10
184.04984
 20
30.499975
 30
0.0
 11
183.64983
 21
31.080006
 31
0.0
  0
LINE
  5
FA
100
AcDbEntity
  8
0
  6
CONTINUOUS
 62
     7
100
AcDbLine
 10
184.0498
 20
37.499973
 30
0.0
 11
183.64981
 21
36.919968
 31
0.0
  0
LINE
  5
FB
100
AcDbEntity
  8
0
  6
CONTINUOUS
 62
     7
100
AcDbLine
 10
189.24985
 20
37.5
 30
0.0
 11
184.04988
 21
37.5
 31
0.0
  0
LINE
  5
FC
100
AcDbEntity
  8
0
  6
CONTINUOUS
 62
     7
100
AcDbLine
 10
189.8499
 20
34.000034
 30
0.0
 11
188.24989
 21
37.500031
 31
0.0
  0
LINE
  5
FD
100
AcDbEntity
  8
0
  6
CONTINUOUS
 62
     7
100
AcDbLine
 10
190.74985
 20
34.000004
 30
0.0
 11
189.24985
 21
37.499981
 31
0.0
  0
LINE
  5
FE
100
AcDbEntity
  8
0
  6
CONTINUOUS
 62
     7
100
AcDbLine
 10
188.14989
 20
30.0
 30
0.0
 11
191.14989
 21
30.0
 31
0.0
  0
LINE
  5
FF
100
AcDbEntity
  8
0
  6
CONTINUOUS
 62
     7
100
AcDbLine
 10
288.50009
 20
23.000244
 30
0.0
 11
380.0
 21
23.000244
 31
0.0
  0
LINE
  5
100
100
AcDbEntity
  8
0
  6
CONTINUOUS
 62
     7
100
AcDbLine
 10
99.999992
 20
0.0
 30
0.0
 11
380.0
 21
0.0
 31
0.0
  0
LINE
  5
101
100
AcDbEntity
  8
0
  6
CONTINUOUS
 62
     7
100
AcDbLine
 10
99.999992
 20
22.999786
 30
0.0
 11
191.49989
 21
22.999786
 31
0.0
  0
LINE
  5
102
100
AcDbEntity
  8
0
  6
CENTER
 62
     7
100
AcDbLine
 10
194.47357
 20
37.5
 30
0.0
 11
199.64378
 21
37.5
 31
0.0
  0
LINE
  5
103
100
AcDbEntity
  8
0
  6
CONTINUOUS
 62
     7
100
AcDbLine
 10
191.50003
 20
9.499992
 30
0.0
 11
191.50003
 21
41.600052
 31
0.0
  0
LINE
  5
104
100
AcDbEntity
  8
0
  6
CONTINUOUS
 62
     7
100
AcDbLine
 10
193.94989
 20
41.600052
 30
0.0
 11
191.50003
 21
41.600052
 31
0.0
  0
LINE
  5
105
100
AcDbEntity
  8
0
  6
CONTINUOUS
 62
     7
100
AcDbLine
 10
191.50003
 20
9.499992
 30
0.0
 11
193.94989
 21
9.499992
 31
0.0
  0
LINE
  5
106
100
AcDbEntity
  8
0
  6
CONTINUOUS
 62
     7
100
AcDbLine
 10
194.44989
 20
41.600044
 30
0.0
 11
193.94989
 21
41.100044
 31
0.0
  0
LINE
  5
107
100
AcDbEntity
  8
0
  6
DASHED
 62
     7
100
AcDbLine
 10
-16.000006
 20
30.00001
 30
0.0
 11
-16.600016
 21
28.960762
 31
0.0
  0
LINE
  5
108
100
AcDbEntity
  8
0
  6
DASHED
 62
     7
100
AcDbLine
 10
-24.000023
 20
29.999987
 30
0.0
 11
-23.400013
 21
28.960739
 31
0.0
  0
LINE
  5
109
100
AcDbEntity
  8
0
  6
CONTINUOUS
 62
     7
100
AcDbLine
 10
16.899902
 20
23.403557
 30
0.0
 11
16.899902
 21
19.480648
 31
0.0
  0
LINE
  5
10A
100
AcDbEntity
  8
0
  6
CONTINUOUS
 62
     7
100
AcDbLine
 10
14.403193
 20
25.900009
 30
0.0
 11
16.899889
 21
23.403563
 31
0.0
  0
LINE
  5
10B
100
AcDbEntity
  8
0
  6
CONTINUOUS
 62
     7
100
AcDbLine
 10
15.071023
 20
9.500052
 30
0.0
 11
12.553938
 21
10.953292
 31
0.0
  0
LINE
  5
10C
100
AcDbEntity
  8
0
  6
CONTINUOUS
 62
     7
100
AcDbLine
 10
16.899897
 20
19.48065
 30
0.0
 11
12.370954
 21
11.636292
 31
0.0
  0
LINE
  5
10D
100
AcDbEntity
  8
0
  6
CONTINUOUS
 62
     7
100
AcDbLine
 10
29.999966
 20
27.500021
 30
0.0
 11
29.499966
 21
28.000021
 31
0.0
  0
LINE
  5
10E
100
AcDbEntity
  8
0
  6
CONTINUOUS
 62
     7
100
AcDbLine
 10
28.499973
 20
41.600063
 30
0.0
 11
29.499975
 21
40.60006
 31
0.0
  0
LINE
  5
10F
100
AcDbEntity
  8
0
  6
CONTINUOUS
 62
     7
100
AcDbLine
 10
27.0
 20
9.500004
 30
0.0
 11
9.271312
 21
9.500004
 31
0.0
  0
LINE
  5
110
100
AcDbEntity
  8
0
  6
CONTINUOUS
 62
     7
100
AcDbLine
 10
29.499985
 20
40.600067
 30
0.0
 11
29.499985
 21
27.999996
 31
0.0
  0
LINE
  5
111
100
AcDbEntity
  8
0
  6
CONTINUOUS
 62
     7
100
AcDbLine
 10
30.0
 20
28.499979
 30
0.0
 11
30.0
 21
12.500004
 31
0.0
  0
LINE
  5
112
100
AcDbEntity
  8
0
  6
CENTER
 62
     7
100
AcDbLine
 10
15.0
 20
33.000126
 30
0.0
 11
20.000015
 21
33.000126
 31
0.0
  0
LINE
  5
113
100
AcDbEntity
  8
0
  6
CENTER
 62
     7
100
AcDbLine
 10
17.499985
 20
35.500122
 30
0.0
 11
17.499985
 21
30.500118
 31
0.0
  0
LINE
  5
114
100
AcDbEntity
  8
0
  6
CENTER
 62
     7
100
AcDbLine
 10
15.0
 20
33.000126
 30
0.0
 11
20.000015
 21
33.000126
 31
0.0
  0
LINE
  5
115
100
AcDbEntity
  8
0
  6
CENTER
 62
     7
100
AcDbLine
 10
17.499985
 20
35.500122
 30
0.0
 11
17.499985
 21
30.500118
 31
0.0
  0
LINE
  5
116
100
AcDbEntity
  8
0
  6
CONTINUOUS
 62
     7
100
AcDbLine
 10
-30.000029
 20
28.50004
 30
0.0
 11
-29.700066
 21
28.800003
 31
0.0
  0
LINE
  5
117
100
AcDbEntity
  8
0
  6
CONTINUOUS
 62
     7
100
AcDbLine
 10
-30.000029
 20
30.649975
 30
0.0
 11
-29.700066
 21
30.350014
 31
0.0
  0
LINE
  5
118
100
AcDbEntity
  8
0
  6
CENTER
 62
     7
100
AcDbLine
 10
15.0
 20
33.000114
 30
0.0
 11
20.000015
 21
33.000114
 31
0.0
  0
LINE
  5
119
100
AcDbEntity
  8
0
  6
CENTER
 62
     7
100
AcDbLine
 10
17.499985
 20
35.500111
 30
0.0
 11
17.499985
 21
30.500118
 31
0.0
  0
LINE
  5
11A
100
AcDbEntity
  8
0
  6
DASHED
 62
     7
100
AcDbLine
 10
-24.0
 20
30.0
 30
0.0
 11
-15.999985
 21
30.0
 31
0.0
  0
LINE
  5
11B
100
AcDbEntity
  8
0
  6
CONTINUOUS
 62
     7
100
AcDbLine
 10
-7.699768
 20
41.700005
 30
0.0
 11
7.700043
 21
41.700005
 31
0.0
  0
LINE
  5
11C
100
AcDbEntity
  8
0
  6
CONTINUOUS
 62
     7
100
AcDbLine
 10
-7.999928
 20
42.00013
 30
0.0
 11
-7.699805
 21
41.700005
 31
0.0
  0
LINE
  5
11D
100
AcDbEntity
  8
0
  6
CONTINUOUS
 62
     7
100
AcDbLine
 10
29.999842
 20
41.000118
 30
0.0
 11
28.99984
 21
42.000114
 31
0.0
  0
LINE
  5
11E
100
AcDbEntity
  8
0
  6
CONTINUOUS
 62
     7
100
AcDbLine
 10
-30.0
 20
28.5
 30
0.0
 11
-30.0
 21
12.500004
 31
0.0
  0
LINE
  5
11F
100
AcDbEntity
  8
0
  6
CONTINUOUS
 62
     7
100
AcDbLine
 10
29.699894
 20
28.800081
 30
0.0
 11
29.999825
 21
28.500153
 31
0.0
  0
LINE
  5
120
100
AcDbEntity
  8
0
  6
DASHED
 62
     7
100
AcDbLine
 10
-23.400015
 20
27.0
 30
0.0
 11
-16.600014
 21
27.0
 31
0.0
  0
LINE
  5
121
100
AcDbEntity
  8
0
  6
DASHED
 62
     7
100
AcDbLine
 10
-15.999985
 20
42.0
 30
0.0
 11
-15.999985
 21
30.0
 31
0.0
  0
LINE
  5
122
100
AcDbEntity
  8
0
  6
DASHED
 62
     7
100
AcDbLine
 10
-24.0
 20
42.0
 30
0.0
 11
-24.0
 21
30.0
 31
0.0
  0
LINE
  5
123
100
AcDbEntity
  8
0
  6
CENTER
 62
     7
100
AcDbLine
 10
-20.000015
 20
43.0
 30
0.0
 11
-20.000015
 21
24.037008
 31
0.0
  0
LINE
  5
124
100
AcDbEntity
  8
0
  6
CONTINUOUS
 62
     7
100
AcDbLine
 10
29.700027
 20
33.200298
 30
0.0
 11
29.999872
 21
33.500141
 31
0.0
  0
LINE
  5
125
100
AcDbEntity
  8
0
  6
CONTINUOUS
 62
     7
100
AcDbLine
 10
29.700027
 20
33.200066
 30
0.0
 11
29.700027
 21
28.799961
 31
0.0
  0
LINE
  5
126
100
AcDbEntity
  8
0
  6
CONTINUOUS
 62
     7
100
AcDbLine
 10
-30.0
 20
41.000004
 30
0.0
 11
-30.0
 21
30.649967
 31
0.0
  0
LINE
  5
127
100
AcDbEntity
  8
0
  6
CONTINUOUS
 62
     7
100
AcDbLine
 10
-29.000015
 20
42.0
 30
0.0
 11
-8.000015
 21
42.0
 31
0.0
  0
LINE
  5
128
100
AcDbEntity
  8
0
  6
CONTINUOUS
 62
     7
100
AcDbLine
 10
2.350113
 20
0.0
 30
0.0
 11
-2.348593
 21
0.0
 31
0.0
  0
LINE
  5
129
100
AcDbEntity
  8
0
  6
CONTINUOUS
 62
     7
100
AcDbLine
 10
-2.998648
 20
0.650065
 30
0.0
 11
-2.348593
 21
0.0
 31
0.0
  0
LINE
  5
12A
100
AcDbEntity
  8
0
  6
CONTINUOUS
 62
     7
100
AcDbLine
 10
-8.000097
 20
0.650065
 30
0.0
 11
-8.650154
 21
0.0
 31
0.0
  0
LINE
  5
12B
100
AcDbEntity
  8
0
  6
CONTINUOUS
 62
     7
100
AcDbLine
 10
-2.998648
 20
0.650064
 30
0.0
 11
-8.000097
 21
0.650064
 31
0.0
  0
LINE
  5
12C
100
AcDbEntity
  8
0
  6
DASHED
 62
     7
100
AcDbLine
 10
5.499985
 20
14.000004
 30
0.0
 11
-5.499985
 21
14.000004
 31
0.0
  0
LINE
  5
12D
100
AcDbEntity
  8
0
  6
DASHED
 62
     7
100
AcDbLine
 10
-3.500015
 20
14.000004
 30
0.0
 11
-3.500015
 21
0.650064
 31
0.0
  0
LINE
  5
12E
100
AcDbEntity
  8
0
  6
DASHED
 62
     7
100
AcDbLine
 10
-5.499985
 20
23.000004
 30
0.0
 11
-5.499985
 21
14.000004
 31
0.0
  0
LINE
  5
12F
100
AcDbEntity
  8
0
  6
CONTINUOUS
 62
     7
100
AcDbLine
 10
-14.000015
 20
6.770027
 30
0.0
 11
-14.000015
 21
1.700031
 31
0.0
  0
LINE
  5
130
100
AcDbEntity
  8
0
  6
CONTINUOUS
 62
     7
100
AcDbLine
 10
-8.948227
 20
23.000004
 30
0.0
 11
8.948227
 21
23.000004
 31
0.0
  0
LINE
  5
131
100
AcDbEntity
  8
0
  6
CONTINUOUS
 62
     7
100
AcDbLine
 10
-12.417334
 20
17.516457
 30
0.0
 11
-8.659596
 21
11.007865
 31
0.0
  0
LINE
  5
132
100
AcDbEntity
  8
0
  6
CONTINUOUS
 62
     7
100
AcDbLine
 10
-13.999685
 20
20.25717
 30
0.0
 11
-13.590673
 21
19.54874
 31
0.0
  0
LINE
  5
133
100
AcDbEntity
  8
0
  6
CONTINUOUS
 62
     7
100
AcDbLine
 10
-13.999804
 20
6.770012
 30
0.0
 11
-9.025656
 21
9.641838
 31
0.0
  0
LINE
  5
134
100
AcDbEntity
  8
0
  6
CONTINUOUS
 62
     7
100
AcDbLine
 10
-13.201797
 20
23.000004
 30
0.0
 11
-14.000689
 21
22.201193
 31
0.0
  0
LINE
  5
135
100
AcDbEntity
  8
0
  6
CONTINUOUS
 62
     7
100
AcDbLine
 10
-14.000015
 20
22.200199
 30
0.0
 11
-14.000015
 21
20.257164
 31
0.0
  0
LINE
  5
136
100
AcDbEntity
  8
0
  6
CONTINUOUS
 62
     7
100
AcDbLine
 10
-13.201797
 20
23.000004
 30
0.0
 11
-12.368637
 21
23.000004
 31
0.0
  0
LINE
  5
137
100
AcDbEntity
  8
0
  6
CONTINUOUS
 62
     7
100
AcDbLine
 10
7.999838
 20
42.000271
 30
0.0
 11
7.699795
 21
41.70023
 31
0.0
  0
LINE
  5
138
100
AcDbEntity
  8
0
  6
CONTINUOUS
 62
     7
100
AcDbLine
 10
-29.999866
 20
41.000263
 30
0.0
 11
-28.999847
 21
42.000282
 31
0.0
  0
LINE
  5
139
100
AcDbEntity
  8
0
  6
CENTER
 62
     7
100
AcDbLine
 10
20.000015
 20
43.0
 30
0.0
 11
20.000015
 21
24.037008
 31
0.0
  0
LINE
  5
13A
100
AcDbEntity
  8
0
  6
CONTINUOUS
 62
     7
100
AcDbLine
 10
-29.700027
 20
30.349995
 30
0.0
 11
-29.700027
 21
28.799995
 31
0.0
  0
LINE
  5
13B
100
AcDbEntity
  8
0
  6
CONTINUOUS
 62
     7
100
AcDbLine
 10
30.0
 20
41.000004
 30
0.0
 11
30.0
 21
33.500256
 31
0.0
  0
LINE
  5
13C
100
AcDbEntity
  8
0
  6
CONTINUOUS
 62
     7
100
AcDbLine
 10
29.000015
 20
42.0
 30
0.0
 11
8.000015
 21
42.0
 31
0.0
  0
LINE
  5
13D
100
AcDbEntity
  8
0
  6
CONTINUOUS
 62
     7
100
AcDbLine
 10
8.649902
 20
0.0
 30
0.0
 11
12.30011
 21
0.0
 31
0.0
  0
LINE
  5
13E
100
AcDbEntity
  8
0
  6
CONTINUOUS
 62
     7
100
AcDbLine
 10
2.999415
 20
0.650724
 30
0.0
 11
2.34952
 21
0.000819
 31
0.0
  0
LINE
  5
13F
100
AcDbEntity
  8
0
  6
CONTINUOUS
 62
     7
100
AcDbLine
 10
8.000696
 20
0.64961
 30
0.0
 11
8.650722
 21
-0.000424
 31
0.0
  0
LINE
  5
140
100
AcDbEntity
  8
0
  6
CONTINUOUS
 62
     7
100
AcDbLine
 10
3.0
 20
0.650053
 30
0.0
 11
8.000015
 21
0.650053
 31
0.0
  0
LINE
  5
141
100
AcDbEntity
  8
0
  6
DASHED
 62
     7
100
AcDbLine
 10
3.500015
 20
14.000004
 30
0.0
 11
3.500015
 21
0.650053
 31
0.0
  0
LINE
  5
142
100
AcDbEntity
  8
0
  6
DASHED
 62
     7
100
AcDbLine
 10
5.499985
 20
23.000004
 30
0.0
 11
5.499985
 21
14.000004
 31
0.0
  0
LINE
  5
143
100
AcDbEntity
  8
0
  6
CONTINUOUS
 62
     7
100
AcDbLine
 10
14.000015
 20
6.770027
 30
0.0
 11
14.000015
 21
1.700031
 31
0.0
  0
LINE
  5
144
100
AcDbEntity
  8
0
  6
CONTINUOUS
 62
     7
100
AcDbLine
 10
12.417697
 20
17.517118
 30
0.0
 11
8.650877
 21
10.992795
 31
0.0
  0
LINE
  5
145
100
AcDbEntity
  8
0
  6
CONTINUOUS
 62
     7
100
AcDbLine
 10
12.30011
 20
0.000085
 30
0.0
 11
14.000062
 21
1.700118
 31
0.0
  0
LINE
  5
146
100
AcDbEntity
  8
0
  6
CONTINUOUS
 62
     7
100
AcDbLine
 10
13.999674
 20
20.257183
 30
0.0
 11
13.590656
 21
19.548744
 31
0.0
  0
LINE
  5
147
100
AcDbEntity
  8
0
  6
CONTINUOUS
 62
     7
100
AcDbLine
 10
13.999788
 20
6.770016
 30
0.0
 11
9.02564
 21
9.641842
 31
0.0
  0
LINE
  5
148
100
AcDbEntity
  8
0
  6
CONTINUOUS
 62
     7
100
AcDbLine
 10
13.201967
 20
23.000004
 30
0.0
 11
14.000015
 21
22.202036
 31
0.0
  0
LINE
  5
149
100
AcDbEntity
  8
0
  6
CONTINUOUS
 62
     7
100
AcDbLine
 10
14.000015
 20
22.202036
 30
0.0
 11
14.000015
 21
20.257164
 31
0.0
  0
LINE
  5
14A
100
AcDbEntity
  8
0
  6
CONTINUOUS
 62
     7
100
AcDbLine
 10
13.201967
 20
23.000004
 30
0.0
 11
12.368637
 21
23.000004
 31
0.0
  0
LINE
  5
14B
100
AcDbEntity
  8
0
  6
CENTER
 62
     7
100
AcDbLine
 10
0.0
 20
43.0
 30
0.0
 11
0.0
 21
-1.0
 31
0.0
  0
LINE
  5
14C
100
AcDbEntity
  8
0
  6
CONTINUOUS
 62
     7
100
AcDbLine
 10
-12.300024
 20
0.0
 30
0.0
 11
-8.650154
 21
0.0
 31
0.0
  0
LINE
  5
14D
100
AcDbEntity
  8
0
  6
DASHED
 62
     7
100
AcDbLine
 10
-16.600014
 20
42.0
 30
0.0
 11
-16.600014
 21
27.0
 31
0.0
  0
LINE
  5
14E
100
AcDbEntity
  8
0
  6
DASHED
 62
     7
100
AcDbLine
 10
-23.400015
 20
42.0
 30
0.0
 11
-23.400015
 21
27.0
 31
0.0
  0
LINE
  5
14F
100
AcDbEntity
  8
0
  6
DASHED
 62
     7
100
AcDbLine
 10
-23.400015
 20
27.0
 30
0.0
 11
-20.000015
 21
25.037008
 31
0.0
  0
LINE
  5
150
100
AcDbEntity
  8
0
  6
DASHED
 62
     7
100
AcDbLine
 10
-16.600016
 20
27.0
 30
0.0
 11
-20.000015
 21
25.037008
 31
0.0
  0
LINE
  5
151
100
AcDbEntity
  8
0
  6
CONTINUOUS
 62
     7
100
AcDbLine
 10
-14.403214
 20
25.899994
 30
0.0
 11
14.40321
 21
25.899994
 31
0.0
  0
LINE
  5
152
100
AcDbEntity
  8
0
  6
CONTINUOUS
 62
     7
100
AcDbLine
 10
-16.899902
 20
23.403557
 30
0.0
 11
-16.899902
 21
19.480648
 31
0.0
  0
LINE
  5
153
100
AcDbEntity
  8
0
  6
CONTINUOUS
 62
     7
100
AcDbLine
 10
-14.403193
 20
25.900009
 30
0.0
 11
-16.899889
 21
23.403563
 31
0.0
  0
LINE
  5
154
100
AcDbEntity
  8
0
  6
CONTINUOUS
 62
     7
100
AcDbLine
 10
-15.071023
 20
9.500052
 30
0.0
 11
-12.553938
 21
10.953292
 31
0.0
  0
LINE
  5
155
100
AcDbEntity
  8
0
  6
CONTINUOUS
 62
     7
100
AcDbLine
 10
-16.899897
 20
19.48065
 30
0.0
 11
-12.370954
 21
11.636292
 31
0.0
  0
LINE
  5
156
100
AcDbEntity
  8
0
  6
CONTINUOUS
 62
     7
100
AcDbLine
 10
-29.999966
 20
27.500021
 30
0.0
 11
-29.499966
 21
28.000021
 31
0.0
  0
LINE
  5
157
100
AcDbEntity
  8
0
  6
CONTINUOUS
 62
     7
100
AcDbLine
 10
-28.499973
 20
41.600063
 30
0.0
 11
-29.499975
 21
40.60006
 31
0.0
  0
LINE
  5
158
100
AcDbEntity
  8
0
  6
CONTINUOUS
 62
     7
100
AcDbLine
 10
-27.0
 20
9.500038
 30
0.0
 11
-9.271316
 21
9.500038
 31
0.0
  0
LINE
  5
159
100
AcDbEntity
  8
0
  6
CONTINUOUS
 62
     7
100
AcDbLine
 10
-29.499985
 20
40.600067
 30
0.0
 11
-29.499985
 21
27.999996
 31
0.0
  0
LINE
  5
15A
100
AcDbEntity
  8
0
  6
CENTER
 62
     7
100
AcDbLine
 10
-15.0
 20
33.000126
 30
0.0
 11
-20.000015
 21
33.000126
 31
0.0
  0
LINE
  5
15B
100
AcDbEntity
  8
0
  6
CENTER
 62
     7
100
AcDbLine
 10
-17.499985
 20
35.500122
 30
0.0
 11
-17.499985
 21
30.500118
 31
0.0
  0
LINE
  5
15C
100
AcDbEntity
  8
0
  6
CONTINUOUS
 62
     7
100
AcDbLine
 10
-28.499973
 20
41.600063
 30
0.0
 11
28.499973
 21
41.600063
 31
0.0
  0
LINE
  5
15D
100
AcDbEntity
  8
0
  6
CONTINUOUS
 62
     7
100
AcDbLine
 10
-12.300024
 20
0.0
 30
0.0
 11
-14.000015
 21
1.700071
 31
0.0
  0
LINE
  5
15E
100
AcDbEntity
  8
0
  6
CENTER
 62
     7
100
AcDbLine
 10
-6.369995
 20
33.999996
 30
0.0
 11
13.309982
 21
33.999996
 31
0.0
  0
LINE
  5
15F
100
AcDbEntity
  8
0
  6
CONTINUOUS
 62
     7
100
AcDbLine
 10
1.779999
 20
37.499996
 30
0.0
 11
5.859985
 21
37.499996
 31
0.0
  0
LINE
  5
160
100
AcDbEntity
  8
0
  6
CONTINUOUS
 62
     7
100
AcDbLine
 10
1.779999
 20
30.499994
 30
0.0
 11
5.859985
 21
30.499994
 31
0.0
  0
LINE
  5
161
100
AcDbEntity
  8
0
  6
CONTINUOUS
 62
     7
100
AcDbLine
 10
1.129989
 20
33.999958
 30
0.0
 11
1.779982
 21
30.499958
 31
0.0
  0
LINE
  5
162
100
AcDbEntity
  8
0
  6
CONTINUOUS
 62
     7
100
AcDbLine
 10
1.129989
 20
33.999973
 30
0.0
 11
1.77998
 21
37.499958
 31
0.0
  0
LINE
  5
163
100
AcDbEntity
  8
0
  6
CONTINUOUS
 62
     7
100
AcDbLine
 10
3.440003
 20
33.999954
 30
0.0
 11
4.090015
 21
30.499941
 31
0.0
  0
LINE
  5
164
100
AcDbEntity
  8
0
  6
CONTINUOUS
 62
     7
100
AcDbLine
 10
3.439976
 20
33.999969
 30
0.0
 11
4.089987
 21
37.499981
 31
0.0
  0
LINE
  5
165
100
AcDbEntity
  8
0
  6
CONTINUOUS
 62
     7
100
AcDbLine
 10
5.950004
 20
30.969976
 30
0.0
 11
5.859992
 21
30.499971
 31
0.0
  0
LINE
  5
166
100
AcDbEntity
  8
0
  6
CONTINUOUS
 62
     7
100
AcDbLine
 10
5.950028
 20
37.019997
 30
0.0
 11
5.86002
 21
37.499989
 31
0.0
  0
LINE
  5
167
100
AcDbEntity
  8
0
  6
CONTINUOUS
 62
     7
100
AcDbLine
 10
7.765949
 20
30.754284
 30
0.0
 11
10.51998
 21
31.499958
 31
0.0
  0
LINE
  5
168
100
AcDbEntity
  8
0
  6
CONTINUOUS
 62
     7
100
AcDbLine
 10
7.749974
 20
37.249989
 30
0.0
 11
10.519986
 21
36.499985
 31
0.0
  0
LINE
  5
169
100
AcDbEntity
  8
0
  6
CONTINUOUS
 62
     7
100
AcDbLine
 10
0.000494
 20
29.380888
 30
0.0
 11
1.947719
 21
30.499996
 31
0.0
  0
LINE
  5
16A
100
AcDbEntity
  8
0
  6
CONTINUOUS
 62
     7
100
AcDbLine
 10
0.000512
 20
29.380898
 30
0.0
 11
-4.000515
 21
31.690891
 31
0.0
  0
LINE
  5
16B
100
AcDbEntity
  8
0
  6
CONTINUOUS
 62
     7
100
AcDbLine
 10
-4.000482
 20
31.690889
 30
0.0
 11
-4.000999
 21
36.30999
 31
0.0
  0
LINE
  5
16C
100
AcDbEntity
  8
0
  6
CONTINUOUS
 62
     7
100
AcDbLine
 10
-4.001013
 20
36.309998
 30
0.0
 11
-0.000491
 21
38.619102
 31
0.0
  0
LINE
  5
16D
100
AcDbEntity
  8
0
  6
CONTINUOUS
 62
     7
100
AcDbLine
 10
-0.000516
 20
38.619095
 30
0.0
 11
1.937821
 21
37.499992
 31
0.0
  0
LINE
  5
16E
100
AcDbEntity
  8
0
  6
CONTINUOUS
 62
     7
100
AcDbLine
 10
99.999992
 20
22.999786
 30
0.0
 11
99.999992
 21
0.0
 31
0.0
  0
LINE
  5
16F
100
AcDbEntity
  8
0
  6
CONTINUOUS
 62
     7
100
AcDbLine
 10
380.0
 20
22.999786
 30
0.0
 11
380.0
 21
0.0
 31
0.0
  0
LINE
  5
170
100
AcDbEntity
  8
0
  6
DASHED
 62
     7
100
AcDbLine
 10
125.49998
 20
14.000004
 30
0.0
 11
114.50001
 21
14.000004
 31
0.0
  0
LINE
  5
171
100
AcDbEntity
  8
0
  6
DASHED
 62
     7
100
AcDbLine
 10
116.49998
 20
14.000004
 30
0.0
 11
116.49998
 21
0.0
 31
0.0
  0
LINE
  5
172
100
AcDbEntity
  8
0
  6
DASHED
 62
     7
100
AcDbLine
 10
114.50001
 20
23.000004
 30
0.0
 11
114.50001
 21
14.000004
 31
0.0
  0
LINE
  5
173
100
AcDbEntity
  8
0
  6
DASHED
 62
     7
100
AcDbLine
 10
123.50001
 20
14.000004
 30
0.0
 11
123.50001
 21
0.0
 31
0.0
  0
LINE
  5
174
100
AcDbEntity
  8
0
  6
DASHED
 62
     7
100
AcDbLine
 10
125.49998
 20
23.000004
 30
0.0
 11
125.49998
 21
14.000004
 31
0.0
  0
LINE
  5
175
100
AcDbEntity
  8
0
  6
CENTER
 62
     7
100
AcDbLine
 10
119.99999
 20
23.999786
 30
0.0
 11
119.99999
 21
-1.0
 31
0.0
  0
LINE
  5
176
100
AcDbEntity
  8
0
  6
CENTER
 62
     7
100
AcDbLine
 10
200.0
 20
10.499992
 30
0.0
 11
200.0
 21
-1.0
 31
0.0
  0
LINE
  5
177
100
AcDbEntity
  8
0
  6
CENTER
 62
     7
100
AcDbLine
 10
280.0
 20
10.499992
 30
0.0
 11
280.0
 21
-1.0
 31
0.0
  0
LINE
  5
178
100
AcDbEntity
  8
0
  6
CENTER
 62
     7
100
AcDbLine
 10
360.0
 20
23.999786
 30
0.0
 11
360.0
 21
-1.0
 31
0.0
  0
LINE
  5
179
100
AcDbEntity
  8
0
  6
DASHED
 62
     7
100
AcDbLine
 10
223.99998
 20
30.000006
 30
0.0
 11
223.39998
 21
28.960764
 31
0.0
  0
LINE
  5
17A
100
AcDbEntity
  8
0
  6
DASHED
 62
     7
100
AcDbLine
 10
215.99997
 20
29.999985
 30
0.0
 11
216.59998
 21
28.960737
 31
0.0
  0
LINE
  5
17B
100
AcDbEntity
  8
0
  6
DASHED
 62
     7
100
AcDbLine
 10
216.0
 20
30.0
 30
0.0
 11
224.00002
 21
30.0
 31
0.0
  0
LINE
  5
17C
100
AcDbEntity
  8
0
  6
DASHED
 62
     7
100
AcDbLine
 10
216.59998
 20
42.0
 30
0.0
 11
216.59998
 21
27.0
 31
0.0
  0
LINE
  5
17D
100
AcDbEntity
  8
0
  6
DASHED
 62
     7
100
AcDbLine
 10
223.39998
 20
42.0
 30
0.0
 11
223.39998
 21
27.0
 31
0.0
  0
LINE
  5
17E
100
AcDbEntity
  8
0
  6
DASHED
 62
     7
100
AcDbLine
 10
216.59998
 20
27.0
 30
0.0
 11
223.39998
 21
27.0
 31
0.0
  0
LINE
  5
17F
100
AcDbEntity
  8
0
  6
DASHED
 62
     7
100
AcDbLine
 10
224.00002
 20
42.0
 30
0.0
 11
224.00002
 21
30.0
 31
0.0
  0
LINE
  5
180
100
AcDbEntity
  8
0
  6
DASHED
 62
     7
100
AcDbLine
 10
216.0
 20
42.0
 30
0.0
 11
216.0
 21
30.0
 31
0.0
  0
LINE
  5
181
100
AcDbEntity
  8
0
  6
CENTER
 62
     7
100
AcDbLine
 10
219.99998
 20
43.0
 30
0.0
 11
219.99998
 21
24.037008
 31
0.0
  0
LINE
  5
182
100
AcDbEntity
  8
0
  6
DASHED
 62
     7
100
AcDbLine
 10
216.59998
 20
27.0
 30
0.0
 11
219.99998
 21
25.03701
 31
0.0
  0
LINE
  5
183
100
AcDbEntity
  8
0
  6
DASHED
 62
     7
100
AcDbLine
 10
223.39998
 20
27.000002
 30
0.0
 11
219.99998
 21
25.037012
 31
0.0
  0
LINE
  5
184
100
AcDbEntity
  8
0
  6
CENTER
 62
     7
100
AcDbLine
 10
260.0
 20
43.0
 30
0.0
 11
260.0
 21
24.037008
 31
0.0
  0
LINE
  5
185
100
AcDbEntity
  8
0
  6
CONTINUOUS
 62
     7
100
AcDbLine
 10
99.999992
 20
22.601057
 30
0.0
 11
191.50003
 21
22.601057
 31
0.0
  0
LINE
  5
186
100
AcDbEntity
  8
0
  6
CONTINUOUS
 62
     7
100
AcDbLine
 10
99.999992
 20
19.548294
 30
0.0
 11
191.50003
 21
19.548294
 31
0.0
  0
LINE
  5
187
100
AcDbEntity
  8
0
  6
CONTINUOUS
 62
     7
100
AcDbLine
 10
99.999992
 20
17.51646
 30
0.0
 11
191.50003
 21
17.51646
 31
0.0
  0
LINE
  5
188
100
AcDbEntity
  8
0
  6
CONTINUOUS
 62
     7
100
AcDbLine
 10
99.999992
 20
6.770027
 30
0.0
 11
380.0
 21
6.770027
 31
0.0
  0
LINE
  5
189
100
AcDbEntity
  8
0
  6
CONTINUOUS
 62
     7
100
AcDbLine
 10
288.5
 20
17.51646
 30
0.0
 11
380.0
 21
17.51646
 31
0.0
  0
LINE
  5
18A
100
AcDbEntity
  8
0
  6
CONTINUOUS
 62
     7
100
AcDbLine
 10
288.5
 20
19.548294
 30
0.0
 11
380.0
 21
19.548294
 31
0.0
  0
LINE
  5
18B
100
AcDbEntity
  8
0
  6
CONTINUOUS
 62
     7
100
AcDbLine
 10
288.5
 20
22.601057
 30
0.0
 11
380.0
 21
22.601057
 31
0.0
  0
LINE
  5
18C
100
AcDbEntity
  8
0
  6
CONTINUOUS
 62
     7
100
AcDbLine
 10
191.50003
 20
122.0
 30
0.0
 11
288.5
 21
122.0
 31
0.0
  0
LINE
  5
18D
100
AcDbEntity
  8
0
  6
CONTINUOUS
 62
     7
100
AcDbLine
 10
191.50003
 20
182.0
 30
0.0
 11
288.5
 21
182.0
 31
0.0
  0
LINE
  5
18E
100
AcDbEntity
  8
0
  6
CONTINUOUS
 62
     7
100
AcDbLine
 10
191.50003
 20
182.0
 30
0.0
 11
191.50003
 21
122.0
 31
0.0
  0
LINE
  5
18F
100
AcDbEntity
  8
0
  6
CONTINUOUS
 62
     7
100
AcDbLine
 10
193.94989
 20
182.0
 30
0.0
 11
193.94989
 21
122.0
 31
0.0
  0
LINE
  5
190
100
AcDbEntity
  8
0
  6
CONTINUOUS
 62
     7
100
AcDbLine
 10
204.64998
 20
182.0
 30
0.0
 11
204.64998
 21
122.0
 31
0.0
  0
LINE
  5
191
100
AcDbEntity
  8
0
  6
CONTINUOUS
 62
     7
100
AcDbLine
 10
275.35001
 20
182.0
 30
0.0
 11
275.35001
 21
122.0
 31
0.0
  0
LINE
  5
192
100
AcDbEntity
  8
0
  6
CONTINUOUS
 62
     7
100
AcDbLine
 10
286.05014
 20
182.0
 30
0.0
 11
286.05014
 21
122.0
 31
0.0
  0
LINE
  5
193
100
AcDbEntity
  8
0
  6
CONTINUOUS
 62
     7
100
AcDbLine
 10
288.5
 20
182.0
 30
0.0
 11
288.5
 21
122.0
 31
0.0
  0
LINE
  5
194
100
AcDbEntity
  8
0
  6
CENTER
 62
     7
100
AcDbLine
 10
224.99998
 20
131.99998
 30
0.0
 11
214.99998
 21
131.99998
 31
0.0
  0
LINE
  5
195
100
AcDbEntity
  8
0
  6
CENTER
 62
     7
100
AcDbLine
 10
219.99998
 20
136.99998
 30
0.0
 11
219.99998
 21
126.99998
 31
0.0
  0
LINE
  5
196
100
AcDbEntity
  8
0
  6
CONTINUOUS
 62
     7
100
AcDbLine
 10
204.64998
 20
143.99998
 30
0.0
 11
275.35001
 21
143.99998
 31
0.0
  0
LINE
  5
197
100
AcDbEntity
  8
0
  6
CONTINUOUS
 62
     7
100
AcDbLine
 10
204.64998
 20
160.00002
 30
0.0
 11
275.35001
 21
160.00002
 31
0.0
  0
LINE
  5
198
100
AcDbEntity
  8
0
  6
CENTER
 62
     7
100
AcDbLine
 10
254.99998
 20
131.99998
 30
0.0
 11
265.0
 21
131.99998
 31
0.0
  0
LINE
  5
199
100
AcDbEntity
  8
0
  6
CENTER
 62
     7
100
AcDbLine
 10
260.0
 20
136.99998
 30
0.0
 11
260.0
 21
126.99998
 31
0.0
  0
LINE
  5
19A
100
AcDbEntity
  8
0
  6
CENTER
 62
     7
100
AcDbLine
 10
254.99998
 20
172.00002
 30
0.0
 11
265.0
 21
172.00002
 31
0.0
  0
LINE
  5
19B
100
AcDbEntity
  8
0
  6
CENTER
 62
     7
100
AcDbLine
 10
224.99998
 20
172.00002
 30
0.0
 11
214.99998
 21
172.00002
 31
0.0
  0
LINE
  5
19C
100
AcDbEntity
  8
0
  6
CENTER
 62
     7
100
AcDbLine
 10
219.99998
 20
167.00002
 30
0.0
 11
219.99998
 21
177.00002
 31
0.0
  0
LINE
  5
19D
100
AcDbEntity
  8
0
  6
CENTER
 62
     7
100
AcDbLine
 10
260.0
 20
167.00002
 30
0.0
 11
260.0
 21
177.00002
 31
0.0
  0
LINE
  5
19E
100
AcDbEntity
  8
0
  6
CONTINUOUS
 62
     7
100
AcDbLine
 10
99.999992
 20
166.00002
 30
0.0
 11
191.50003
 21
166.00002
 31
0.0
  0
LINE
  5
19F
100
AcDbEntity
  8
0
  6
CONTINUOUS
 62
     7
100
AcDbLine
 10
99.999992
 20
164.36852
 30
0.0
 11
191.50003
 21
164.36852
 31
0.0
  0
LINE
  5
1A0
100
AcDbEntity
  8
0
  6
CONTINUOUS
 62
     7
100
AcDbLine
 10
99.999992
 20
160.94823
 30
0.0
 11
191.50003
 21
160.94823
 31
0.0
  0
LINE
  5
1A1
100
AcDbEntity
  8
0
  6
CONTINUOUS
 62
     7
100
AcDbLine
 10
99.999992
 20
143.05177
 30
0.0
 11
181.67342
 21
143.05177
 31
0.0
  0
LINE
  5
1A2
100
AcDbEntity
  8
0
  6
CONTINUOUS
 62
     7
100
AcDbLine
 10
99.999992
 20
139.63147
 30
0.0
 11
191.50003
 21
139.63147
 31
0.0
  0
LINE
  5
1A3
100
AcDbEntity
  8
0
  6
CONTINUOUS
 62
     7
100
AcDbLine
 10
99.999992
 20
137.99998
 30
0.0
 11
191.50003
 21
137.99998
 31
0.0
  0
LINE
  5
1A4
100
AcDbEntity
  8
0
  6
CONTINUOUS
 62
     7
100
AcDbLine
 10
99.999992
 20
166.00002
 30
0.0
 11
99.999992
 21
137.99998
 31
0.0
  0
LINE
  5
1A5
100
AcDbEntity
  8
0
  6
CONTINUOUS
 62
     7
100
AcDbLine
 10
380.0
 20
166.00002
 30
0.0
 11
380.0
 21
137.99998
 31
0.0
  0
LINE
  5
1A6
100
AcDbEntity
  8
0
  6
CONTINUOUS
 62
     7
100
AcDbLine
 10
288.5
 20
137.99998
 30
0.0
 11
380.0
 21
137.99998
 31
0.0
  0
LINE
  5
1A7
100
AcDbEntity
  8
0
  6
CONTINUOUS
 62
     7
100
AcDbLine
 10
288.5
 20
139.63147
 30
0.0
 11
380.0
 21
139.63147
 31
0.0
  0
LINE
  5
1A8
100
AcDbEntity
  8
0
  6
CONTINUOUS
 62
     7
100
AcDbLine
 10
288.5
 20
143.05177
 30
0.0
 11
380.0
 21
143.05177
 31
0.0
  0
LINE
  5
1A9
100
AcDbEntity
  8
0
  6
CONTINUOUS
 62
     7
100
AcDbLine
 10
288.5
 20
160.94823
 30
0.0
 11
380.0
 21
160.94823
 31
0.0
  0
LINE
  5
1AA
100
AcDbEntity
  8
0
  6
CONTINUOUS
 62
     7
100
AcDbLine
 10
288.5
 20
164.36852
 30
0.0
 11
380.0
 21
164.36852
 31
0.0
  0
LINE
  5
1AB
100
AcDbEntity
  8
0
  6
CONTINUOUS
 62
     7
100
AcDbLine
 10
288.5
 20
166.00002
 30
0.0
 11
380.0
 21
166.00002
 31
0.0
  0
LINE
  5
1AC
100
AcDbEntity
  8
0
  6
CENTER
 62
     7
100
AcDbLine
 10
119.99999
 20
158.5
 30
0.0
 11
119.99999
 21
145.5
 31
0.0
  0
LINE
  5
1AD
100
AcDbEntity
  8
0
  6
CENTER
 62
     7
100
AcDbLine
 10
200.0
 20
158.5
 30
0.0
 11
200.0
 21
145.5
 31
0.0
  0
LINE
  5
1AE
100
AcDbEntity
  8
0
  6
CENTER
 62
     7
100
AcDbLine
 10
280.0
 20
158.5
 30
0.0
 11
280.0
 21
145.5
 31
0.0
  0
LINE
  5
1AF
100
AcDbEntity
  8
0
  6
CENTER
 62
     7
100
AcDbLine
 10
360.0
 20
158.5
 30
0.0
 11
360.0
 21
145.5
 31
0.0
  0
LINE
  5
1B0
100
AcDbEntity
  8
0
  6
CONTINUOUS
 62
     7
100
AcDbLine
 10
191.1499
 20
147.99998
 30
0.0
 11
191.1499
 21
155.99998
 31
0.0
  0
LINE
  5
1B1
100
AcDbEntity
  8
0
  6
CONTINUOUS
 62
     7
100
AcDbLine
 10
187.84999
 20
156.0
 30
0.0
 11
191.1499
 21
156.0
 31
0.0
  0
LINE
  5
1B2
100
AcDbEntity
  8
0
  6
CONTINUOUS
 62
     7
100
AcDbLine
 10
189.47002
 20
148.0
 30
0.0
 11
191.1499
 21
148.0
 31
0.0
  0
LINE
  5
1B3
100
AcDbEntity
  8
0
  6
CONTINUOUS
 62
     7
100
AcDbLine
 10
183.84999
 20
152.0
 30
0.0
 11
183.84999
 21
150.32788
 31
0.0
  0
LINE
  5
1B4
100
AcDbEntity
  8
0
  6
CONTINUOUS
 62
     7
100
AcDbLine
 10
191.14989
 20
156.0
 30
0.0
 11
191.50003
 21
156.0
 31
0.0
  0
LINE
  5
1B5
100
AcDbEntity
  8
0
  6
CONTINUOUS
 62
     7
100
AcDbLine
 10
191.14989
 20
148.0
 30
0.0
 11
191.50003
 21
148.0
 31
0.0
  0
LINE
  5
1B6
100
AcDbEntity
  8
0
  6
CENTER
 62
     7
100
AcDbLine
 10
183.40175
 20
140.47789
 30
0.0
 11
188.26704
 21
152.22377
 31
0.0
  0
LINE
  5
1B7
100
AcDbEntity
  8
0
  6
CONTINUOUS
 62
     7
100
AcDbLine
 10
181.63268
 20
142.47844
 30
0.0
 11
186.06729
 21
140.64157
 31
0.0
  0
LINE
  5
1B8
100
AcDbEntity
  8
0
  6
CONTINUOUS
 62
     7
100
AcDbLine
 10
181.83444
 20
145.31734
 30
0.0
 11
187.93204
 21
142.79164
 31
0.0
  0
LINE
  5
1B9
100
AcDbEntity
  8
0
  6
CONTINUOUS
 62
     7
100
AcDbLine
 10
181.63268
 20
142.47844
 30
0.0
 11
181.83444
 21
145.31734
 31
0.0
  0
LINE
  5
1BA
100
AcDbEntity
  8
0
  6
CONTINUOUS
 62
     7
100
AcDbLine
 10
186.06731
 20
140.64157
 30
0.0
 11
187.93205
 21
142.79164
 31
0.0
  0
LINE
  5
1BB
100
AcDbEntity
  8
0
  6
CONTINUOUS
 62
     7
100
AcDbLine
 10
182.57315
 20
149.03819
 30
0.0
 11
182.98782
 21
150.03926
 31
0.0
  0
LINE
  5
1BC
100
AcDbEntity
  8
0
  6
CONTINUOUS
 62
     7
100
AcDbLine
 10
190.04074
 20
145.94501
 30
0.0
 11
190.4554
 21
146.94608
 31
0.0
  0
LINE
  5
1BD
100
AcDbEntity
  8
0
  6
CONTINUOUS
 62
     7
100
AcDbLine
 10
183.76724
 20
150.36209
 30
0.0
 11
182.98781
 21
150.03923
 31
0.0
  0
LINE
  5
1BE
100
AcDbEntity
  8
0
  6
CONTINUOUS
 62
     7
100
AcDbLine
 10
184.21043
 20
147.71059
 30
0.0
 11
185.08301
 21
149.81715
 31
0.0
  0
LINE
  5
1BF
100
AcDbEntity
  8
0
  6
CONTINUOUS
 62
     7
100
AcDbLine
 10
187.94423
 20
146.164
 30
0.0
 11
188.81679
 21
148.27058
 31
0.0
  0
LINE
  5
1C0
100
AcDbEntity
  8
0
  6
CONTINUOUS
 62
     7
100
AcDbLine
 10
183.76726
 20
150.36217
 30
0.0
 11
190.13257
 21
147.72557
 31
0.0
  0
LINE
  5
1C1
100
AcDbEntity
  8
0
  6
CONTINUOUS
 62
     7
100
AcDbLine
 10
190.4554
 20
146.94606
 30
0.0
 11
190.13254
 21
147.72551
 31
0.0
  0
LINE
  5
1C2
100
AcDbEntity
  8
0
  6
CONTINUOUS
 62
     7
100
AcDbLine
 10
182.96471
 20
146.73949
 30
0.0
 11
188.13843
 21
144.59645
 31
0.0
  0
LINE
  5
1C3
100
AcDbEntity
  8
0
  6
CONTINUOUS
 62
     7
100
AcDbLine
 10
182.80295
 20
148.29359
 30
0.0
 11
189.35173
 21
145.58099
 31
0.0
  0
LINE
  5
1C4
100
AcDbEntity
  8
0
  6
CONTINUOUS
 62
     7
100
AcDbLine
 10
188.02722
 20
143.05177
 30
0.0
 11
191.50003
 21
143.05177
 31
0.0
  0
LINE
  5
1C5
100
AcDbEntity
  8
0
  6
CENTER
 62
     7
100
AcDbLine
 10
98.999992
 20
152.0
 30
0.0
 11
381.0
 21
152.0
 31
0.0
  0
ARC
  5
1C6
100
AcDbEntity
  8
0
  6
CONTINUOUS
 62
     7
100
AcDbCircle
 10
12.80397
 20
11.386288
 30
0.0
 40
0.5
100
AcDbArc
 50
150.00001
 51
240.00001
  0
ARC
  5
1C7
100
AcDbEntity
  8
0
  6
CONTINUOUS
 62
     7
100
AcDbCircle
 10
27.0
 20
12.500004
 30
0.0
 40
3.0
100
AcDbArc
 50
270.0
 51
359.99998
  0
ARC
  5
1C8
100
AcDbEntity
  8
0
  6
CONTINUOUS
 62
     7
100
AcDbCircle
 10
-14.8965
 20
17.440109
 30
0.0
 40
2.48
100
AcDbArc
 50
1.763702
 51
58.236298
  0
ARC
  5
1C9
100
AcDbEntity
  8
0
  6
CONTINUOUS
 62
     7
100
AcDbCircle
 10
-10.658386
 20
24.796062
 30
0.0
 40
2.48
100
AcDbArc
 50
226.40199
 51
313.59801
  0
ARC
  5
1CA
100
AcDbEntity
  8
0
  6
CONTINUOUS
 62
     7
100
AcDbCircle
 10
-9.525879
 20
10.507816
 30
0.0
 40
1.0
100
AcDbArc
 50
300.0029
 51
29.998494
  0
ARC
  5
1CB
100
AcDbEntity
  8
0
  6
CONTINUOUS
 62
     7
100
AcDbCircle
 10
14.8965
 20
17.440098
 30
0.0
 40
2.48
100
AcDbArc
 50
121.77969
 51
178.2203
  0
ARC
  5
1CC
100
AcDbEntity
  8
0
  6
CONTINUOUS
 62
     7
100
AcDbCircle
 10
10.658386
 20
24.796051
 30
0.0
 40
2.48
100
AcDbArc
 50
226.40199
 51
313.59801
  0
ARC
  5
1CD
100
AcDbEntity
  8
0
  6
CONTINUOUS
 62
     7
100
AcDbCircle
 10
9.525879
 20
10.507816
 30
0.0
 40
1.0
100
AcDbArc
 50
150.00151
 51
239.9971
  0
ARC
  5
1CE
100
AcDbEntity
  8
0
  6
CONTINUOUS
 62
     7
100
AcDbCircle
 10
188.14993
 20
34.000053
 30
0.0
 40
3.982466
100
AcDbArc
 50
241.50401
 51
270.0
  0
ARC
  5
1CF
100
AcDbEntity
  8
0
  6
CONTINUOUS
 62
     7
100
AcDbCircle
 10
193.04993
 20
30.410065
 30
0.0
 40
1.896939
100
AcDbArc
 50
144.79204
 51
178.1912
  0
ARC
  5
1D0
100
AcDbEntity
  8
0
  6
CONTINUOUS
 62
     7
100
AcDbCircle
 10
194.44995
 20
33.470055
 30
0.0
 40
3.318497
100
AcDbArc
 50
186.05432
 51
207.26076
  0
ARC
  5
1D1
100
AcDbEntity
  8
0
  6
CONTINUOUS
 62
     7
100
AcDbCircle
 10
194.44995
 20
34.530052
 30
0.0
 40
3.31788
100
AcDbArc
 50
152.75994
 51
173.94588
  0
ARC
  5
1D2
100
AcDbEntity
  8
0
  6
CONTINUOUS
 62
     7
100
AcDbCircle
 10
193.04984
 20
37.590065
 30
0.0
 40
1.90094
100
AcDbArc
 50
181.80867
 51
215.38487
  0
ARC
  5
1D3
100
AcDbEntity
  8
0
  6
CONTINUOUS
 62
     7
100
AcDbCircle
 10
188.14993
 20
34.000053
 30
0.0
 40
4.0
100
AcDbArc
 50
90.0
 51
118.49573
  0
CIRCLE
  5
1D4
100
AcDbEntity
  8
0
  6
CONTINUOUS
 62
     7
100
AcDbCircle
 10
197.04987
 20
38.500076
 30
0.0
 40
0.7
  0
CIRCLE
  5
1D5
100
AcDbEntity
  8
0
  6
CONTINUOUS
 62
     7
100
AcDbCircle
 10
197.04987
 20
37.500023
 30
0.0
 40
2.0
  0
ARC
  5
1D6
100
AcDbEntity
  8
0
  6
CONTINUOUS
 62
     7
100
AcDbCircle
 10
-12.80397
 20
11.386288
 30
0.0
 40
0.5
100
AcDbArc
 50
299.99999
 51
29.999985
  0
ARC
  5
1D7
100
AcDbEntity
  8
0
  6
CONTINUOUS
 62
     7
100
AcDbCircle
 10
-27.0
 20
12.500004
 30
0.0
 40
3.0
100
AcDbArc
 50
180.00002
 51
270.0
  0
CIRCLE
  5
1D8
100
AcDbEntity
  8
0
  6
CONTINUOUS
 62
     7
100
AcDbCircle
 10
-17.499985
 20
33.000114
 30
0.0
 40
1.6
  0
ARC
  5
1D9
100
AcDbEntity
  8
0
  6
CONTINUOUS
 62
     7
100
AcDbCircle
 10
7.610001
 20
31.709986
 30
0.0
 40
0.968342
100
AcDbArc
 50
215.33144
 51
278.29721
  0
ARC
  5
1DA
100
AcDbEntity
  8
0
  6
CONTINUOUS
 62
     7
100
AcDbCircle
 10
6.62001
 20
29.919992
 30
0.0
 40
1.246148
100
AcDbArc
 50
80.764534
 51
142.12505
  0
ARC
  5
1DB
100
AcDbEntity
  8
0
  6
CONTINUOUS
 62
     7
100
AcDbCircle
 10
6.62001
 20
38.079998
 30
0.0
 40
1.254199
100
AcDbArc
 50
217.875
 51
279.23535
  0
ARC
  5
1DC
100
AcDbEntity
  8
0
  6
CONTINUOUS
 62
     7
100
AcDbCircle
 10
7.610001
 20
36.289989
 30
0.0
 40
0.970161
100
AcDbArc
 50
81.702892
 51
144.66851
  0
ARC
  5
1DD
100
AcDbEntity
  8
0
  6
CONTINUOUS
 62
     7
100
AcDbCircle
 10
0.0
 20
33.999996
 30
0.0
 40
4.0
100
AcDbArc
 50
240.00002
 51
241.04499
  0
ARC
  5
1DE
100
AcDbEntity
  8
0
  6
CONTINUOUS
 62
     7
100
AcDbCircle
 10
0.0
 20
33.999996
 30
0.0
 40
3.998106
100
AcDbArc
 50
61.094032
 51
298.90591
  0
CIRCLE
  5
1DF
100
AcDbEntity
  8
0
  6
CONTINUOUS
 62
     7
100
AcDbCircle
 10
219.99998
 20
131.99998
 30
0.0
 40
3.999985
  0
CIRCLE
  5
1E0
100
AcDbEntity
  8
0
  6
CONTINUOUS
 62
     7
100
AcDbCircle
 10
219.99998
 20
131.99998
 30
0.0
 40
3.4
  0
CIRCLE
  5
1E1
100
AcDbEntity
  8
0
  6
CONTINUOUS
 62
     7
100
AcDbCircle
 10
119.99999
 20
152.0
 30
0.0
 40
3.500015
  0
CIRCLE
  5
1E2
100
AcDbEntity
  8
0
  6
CONTINUOUS
 62
     7
100
AcDbCircle
 10
119.99999
 20
152.0
 30
0.0
 40
5.499985
  0
ARC
  5
1E3
100
AcDbEntity
  8
0
  6
CONTINUOUS
 62
     7
100
AcDbCircle
 10
195.39964
 20
154.0
 30
0.0
 40
4.249771
100
AcDbArc
 50
156.57864
 51
203.42136
  0
ARC
  5
1E4
100
AcDbEntity
  8
0
  6
CONTINUOUS
 62
     7
100
AcDbCircle
 10
195.39977
 20
150.0
 30
0.0
 40
4.249886
100
AcDbArc
 50
156.5791
 51
203.4209
  0
ARC
  5
1E5
100
AcDbEntity
  8
0
  6
CONTINUOUS
 62
     7
100
AcDbCircle
 10
184.88324
 20
144.05447
 30
0.0
 40
3.299999
100
AcDbArc
 50
131.58027
 51
157.49984
  0
ARC
  5
1E6
100
AcDbEntity
  8
0
  6
CONTINUOUS
 62
     7
100
AcDbCircle
 10
184.88324
 20
144.05447
 30
0.0
 40
3.299999
100
AcDbArc
 50
337.50009
 51
3.419604
  0
ARC
  5
1E7
100
AcDbEntity
  8
0
  6
CONTINUOUS
 62
     7
100
AcDbCircle
 10
176.96689
 20
146.90057
 30
0.0
 40
6.0
100
AcDbArc
 50
2.433665
 51
20.87177
  0
ARC
  5
1E8
100
AcDbEntity
  8
0
  6
CONTINUOUS
 62
     7
100
AcDbCircle
 10
192.49342
 20
140.46927
 30
0.0
 40
6.0
100
AcDbArc
 50
114.12778
 51
132.56625
  0
ARC
  5
1E9
100
AcDbEntity
  8
0
  6
CONTINUOUS
 62
     7
100
AcDbCircle
 10
182.16219
 20
147.12137
 30
0.0
 40
0.8
100
AcDbArc
 50
311.58008
 51
2.43335
  0
ARC
  5
1EA
100
AcDbEntity
  8
0
  6
CONTINUOUS
 62
     7
100
AcDbCircle
 10
188.97592
 20
144.29903
 30
0.0
 40
0.8
100
AcDbArc
 50
132.56744
 51
183.42043
  0
ARC
  5
1EB
100
AcDbEntity
  8
0
  6
CONTINUOUS
 62
     7
100
AcDbCircle
 10
187.84999
 20
152.0
 30
0.0
 40
4.0
100
AcDbArc
 50
90.0
 51
180.0
  0
ELLIPSE
  5
1EC
100
AcDbEntity
  8
0
  6
CONTINUOUS
 62
     7
100
AcDbEllipse
 10
183.84995
 20
34.000065
 30
0.0
 11
0.0090248265
 21
2.4999829
 31
0.0
210
0.0
220
0.0
230
0.9999999999999998
 40
0.920002
 41
0.0
 42
6.283185299999999
  0
ELLIPSE
  5
1ED
100
AcDbEntity
  8
0
  6
CONTINUOUS
 62
     7
100
AcDbEllipse
 10
184.94994
 20
34.000065
 30
0.0
 11
0.01215899
 21
3.249977399999999
 31
0.0
210
0.0
220
0.0
230
1.0
 40
0.923077
 41
0.0040530024
 42
0.8388344599999999
  0
ELLIPSE
  5
1EE
100
AcDbEntity
  8
0
  6
CONTINUOUS
 62
     7
100
AcDbEllipse
 10
184.94994
 20
34.000065
 30
0.0
 11
0.01215899
 21
3.249977399999999
 31
0.0
210
0.0
220
0.0
230
1.0
 40
0.923077
 41
2.310229
 42
6.287238309579586
  0
ELLIPSE
  5
1EF
100
AcDbEntity
  8
0
  6
CONTINUOUS
 62
     7
100
AcDbEllipse
 10
6.820007
 20
33.999981
 30
0.0
 11
-0.000015258784
 21
2.8499908
 31
0.0
210
0.0
220
0.0
230
0.9999999999999998
 40
0.382456
 41
0.0
 42
3.1078771
  0
ELLIPSE
  5
1F0
100
AcDbEntity
  8
0
  6
CONTINUOUS
 62
     7
100
AcDbEllipse
 10
10.520004
 20
33.999996
 30
0.0
 11
0.0
 21
2.5
 31
0.0
210
0.0
220
0.0
230
1.0
 40
0.379998
 41
0.0
 42
6.283185299999999
  0
TEXT
  5
1FD
100
AcDbEntity
  8
0
  6
CONTINUOUS
 62
     7
100
AcDbText
 10
-11.2855
 20
-31.8
 30
0.0
 40
3.6
  1
SSR30XWM
 41
0.984787
100
AcDbText
  0
ENDSEC
  0
SECTION
  2
OBJECTS
  0
DICTIONARY
  5
1F2
100
AcDbDictionary
  3
ACAD_GROUP
350
1F3
  3
ACAD_MLINESTYLE
350
1F4
  0
DICTIONARY
  5
1F3
102
{ACAD_REACTORS
330
1F2
102
}
100
AcDbDictionary
  0
DICTIONARY
  5
1F4
102
{ACAD_REACTORS
330
1F2
102
}
100
AcDbDictionary
  3
STANDARD
350
1F5
  0
MLINESTYLE
  5
1F5
102
{ACAD_REACTORS
330
1F4
102
}
100
AcDbMlineStyle
  2
STANDARD
 70
     0
  3

 62
     0
 51
90.0
 52
90.0
 71
     2
 49
0.5
 62
   256
  6
BYLAYER
 49
-0.5
 62
   256
  6
BYLAYER
  0
ENDSEC
  0
EOF
