  0
SECTION
  2
HEADER
  0
ENDSEC
  0
SECTION
  2
TABLES
  0
TABLE
  2
LTYPE
 70
    22
  0
LTYPE
  2
CONTINUOUS
 70
    64
  3
Solid line
 72
    65
 73
     0
 40
0.000000
  0
LTYPE
  2
DASHED
 70
    64
  3
__ __ __ __ __ __ __ __ __ __ __ __ __ __ __
 72
    65
 73
     2
 40
3.500000
 49
2.000000
 49
-1.500000
  0
LTYPE
  2
CENTER
 70
    64
  3
____ _ ____ _ ____ _ ____ _ ____ _ ____ _ ____
 72
    65
 73
     4
 40
17.500000
 49
13.000000
 49
-1.500000
 49
1.500000
 49
-1.500000
  0
LTYPE
  2
PHANTOM
 70
    64
  3
_____ _ _ _____ _ _ _____ _ _ _____ _ _ ____  
 72
    65
 73
     6
 40
15.500000
 49
8.000000
 49
-1.500000
 49
1.500000
 49
-1.500000
 49
1.500000
 49
-1.500000
  0
LTYPE
  2
DOT
 70
    64
  3
. . . . . . . . . . . . . . . . . . . . . . . .
 72
    65
 73
     2
 40
0.25
 49
0.0
 49
-0.25
  0
ENDTAB
  0
TABLE
  2
LAYER
 70
     1
  0
LAYER
  2
0
 70
     0
 62
     7
  6
CONTINUOUS
  0
ENDTAB
  0
TABLE
  2
STYLE
 70
     1
  0
STYLE
  2
STANDARD
 70
     0
 40
0.000000
 41
1.000000
 50
0.000000
 71
     0
 42
0.200000
  3
txt
  0
ENDTAB
  0
TABLE
  2
VIEW
 70
     0
  0
ENDTAB
  0
ENDSEC
  0
SECTION
  2
BLOCKS
  0
ENDSEC
  0
SECTION
  2
ENTITIES
  0
LINE
  8
0
  6
CENTER
 62
     7
 10
0
 20
-14.269775
 11
0
 21
18.270264
  0
LINE
  8
0
  6
CONTINUOUS
 62
     7
 10
147.99951
 20
187.49976
 11
101.00012
 21
187.49976
  0
LINE
  8
0
  6
CONTINUOUS
 62
     7
 10
136.99976
 20
188.49951
 11
136.99976
 21
209.99976
  0
LINE
  8
0
  6
CENTER
 62
     7
 10
134.29968
 20
298.00012
 11
134.29968
 21
302.00024
  0
LINE
  8
0
  6
CONTINUOUS
 62
     7
 10
149
 20
186.99951
 11
149
 21
213.99951
  0
LINE
  8
0
  6
CONTINUOUS
 62
     7
 10
150.5
 20
203.44971
 11
150.5
 21
207.5
  0
LINE
  8
0
  6
CONTINUOUS
 62
     7
 10
150.5
 20
207.5
 11
149
 21
207.5
  0
LINE
  8
0
  6
CONTINUOUS
 62
     7
 10
16.799927
 20
-12.499878
 11
-16.800293
 21
-12.499878
  0
LINE
  8
0
  6
DASHED
 62
     7
 10
310.69983
 20
187.2998
 11
307.29993
 21
187.2998
  0
LINE
  8
0
  6
DASHED
 62
     7
 10
307.29987
 20
187.30026
 11
306.99966
 21
187.00006
  0
LINE
  8
0
  6
DASHED
 62
     7
 10
307.29993
 20
187.2998
 11
307.29993
 21
188.99976
  0
LINE
  8
0
  6
DASHED
 62
     7
 10
312.24963
 20
188.99976
 11
305.74976
 21
188.99976
  0
LINE
  8
0
  6
DASHED
 62
     7
 10
305.74976
 20
188.99976
 11
305.74976
 21
191.99976
  0
LINE
  8
0
  6
CENTER
 62
     7
 10
308.99988
 20
185.72949
 11
308.99988
 21
193.26978
  0
LINE
  8
0
  6
DASHED
 62
     7
 10
312.24963
 20
188.99976
 11
312.24963
 21
191.99976
  0
LINE
  8
0
  6
DASHED
 62
     7
 10
310.69983
 20
187.2998
 11
310.69983
 21
188.99976
  0
LINE
  8
0
  6
DASHED
 62
     7
 10
310.69946
 20
187.30038
 11
310.99933
 21
187.00052
  0
LINE
  8
0
  6
CONTINUOUS
 62
     7
 10
-19.800293
 20
-9.4998779
 11
-19.800293
 21
16.000122
  0
LINE
  8
0
  6
CONTINUOUS
 62
     7
 10
19.799927
 20
-9.4998779
 11
19.799927
 21
16.000122
  0
LINE
  8
0
  6
CONTINUOUS
 62
     7
 10
147.99951
 20
215
 11
141.50012
 21
215
  0
LINE
  8
0
  6
CONTINUOUS
 62
     7
 10
18.799805
 20
17.000244
 11
-18.799805
 21
17.000244
  0
LINE
  8
0
  6
CENTER
 62
     7
 10
360.27002
 20
300
 11
98.72998
 21
300
  0
LINE
  8
0
  6
CONTINUOUS
 62
     7
 10
149
 20
319.80029
 11
348.99988
 21
319.80029
  0
LINE
  8
0
  6
CONTINUOUS
 62
     7
 10
149
 20
320.00024
 11
149
 21
280.00024
  0
LINE
  8
0
  6
CONTINUOUS
 62
     7
 10
348.99988
 20
320.00024
 11
348.99988
 21
280.00024
  0
LINE
  8
0
  6
CONTINUOUS
 62
     7
 10
149
 20
280.19983
 11
348.99988
 21
280.19983
  0
LINE
  8
0
  6
CONTINUOUS
 62
     7
 10
151.00012
 20
302.6001
 11
153.50012
 21
302.6001
  0
LINE
  8
0
  6
CONTINUOUS
 62
     7
 10
151.00012
 20
297.3999
 11
153.50012
 21
297.3999
  0
LINE
  8
0
  6
CONTINUOUS
 62
     7
 10
359
 20
312
 11
359
 21
288
  0
LINE
  8
0
  6
CONTINUOUS
 62
     7
 10
353.49988
 20
319.80029
 11
349.49976
 21
319.80029
  0
LINE
  8
0
  6
CONTINUOUS
 62
     7
 10
353.49988
 20
280.19983
 11
349.49976
 21
280.19983
  0
LINE
  8
0
  6
CONTINUOUS
 62
     7
 10
137.00012
 20
310.5
 11
137.00012
 21
289.5
  0
LINE
  8
0
  6
CONTINUOUS
 62
     7
 10
147.99988
 20
280.19983
 11
101.00012
 21
280.19983
  0
LINE
  8
0
  6
CONTINUOUS
 62
     7
 10
147.99988
 20
319.80029
 11
101.00012
 21
319.80029
  0
LINE
  8
0
  6
CONTINUOUS
 62
     7
 10
131.99988
 20
306.75
 11
131.99988
 21
293.25
  0
LINE
  8
0
  6
CONTINUOUS
 62
     7
 10
-15.550049
 20
-8.4785156
 11
-15.550049
 21
-9.9213867
  0
LINE
  8
0
  6
CONTINUOUS
 62
     7
 10
-18.049805
 20
-8.4785156
 11
-18.049805
 21
-9.9213867
  0
LINE
  8
0
  6
CONTINUOUS
 62
     7
 10
-18.050056
 20
-8.4790916
 11
-16.799858
 21
-7.7572904
  0
LINE
  8
0
  6
CONTINUOUS
 62
     7
 10
-16.799995
 20
-10.644261
 11
-15.549798
 21
-9.9224596
  0
LINE
  8
0
  6
CONTINUOUS
 62
     7
 10
-16.800314
 20
-7.7563782
 11
-15.550117
 21
-8.4781799
  0
LINE
  8
0
  6
CONTINUOUS
 62
     7
 10
-18.050406
 20
-9.9216003
 11
-16.800207
 21
-10.643402
  0
LINE
  8
0
  6
CONTINUOUS
 62
     7
 10
141.50012
 20
215
 11
141.50012
 21
215.99976
  0
LINE
  8
0
  6
CONTINUOUS
 62
     7
 10
140.49963
 20
216.99951
 11
101.00012
 21
216.99951
  0
LINE
  8
0
  6
DASHED
 62
     7
 10
142
 20
319.80029
 11
142
 21
313.5
  0
LINE
  8
0
  6
CONTINUOUS
 62
     7
 10
348.99988
 20
307.5
 11
342.99988
 21
307.5
  0
LINE
  8
0
  6
CONTINUOUS
 62
     7
 10
348.99988
 20
292.5
 11
342.99988
 21
292.5
  0
LINE
  8
0
  6
CONTINUOUS
 62
     7
 10
150.5
 20
312
 11
150.5
 21
288
  0
LINE
  8
0
  6
CONTINUOUS
 62
     7
 10
150.5
 20
312
 11
149
 21
312
  0
LINE
  8
0
  6
CONTINUOUS
 62
     7
 10
150.5
 20
288
 11
149
 21
288
  0
LINE
  8
0
  6
CONTINUOUS
 62
     7
 10
151.00012
 20
297
 11
153.50012
 21
297
  0
LINE
  8
0
  6
CONTINUOUS
 62
     7
 10
151.00012
 20
303
 11
153.50012
 21
303
  0
LINE
  8
0
  6
CONTINUOUS
 62
     7
 10
157.49927
 20
311.00024
 11
157.49927
 21
303
  0
LINE
  8
0
  6
CONTINUOUS
 62
     7
 10
157.49927
 20
289.00012
 11
150.5
 21
289.00012
  0
LINE
  8
0
  6
CONTINUOUS
 62
     7
 10
157.49927
 20
311.00024
 11
150.5
 21
311.00024
  0
LINE
  8
0
  6
CONTINUOUS
 62
     7
 10
157.49927
 20
297
 11
157.49927
 21
289.00012
  0
LINE
  8
0
  6
CONTINUOUS
 62
     7
 10
153.59961
 20
206.99976
 11
153.59961
 21
203.44971
  0
LINE
  8
0
  6
CENTER
 62
     7
 10
143
 20
204.74976
 11
153.59961
 21
204.74976
  0
LINE
  8
0
  6
CONTINUOUS
 62
     7
 10
151.09949
 20
206.99976
 11
153.59961
 21
206.99976
  0
LINE
  8
0
  6
CONTINUOUS
 62
     7
 10
151.09985
 20
294.02271
 11
153.59961
 21
294.02271
  0
LINE
  8
0
  6
CONTINUOUS
 62
     7
 10
153.59961
 20
289.52271
 11
153.59961
 21
294.02271
  0
LINE
  8
0
  6
CENTER
 62
     7
 10
147.07349
 20
291.77271
 11
153.59961
 21
291.77271
  0
LINE
  8
0
  6
CONTINUOUS
 62
     7
 10
151.09985
 20
289.52271
 11
153.59961
 21
289.52271
  0
LINE
  8
0
  6
CENTER
 62
     7
 10
147.70218
 20
308.22729
 11
153.59961
 21
308.22729
  0
LINE
  8
0
  6
CONTINUOUS
 62
     7
 10
153.59961
 20
310.47729
 11
153.59961
 21
305.97729
  0
LINE
  8
0
  6
CONTINUOUS
 62
     7
 10
151.09985
 20
305.97729
 11
153.59961
 21
305.97729
  0
LINE
  8
0
  6
CONTINUOUS
 62
     7
 10
151.09985
 20
310.47729
 11
153.59961
 21
310.47729
  0
LINE
  8
0
  6
CONTINUOUS
 62
     7
 10
111.99963
 20
188.49951
 11
111.99963
 21
209
  0
LINE
  8
0
  6
CONTINUOUS
 62
     7
 10
100
 20
188.49951
 11
100
 21
215.99976
  0
LINE
  8
0
  6
CONTINUOUS
 62
     7
 10
140.99988
 20
209.99976
 11
112.99976
 21
209.99976
  0
LINE
  8
0
  6
DASHED
 62
     7
 10
136.99976
 20
189.99951
 11
100
 21
189.99951
  0
LINE
  8
0
  6
CENTER
 62
     7
 10
11.27002
 20
0
 11
-11.269958
 21
0
  0
LINE
  8
0
  6
CONTINUOUS
 62
     7
 10
136.99976
 20
200
 11
111.99963
 21
200
  0
LINE
  8
0
  6
DASHED
 62
     7
 10
111.99963
 20
209.99976
 11
100
 21
209.99976
  0
LINE
  8
0
  6
CONTINUOUS
 62
     7
 10
100
 20
318.7998
 11
100
 21
281.20032
  0
LINE
  8
0
  6
DASHED
 62
     7
 10
112
 20
319.80029
 11
112
 21
313.5
  0
LINE
  8
0
  6
CONTINUOUS
 62
     7
 10
131.99988
 20
305.00024
 11
113.99988
 21
305.00024
  0
LINE
  8
0
  6
CONTINUOUS
 62
     7
 10
131.99988
 20
295.00012
 11
113.99988
 21
295.00012
  0
LINE
  8
0
  6
DASHED
 62
     7
 10
140.99988
 20
287.50012
 11
134.99988
 21
287.50012
  0
LINE
  8
0
  6
DASHED
 62
     7
 10
140.99988
 20
312.50024
 11
134.99988
 21
312.50024
  0
LINE
  8
0
  6
CONTINUOUS
 62
     7
 10
137.00012
 20
310.5
 11
112
 21
310.5
  0
LINE
  8
0
  6
CONTINUOUS
 62
     7
 10
137.00012
 20
289.5
 11
112
 21
289.5
  0
LINE
  8
0
  6
DASHED
 62
     7
 10
137.79993
 20
319.5498
 11
137.79993
 21
314.05005
  0
LINE
  8
0
  6
DASHED
 62
     7
 10
137.79993
 20
319.5498
 11
140.79993
 21
319.5498
  0
LINE
  8
0
  6
DASHED
 62
     7
 10
137.79993
 20
314.05005
 11
140.79993
 21
314.05005
  0
LINE
  8
0
  6
DASHED
 62
     7
 10
137.79993
 20
285.94995
 11
137.79993
 21
280.45032
  0
LINE
  8
0
  6
DASHED
 62
     7
 10
137.79993
 20
285.94995
 11
140.79993
 21
285.94995
  0
LINE
  8
0
  6
DASHED
 62
     7
 10
137.79993
 20
280.45032
 11
140.79993
 21
280.45032
  0
LINE
  8
0
  6
CENTER
 62
     7
 10
358.19983
 20
316.80029
 11
343.99988
 21
316.80029
  0
LINE
  8
0
  6
CENTER
 62
     7
 10
154
 20
316.80029
 11
137.79993
 21
316.80029
  0
LINE
  8
0
  6
CENTER
 62
     7
 10
154
 20
283.19983
 11
137.79993
 21
283.19983
  0
LINE
  8
0
  6
CENTER
 62
     7
 10
358.19983
 20
283.19983
 11
343.99988
 21
283.19983
  0
LINE
  8
0
  6
DASHED
 62
     7
 10
112
 20
286.5
 11
112
 21
280.19983
  0
LINE
  8
0
  6
CONTINUOUS
 62
     7
 10
112
 20
310.5
 11
112
 21
289.5
  0
LINE
  8
0
  6
CONTINUOUS
 62
     7
 10
134.99988
 20
287.50012
 11
113.99988
 21
287.50012
  0
LINE
  8
0
  6
CONTINUOUS
 62
     7
 10
134.99988
 20
312.50024
 11
113.99988
 21
312.50024
  0
LINE
  8
0
  6
DASHED
 62
     7
 10
113.99988
 20
312.50024
 11
113.00012
 21
312.50024
  0
LINE
  8
0
  6
DASHED
 62
     7
 10
113.99988
 20
287.50012
 11
113.00012
 21
287.50012
  0
LINE
  8
0
  6
DASHED
 62
     7
 10
140.79993
 20
286.1499
 11
140.79993
 21
280.25037
  0
LINE
  8
0
  6
DASHED
 62
     7
 10
141.50012
 20
280.25037
 11
140.79993
 21
280.25037
  0
LINE
  8
0
  6
DASHED
 62
     7
 10
141.50012
 20
286.1499
 11
140.79993
 21
286.1499
  0
LINE
  8
0
  6
DASHED
 62
     7
 10
141.50012
 20
313.8501
 11
140.79993
 21
313.8501
  0
LINE
  8
0
  6
DASHED
 62
     7
 10
140.79993
 20
313.8501
 11
140.79993
 21
319.75012
  0
LINE
  8
0
  6
DASHED
 62
     7
 10
141.50012
 20
319.75012
 11
140.79993
 21
319.75012
  0
LINE
  8
0
  6
CONTINUOUS
 62
     7
 10
131.99988
 20
302.50012
 11
131.29968
 21
302.50012
  0
LINE
  8
0
  6
CONTINUOUS
 62
     7
 10
131.99988
 20
297.50024
 11
131.29968
 21
297.50024
  0
LINE
  8
0
  6
CONTINUOUS
 62
     7
 10
136.49988
 20
306.75
 11
131.99988
 21
306.75
  0
LINE
  8
0
  6
CONTINUOUS
 62
     7
 10
137.00012
 20
304.5
 11
136.49988
 21
304.5
  0
LINE
  8
0
  6
CONTINUOUS
 62
     7
 10
131.00012
 20
297.7998
 11
131.00012
 21
302.2002
  0
LINE
  8
0
  6
CONTINUOUS
 62
     7
 10
130.9996
 20
302.20084
 11
131.29947
 21
302.5007
  0
LINE
  8
0
  6
CONTINUOUS
 62
     7
 10
130.99951
 20
297.80072
 11
131.2999
 21
297.50034
  0
LINE
  8
0
  6
CONTINUOUS
 62
     7
 10
131.29968
 20
297.50024
 11
131.29968
 21
302.50012
  0
LINE
  8
0
  6
CONTINUOUS
 62
     7
 10
131.00012
 20
302.00024
 11
123.2998
 21
302.00024
  0
LINE
  8
0
  6
CONTINUOUS
 62
     7
 10
131.00012
 20
298.00012
 11
123.2998
 21
298.00012
  0
LINE
  8
0
  6
CONTINUOUS
 62
     7
 10
131.99988
 20
302.23022
 11
131.02979
 21
302.23022
  0
LINE
  8
0
  6
CONTINUOUS
 62
     7
 10
131.99988
 20
297.77014
 11
131.02979
 21
297.77014
  0
LINE
  8
0
  6
CONTINUOUS
 62
     7
 10
123.29944
 20
200
 11
123.29944
 21
202.00024
  0
LINE
  8
0
  6
CONTINUOUS
 62
     7
 10
123.29956
 20
202.00044
 11
122.99952
 21
201.70039
  0
LINE
  8
0
  6
CONTINUOUS
 62
     7
 10
122.99951
 20
200
 11
122.99951
 21
201.69995
  0
LINE
  8
0
  6
CONTINUOUS
 62
     7
 10
136.49951
 20
206.75
 11
136.49951
 21
200
  0
LINE
  8
0
  6
CONTINUOUS
 62
     7
 10
136.49988
 20
293.25
 11
131.99988
 21
293.25
  0
LINE
  8
0
  6
CONTINUOUS
 62
     7
 10
136.49988
 20
306.75
 11
136.49988
 21
293.25
  0
LINE
  8
0
  6
CONTINUOUS
 62
     7
 10
137.00012
 20
295.5
 11
136.49988
 21
295.5
  0
LINE
  8
0
  6
CONTINUOUS
 62
     7
 10
157.49927
 20
305.00024
 11
150.5
 21
305.00024
  0
LINE
  8
0
  6
CONTINUOUS
 62
     7
 10
157.49927
 20
295.00012
 11
150.5
 21
295.00012
  0
LINE
  8
0
  6
CONTINUOUS
 62
     7
 10
353.99976
 20
319.80029
 11
353.99976
 21
313.5
  0
LINE
  8
0
  6
CONTINUOUS
 62
     7
 10
355.19983
 20
286.1499
 11
355.19983
 21
280.25037
  0
LINE
  8
0
  6
CONTINUOUS
 62
     7
 10
354.5
 20
286.1499
 11
355.19983
 21
286.1499
  0
LINE
  8
0
  6
CONTINUOUS
 62
     7
 10
354.5
 20
280.25037
 11
355.19983
 21
280.25037
  0
LINE
  8
0
  6
CONTINUOUS
 62
     7
 10
354.5
 20
319.75012
 11
355.19983
 21
319.75012
  0
LINE
  8
0
  6
CONTINUOUS
 62
     7
 10
355.19983
 20
313.8501
 11
355.19983
 21
319.75012
  0
LINE
  8
0
  6
CONTINUOUS
 62
     7
 10
354.5
 20
313.8501
 11
355.19983
 21
313.8501
  0
LINE
  8
0
  6
CONTINUOUS
 62
     7
 10
358.19983
 20
319.5498
 11
358.19983
 21
314.05005
  0
LINE
  8
0
  6
CONTINUOUS
 62
     7
 10
358.19983
 20
319.5498
 11
355.19983
 21
319.5498
  0
LINE
  8
0
  6
CONTINUOUS
 62
     7
 10
358.19983
 20
314.05005
 11
355.19983
 21
314.05005
  0
LINE
  8
0
  6
CONTINUOUS
 62
     7
 10
358.19983
 20
285.94995
 11
358.19983
 21
280.45032
  0
LINE
  8
0
  6
CONTINUOUS
 62
     7
 10
358.19983
 20
285.94995
 11
355.19983
 21
285.94995
  0
LINE
  8
0
  6
CONTINUOUS
 62
     7
 10
358.19983
 20
280.45032
 11
355.19983
 21
280.45032
  0
LINE
  8
0
  6
CONTINUOUS
 62
     7
 10
353.99976
 20
286.5
 11
353.99976
 21
280.19983
  0
LINE
  8
0
  6
CONTINUOUS
 62
     7
 10
357.99988
 20
287.00024
 11
354.5
 21
287.00024
  0
LINE
  8
0
  6
CONTINUOUS
 62
     7
 10
357.99988
 20
313.00012
 11
354.5
 21
313.00012
  0
LINE
  8
0
  6
CONTINUOUS
 62
     7
 10
122.99988
 20
298.30005
 11
122.99988
 21
301.69995
  0
LINE
  8
0
  6
CONTINUOUS
 62
     7
 10
123.29989
 20
302.00037
 11
122.99985
 21
301.70032
  0
LINE
  8
0
  6
CONTINUOUS
 62
     7
 10
122.9995
 20
298.30048
 11
123.29937
 21
298.00061
  0
LINE
  8
0
  6
CONTINUOUS
 62
     7
 10
123.2998
 20
298.00012
 11
123.2998
 21
302.00024
  0
LINE
  8
0
  6
CONTINUOUS
 62
     7
 10
131.99951
 20
202.23022
 11
131.02942
 21
202.23022
  0
LINE
  8
0
  6
CONTINUOUS
 62
     7
 10
130.99976
 20
202.00024
 11
123.29944
 21
202.00024
  0
LINE
  8
0
  6
CONTINUOUS
 62
     7
 10
131.29932
 20
200
 11
131.29932
 21
202.50012
  0
LINE
  8
0
  6
CONTINUOUS
 62
     7
 10
130.99924
 20
202.2009
 11
131.2991
 21
202.50076
  0
LINE
  8
0
  6
CONTINUOUS
 62
     7
 10
130.99976
 20
200
 11
130.99976
 21
202.2002
  0
LINE
  8
0
  6
CONTINUOUS
 62
     7
 10
136.6996
 20
204.50072
 11
136.99947
 21
204.20087
  0
LINE
  8
0
  6
CONTINUOUS
 62
     7
 10
131.99988
 20
298.87793
 11
136.49988
 21
298.87793
  0
LINE
  8
0
  6
CONTINUOUS
 62
     7
 10
131.99988
 20
301.12207
 11
136.49988
 21
301.12207
  0
LINE
  8
0
  6
CONTINUOUS
 62
     7
 10
136.69946
 20
204.5
 11
136.49951
 21
204.5
  0
LINE
  8
0
  6
CONTINUOUS
 62
     7
 10
136.49951
 20
206.75
 11
131.99951
 21
206.75
  0
LINE
  8
0
  6
CONTINUOUS
 62
     7
 10
131.99951
 20
202.50012
 11
131.29932
 21
202.50012
  0
LINE
  8
0
  6
CONTINUOUS
 62
     7
 10
131.99951
 20
206.75
 11
131.99951
 21
200
  0
LINE
  8
0
  6
CONTINUOUS
 62
     7
 10
1.1213193
 20
-6.6554637
 11
6.655086
 21
-1.1216969
  0
LINE
  8
0
  6
CONTINUOUS
 62
     7
 10
-6.6567688
 20
-1.1214381
 11
-1.1230023
 21
-6.6552048
  0
LINE
  8
0
  6
CONTINUOUS
 62
     7
 10
-6.6570282
 20
1.1228838
 11
-1.1232613
 21
6.6566505
  0
LINE
  8
0
  6
CONTINUOUS
 62
     7
 10
1.1213194
 20
6.6566501
 11
6.655086
 21
1.1228836
  0
LINE
  8
0
  6
CONTINUOUS
 62
     7
 10
149
 20
309.36768
 11
150.5
 21
309.36768
  0
LINE
  8
0
  6
CONTINUOUS
 62
     7
 10
149
 20
290.63306
 11
150.5
 21
290.63306
  0
LINE
  8
0
  6
CONTINUOUS
 62
     7
 10
149.00038
 20
290.63205
 11
150.50038
 21
309.36679
  0
LINE
  8
0
  6
CONTINUOUS
 62
     7
 10
149.00003
 20
309.36685
 11
150.50005
 21
290.63214
  0
LINE
  8
0
  6
CONTINUOUS
 62
     7
 10
357.99963
 20
187.49976
 11
349.49988
 21
187.49976
  0
LINE
  8
0
  6
CONTINUOUS
 62
     7
 10
357.99963
 20
206
 11
349.49988
 21
206
  0
LINE
  8
0
  6
CONTINUOUS
 62
     7
 10
358.99976
 20
188.49951
 11
358.99976
 21
204.99951
  0
LINE
  8
0
  6
CONTINUOUS
 62
     7
 10
348.99963
 20
186.99951
 11
348.99963
 21
205.49976
  0
LINE
  8
0
  6
CONTINUOUS
 62
     7
 10
-5.3503418
 20
-12.999756
 11
-18.909668
 21
-12.999756
  0
LINE
  8
0
  6
CONTINUOUS
 62
     7
 10
5.3496094
 20
-12.999756
 11
18.909668
 21
-12.999756
  0
LINE
  8
0
  6
CONTINUOUS
 62
     7
 10
149
 20
188.09009
 11
348.99963
 21
188.09009
  0
LINE
  8
0
  6
CONTINUOUS
 62
     7
 10
-5.1473947
 20
-12.795592
 11
-5.3509297
 21
-12.999127
  0
LINE
  8
0
  6
CONTINUOUS
 62
     7
 10
5.1453667
 20
-12.795704
 11
5.3489017
 21
-12.999239
  0
LINE
  8
0
  6
CONTINUOUS
 62
     7
 10
4.7929688
 20
-12.649658
 11
-4.7929688
 21
-12.649658
  0
LINE
  8
0
  6
CONTINUOUS
 62
     7
 10
179
 20
206.99976
 11
189.99976
 21
206.99976
  0
LINE
  8
0
  6
CONTINUOUS
 62
     7
 10
200
 20
206.99976
 11
211
 21
206.99976
  0
LINE
  8
0
  6
CONTINUOUS
 62
     7
 10
210.99973
 20
207.00043
 11
211.59972
 21
206.40044
  0
LINE
  8
0
  6
CONTINUOUS
 62
     7
 10
178.3998
 20
206.40018
 11
178.99986
 21
207.00024
  0
LINE
  8
0
  6
CONTINUOUS
 62
     7
 10
216
 20
203.90002
 11
216
 21
205.39941
  0
LINE
  8
0
  6
CONTINUOUS
 62
     7
 10
211.59985
 20
205.69971
 11
215.5
 21
205.69971
  0
LINE
  8
0
  6
CONTINUOUS
 62
     7
 10
217
 20
205.39941
 11
216
 21
205.39941
  0
LINE
  8
0
  6
CONTINUOUS
 62
     7
 10
171.99976
 20
203.09961
 11
171.99976
 21
202.80005
  0
LINE
  8
0
  6
CONTINUOUS
 62
     7
 10
218
 20
203.09961
 11
218
 21
202.80005
  0
LINE
  8
0
  6
CONTINUOUS
 62
     7
 10
173
 20
205.39941
 11
173
 21
203.09961
  0
LINE
  8
0
  6
CONTINUOUS
 62
     7
 10
173.3999
 20
205.6499
 11
173.3999
 21
202.80005
  0
LINE
  8
0
  6
CONTINUOUS
 62
     7
 10
216.59985
 20
205.39941
 11
216.59985
 21
202.80005
  0
LINE
  8
0
  6
CONTINUOUS
 62
     7
 10
218
 20
203.09961
 11
216.59985
 21
203.09961
  0
LINE
  8
0
  6
CONTINUOUS
 62
     7
 10
173.99988
 20
205.39941
 11
173
 21
205.39941
  0
LINE
  8
0
  6
CONTINUOUS
 62
     7
 10
173.3999
 20
203.09961
 11
171.99976
 21
203.09961
  0
LINE
  8
0
  6
CONTINUOUS
 62
     7
 10
173.99988
 20
203.90002
 11
173.99988
 21
205.39941
  0
LINE
  8
0
  6
CONTINUOUS
 62
     7
 10
178.39966
 20
205.69971
 11
174.5
 21
205.69971
  0
LINE
  8
0
  6
CONTINUOUS
 62
     7
 10
156.49988
 20
202.80005
 11
156.49988
 21
203.44971
  0
LINE
  8
0
  6
CONTINUOUS
 62
     7
 10
156.49988
 20
203.44971
 11
149
 21
203.44971
  0
LINE
  8
0
  6
CONTINUOUS
 62
     7
 10
178.40005
 20
311.50012
 11
189.99951
 21
311.50012
  0
LINE
  8
0
  6
CONTINUOUS
 62
     7
 10
189.99951
 20
288.44971
 11
189.99951
 21
294.39972
  0
LINE
  8
0
  6
CONTINUOUS
 62
     7
 10
200
 20
288.44971
 11
200
 21
294.39972
  0
LINE
  8
0
  6
CONTINUOUS
 62
     7
 10
200
 20
311.50012
 11
211.6001
 21
311.50012
  0
LINE
  8
0
  6
CONTINUOUS
 62
     7
 10
211.6001
 20
288.44971
 11
211.6001
 21
311.55029
  0
LINE
  8
0
  6
CONTINUOUS
 62
     7
 10
178.40005
 20
288.50024
 11
189.99951
 21
288.50024
  0
LINE
  8
0
  6
CONTINUOUS
 62
     7
 10
200
 20
288.50024
 11
211.6001
 21
288.50024
  0
LINE
  8
0
  6
CONTINUOUS
 62
     7
 10
215.99963
 20
311.40015
 11
211.6001
 21
311.40015
  0
LINE
  8
0
  6
CONTINUOUS
 62
     7
 10
215.99963
 20
288.60022
 11
211.6001
 21
288.60022
  0
LINE
  8
0
  6
CONTINUOUS
 62
     7
 10
173.99963
 20
288.60022
 11
178.40005
 21
288.60022
  0
LINE
  8
0
  6
CONTINUOUS
 62
     7
 10
173.99963
 20
311.40015
 11
178.40005
 21
311.40015
  0
LINE
  8
0
  6
CONTINUOUS
 62
     7
 10
218
 20
313.25024
 11
218
 21
312.60022
  0
LINE
  8
0
  6
CONTINUOUS
 62
     7
 10
216.59985
 20
315.76245
 11
173.39929
 21
315.76245
  0
LINE
  8
0
  6
CONTINUOUS
 62
     7
 10
216.59985
 20
311.55029
 11
173.39929
 21
311.55029
  0
LINE
  8
0
  6
CONTINUOUS
 62
     7
 10
216.59985
 20
288.44971
 11
173.39929
 21
288.44971
  0
LINE
  8
0
  6
CONTINUOUS
 62
     7
 10
216.59985
 20
284.2384
 11
173.39929
 21
284.2384
  0
LINE
  8
0
  6
CONTINUOUS
 62
     7
 10
216.59985
 20
315.76245
 11
216.59985
 21
284.2384
  0
LINE
  8
0
  6
CONTINUOUS
 62
     7
 10
173.99963
 20
311.55029
 11
173.99963
 21
288.44971
  0
LINE
  8
0
  6
CONTINUOUS
 62
     7
 10
215.99988
 20
311.55029
 11
215.99988
 21
288.44971
  0
LINE
  8
0
  6
CONTINUOUS
 62
     7
 10
172.00015
 20
312.60001
 11
172.99944
 21
311.60071
  0
LINE
  8
0
  6
CONTINUOUS
 62
     7
 10
216.99957
 20
288.40018
 11
217.99965
 21
287.40009
  0
LINE
  8
0
  6
CONTINUOUS
 62
     7
 10
217.99973
 20
312.60019
 11
216.99966
 21
311.60013
  0
LINE
  8
0
  6
CONTINUOUS
 62
     7
 10
172.99944
 20
288.40085
 11
172.00015
 21
287.40155
  0
LINE
  8
0
  6
CONTINUOUS
 62
     7
 10
218
 20
287.40015
 11
218
 21
286.75012
  0
LINE
  8
0
  6
CONTINUOUS
 62
     7
 10
172.99939
 20
311.6001
 11
172.99939
 21
307.25024
  0
LINE
  8
0
  6
CONTINUOUS
 62
     7
 10
216.99976
 20
311.6001
 11
216.99976
 21
288.3999
  0
LINE
  8
0
  6
CONTINUOUS
 62
     7
 10
141.50012
 20
319.80029
 11
141.50012
 21
280.19983
  0
LINE
  8
0
  6
DASHED
 62
     7
 10
142
 20
286.5
 11
142
 21
280.19983
  0
LINE
  8
0
  6
DASHED
 62
     7
 10
142
 20
286.19971
 11
141.50012
 21
286.19971
  0
LINE
  8
0
  6
DASHED
 62
     7
 10
142
 20
313.80029
 11
141.50012
 21
313.80029
  0
LINE
  8
0
  6
CONTINUOUS
 62
     7
 10
354.5
 20
286.19971
 11
354.5
 21
280.19983
  0
LINE
  8
0
  6
CONTINUOUS
 62
     7
 10
354.5
 20
286.19971
 11
353.99976
 21
286.19971
  0
LINE
  8
0
  6
CONTINUOUS
 62
     7
 10
354.5
 20
280.19983
 11
353.99976
 21
280.19983
  0
LINE
  8
0
  6
CONTINUOUS
 62
     7
 10
354.5
 20
313.80029
 11
353.99976
 21
313.80029
  0
LINE
  8
0
  6
CONTINUOUS
 62
     7
 10
354.5
 20
319.80029
 11
353.99976
 21
319.80029
  0
LINE
  8
0
  6
CONTINUOUS
 62
     7
 10
354.5
 20
319.80029
 11
354.5
 21
313.80029
  0
LINE
  8
0
  6
CONTINUOUS
 62
     7
 10
178.39966
 20
203.90002
 11
178.39966
 21
206.3999
  0
LINE
  8
0
  6
CONTINUOUS
 62
     7
 10
211.59985
 20
203.90002
 11
211.59985
 21
206.3999
  0
LINE
  8
0
  6
CONTINUOUS
 62
     7
 10
151.00012
 20
296.54999
 11
151.00012
 21
303.45001
  0
LINE
  8
0
  6
CONTINUOUS
 62
     7
 10
157.50012
 20
297
 11
157.50012
 21
297.5
  0
LINE
  8
0
  6
CONTINUOUS
 62
     7
 10
157.50012
 20
297.5
 11
153.50012
 21
297.5
  0
LINE
  8
0
  6
CONTINUOUS
 62
     7
 10
157.50012
 20
302.5
 11
153.50012
 21
302.5
  0
LINE
  8
0
  6
CONTINUOUS
 62
     7
 10
151.00012
 20
303.45001
 11
150.5
 21
303.45001
  0
LINE
  8
0
  6
CONTINUOUS
 62
     7
 10
157.50012
 20
302.5
 11
157.50012
 21
303
  0
LINE
  8
0
  6
CONTINUOUS
 62
     7
 10
151.00012
 20
296.54999
 11
150.5
 21
296.54999
  0
LINE
  8
0
  6
CONTINUOUS
 62
     7
 10
157.50012
 20
303
 11
171.89941
 21
303
  0
LINE
  8
0
  6
CONTINUOUS
 62
     7
 10
149
 20
286.75012
 11
173.39929
 21
286.75012
  0
LINE
  8
0
  6
CONTINUOUS
 62
     7
 10
149
 20
282.26343
 11
348.99988
 21
282.26343
  0
LINE
  8
0
  6
CONTINUOUS
 62
     7
 10
216.59985
 20
286.75012
 11
348.99988
 21
286.75012
  0
LINE
  8
0
  6
CONTINUOUS
 62
     7
 10
149
 20
313.25024
 11
173.39929
 21
313.25024
  0
LINE
  8
0
  6
CONTINUOUS
 62
     7
 10
149
 20
317.73706
 11
348.99988
 21
317.73706
  0
LINE
  8
0
  6
CONTINUOUS
 62
     7
 10
216.59985
 20
313.25024
 11
348.99988
 21
313.25024
  0
LINE
  8
0
  6
CONTINUOUS
 62
     7
 10
153.50012
 20
297
 11
153.50012
 21
297.5
  0
LINE
  8
0
  6
CONTINUOUS
 62
     7
 10
157.49927
 20
307.5
 11
153.59961
 21
307.5
  0
LINE
  8
0
  6
CONTINUOUS
 62
     7
 10
157.49927
 20
292.5
 11
153.59961
 21
292.5
  0
LINE
  8
0
  6
CONTINUOUS
 62
     7
 10
342.99988
 20
307.5
 11
342.99988
 21
292.5
  0
LINE
  8
0
  6
CONTINUOUS
 62
     7
 10
342.99963
 20
202.80005
 11
342.99963
 21
205.49976
  0
LINE
  8
0
  6
CONTINUOUS
 62
     7
 10
348.99963
 20
205.49976
 11
342.99963
 21
205.49976
  0
LINE
  8
0
  6
CONTINUOUS
 62
     7
 10
358.99915
 20
188.50012
 11
357.99933
 21
187.50031
  0
LINE
  8
0
  6
CONTINUOUS
 62
     7
 10
359.00009
 20
205.00037
 11
358.00003
 21
206.00043
  0
LINE
  8
0
  6
CONTINUOUS
 62
     7
 10
349.49954
 20
187.50031
 11
348.99979
 21
188.00009
  0
LINE
  8
0
  6
CONTINUOUS
 62
     7
 10
349.49921
 20
206.00043
 11
348.99942
 21
205.50066
  0
LINE
  8
0
  6
CONTINUOUS
 62
     7
 10
151.09985
 20
310.82739
 11
151.09985
 21
305.6272
  0
LINE
  8
0
  6
CONTINUOUS
 62
     7
 10
150.5
 20
310.82739
 11
151.09985
 21
310.82739
  0
LINE
  8
0
  6
CONTINUOUS
 62
     7
 10
150.5
 20
305.6272
 11
151.09985
 21
305.6272
  0
LINE
  8
0
  6
CONTINUOUS
 62
     7
 10
150.5
 20
294.3728
 11
151.09985
 21
294.3728
  0
LINE
  8
0
  6
CONTINUOUS
 62
     7
 10
150.5
 20
289.17297
 11
151.09985
 21
289.17297
  0
LINE
  8
0
  6
CONTINUOUS
 62
     7
 10
151.09985
 20
294.3728
 11
151.09985
 21
289.17297
  0
LINE
  8
0
  6
CONTINUOUS
 62
     7
 10
151.09949
 20
203.44971
 11
151.09949
 21
207.34985
  0
LINE
  8
0
  6
CONTINUOUS
 62
     7
 10
150.5
 20
207.34985
 11
151.09949
 21
207.34985
  0
LINE
  8
0
  6
CENTER
 62
     7
 10
188.99976
 20
185.72949
 11
188.99976
 21
193.26978
  0
LINE
  8
0
  6
CONTINUOUS
 62
     7
 10
118.79993
 20
106
 11
111.49988
 21
106
  0
LINE
  8
0
  6
DASHED
 62
     7
 10
107.30005
 20
87.150391
 11
110.69995
 21
87.150391
  0
LINE
  8
0
  6
DASHED
 62
     7
 10
110.70026
 20
87.150398
 11
110.85027
 21
87.000381
  0
LINE
  8
0
  6
DASHED
 62
     7
 10
107.30058
 20
87.150475
 11
107.1504
 21
87.000282
  0
LINE
  8
0
  6
CONTINUOUS
 62
     7
 10
-20.000244
 20
-11.909912
 11
-20.000244
 21
-8.6000977
  0
LINE
  8
0
  6
CONTINUOUS
 62
     7
 10
86.276611
 20
102.80005
 11
82.263062
 21
102.80005
  0
LINE
  8
0
  6
CONTINUOUS
 62
     7
 10
80.199829
 20
93.000244
 11
80.199829
 21
93.449951
  0
LINE
  8
0
  6
CONTINUOUS
 62
     7
 10
111.25
 20
92.000488
 11
88.75
 21
92.000488
  0
LINE
  8
0
  6
DASHED
 62
     7
 10
110.69995
 20
87.150391
 11
110.69995
 21
89.000488
  0
LINE
  8
0
  6
DASHED
 62
     7
 10
105.75012
 20
89.000488
 11
112.25012
 21
89.000488
  0
LINE
  8
0
  6
DASHED
 62
     7
 10
112.25012
 20
89.000488
 11
112.25012
 21
92.268555
  0
LINE
  8
0
  6
CENTER
 62
     7
 10
109
 20
85.730225
 11
109
 21
93.500488
  0
LINE
  8
0
  6
DASHED
 62
     7
 10
105.75012
 20
89.000488
 11
105.75012
 21
92.000488
  0
LINE
  8
0
  6
DASHED
 62
     7
 10
107.30005
 20
87.150391
 11
107.30005
 21
89.000488
  0
LINE
  8
0
  6
CONTINUOUS
 62
     7
 10
86.749878
 20
94
 11
86.749878
 21
94.198486
  0
LINE
  8
0
  6
CONTINUOUS
 62
     7
 10
86.749878
 20
101.60474
 11
86.749878
 21
103.7002
  0
LINE
  8
0
  6
CONTINUOUS
 62
     7
 10
20.000244
 20
-11.909912
 11
20.000244
 21
-8.6000977
  0
LINE
  8
0
  6
CONTINUOUS
 62
     7
 10
113.72302
 20
102.80005
 11
117.73669
 21
102.80005
  0
LINE
  8
0
  6
CONTINUOUS
 62
     7
 10
119.79993
 20
93.000244
 11
119.79993
 21
105.00024
  0
LINE
  8
0
  6
CONTINUOUS
 62
     7
 10
113.24988
 20
94
 11
113.24988
 21
94.198486
  0
LINE
  8
0
  6
CONTINUOUS
 62
     7
 10
113.24988
 20
101.60474
 11
113.24988
 21
103.7002
  0
LINE
  8
0
  6
CENTER
 62
     7
 10
100
 20
85.730225
 11
100
 21
108.27048
  0
LINE
  8
0
  6
CONTINUOUS
 62
     7
 10
80.199829
 20
94.250488
 11
80.199829
 21
105.00024
  0
LINE
  8
0
  6
CENTER
 62
     7
 10
95.227173
 20
100
 11
104.77271
 21
100
  0
LINE
  8
0
  6
CENTER
 62
     7
 10
91
 20
85.730225
 11
91
 21
93.500488
  0
LINE
  8
0
  6
CENTER
 62
     7
 10
109
 20
98.940277
 11
109
 21
108.27048
  0
LINE
  8
0
  6
DASHED
 62
     7
 10
110.5
 20
102.10059
 11
110.5
 21
107.00049
  0
LINE
  8
0
  6
DASHED
 62
     7
 10
107.5
 20
102.10059
 11
107.5
 21
107.00049
  0
LINE
  8
0
  6
DASHED
 62
     7
 10
107.80017
 20
101.1001
 11
107.80017
 21
107.00049
  0
LINE
  8
0
  6
DASHED
 62
     7
 10
110.20007
 20
101.1001
 11
110.20007
 21
107.00049
  0
LINE
  8
0
  6
DASHED
 62
     7
 10
107.5
 20
102.10059
 11
110.5
 21
102.10059
  0
LINE
  8
0
  6
DASHED
 62
     7
 10
107.80017
 20
101.1001
 11
110.20007
 21
101.1001
  0
LINE
  8
0
  6
DASHED
 62
     7
 10
107.80025
 20
101.58077
 11
107.50033
 21
102.10027
  0
LINE
  8
0
  6
DASHED
 62
     7
 10
108.99972
 20
100.40692
 11
107.79974
 21
101.09973
  0
LINE
  8
0
  6
DASHED
 62
     7
 10
109.00011
 20
100.40784
 11
110.19956
 21
101.10034
  0
LINE
  8
0
  6
DASHED
 62
     7
 10
110.19976
 20
101.58018
 11
110.49969
 21
102.09966
  0
LINE
  8
0
  6
CENTER
 62
     7
 10
91
 20
98.940277
 11
91
 21
108.27048
  0
LINE
  8
0
  6
CONTINUOUS
 62
     7
 10
112.49988
 20
93.300537
 11
92.299683
 21
93.300537
  0
LINE
  8
0
  6
CONTINUOUS
 62
     7
 10
87.499527
 20
93.30098
 11
87.39698
 21
93.403519
  0
LINE
  8
0
  6
CONTINUOUS
 62
     7
 10
112.49953
 20
93.300812
 11
112.60207
 21
93.403351
  0
LINE
  8
0
  6
CONTINUOUS
 62
     7
 10
111.39978
 20
103.10034
 11
111.39978
 21
105.2002
  0
LINE
  8
0
  6
CONTINUOUS
 62
     7
 10
89.099731
 20
105.70044
 11
110.8999
 21
105.70044
  0
LINE
  8
0
  6
CONTINUOUS
 62
     7
 10
87.449951
 20
93.400146
 11
112.55005
 21
93.400146
  0
LINE
  8
0
  6
CONTINUOUS
 62
     7
 10
88.599854
 20
103.10034
 11
88.599854
 21
105.2002
  0
LINE
  8
0
  6
CONTINUOUS
 62
     7
 10
96.499878
 20
93.600098
 11
96.499878
 21
100
  0
LINE
  8
0
  6
CONTINUOUS
 62
     7
 10
103.49988
 20
93.600098
 11
103.49988
 21
100
  0
LINE
  8
0
  6
CONTINUOUS
 62
     7
 10
89.599731
 20
103.10034
 11
86.049927
 21
103.10034
  0
LINE
  8
0
  6
CONTINUOUS
 62
     7
 10
90.099854
 20
103.60059
 11
90.099854
 21
104.90063
  0
LINE
  8
0
  6
CONTINUOUS
 62
     7
 10
109.3999
 20
105.40015
 11
96.030151
 21
105.40015
  0
LINE
  8
0
  6
CONTINUOUS
 62
     7
 10
112.75
 20
93.600098
 11
103.49988
 21
93.600098
  0
LINE
  8
0
  6
CONTINUOUS
 62
     7
 10
109.89978
 20
103.60059
 11
109.89978
 21
104.90063
  0
LINE
  8
0
  6
CONTINUOUS
 62
     7
 10
110.39978
 20
103.10034
 11
113.94983
 21
103.10034
  0
LINE
  8
0
  6
CONTINUOUS
 62
     7
 10
111.6499
 20
103.10034
 11
111.6499
 21
103.7002
  0
LINE
  8
0
  6
CONTINUOUS
 62
     7
 10
111.6499
 20
103.7002
 11
113.94983
 21
103.7002
  0
LINE
  8
0
  6
CONTINUOUS
 62
     7
 10
113.94983
 20
103.10034
 11
113.94983
 21
103.7002
  0
LINE
  8
0
  6
CONTINUOUS
 62
     7
 10
114.44981
 20
103.60072
 11
113.94987
 21
103.10078
  0
LINE
  8
0
  6
CONTINUOUS
 62
     7
 10
114.44995
 20
103.60059
 11
114.74988
 21
103.60059
  0
LINE
  8
0
  6
CONTINUOUS
 62
     7
 10
115.54948
 20
102.80074
 11
114.74985
 21
103.60038
  0
LINE
  8
0
  6
CONTINUOUS
 62
     7
 10
115.76165
 20
103.01291
 11
115.54948
 21
102.80074
  0
LINE
  8
0
  6
CONTINUOUS
 62
     7
 10
115.76165
 20
103.01291
 11
114.87397
 21
103.90059
  0
LINE
  8
0
  6
CONTINUOUS
 62
     7
 10
113.1499
 20
103.90015
 11
114.87415
 21
103.90015
  0
LINE
  8
0
  6
CONTINUOUS
 62
     7
 10
113.1499
 20
103.7002
 11
113.1499
 21
103.90015
  0
LINE
  8
0
  6
CONTINUOUS
 62
     7
 10
96.499878
 20
93.600098
 11
87.25
 21
93.600098
  0
LINE
  8
0
  6
CONTINUOUS
 62
     7
 10
87.39978
 20
101.21582
 11
87.39978
 21
103.10034
  0
LINE
  8
0
  6
CONTINUOUS
 62
     7
 10
86.199638
 20
100.01608
 11
87.399696
 21
101.21614
  0
LINE
  8
0
  6
CONTINUOUS
 62
     7
 10
86.199829
 20
95.784912
 11
86.199829
 21
100.01538
  0
LINE
  8
0
  6
CONTINUOUS
 62
     7
 10
86.199898
 20
95.785088
 11
87.399872
 21
94.585114
  0
LINE
  8
0
  6
CONTINUOUS
 62
     7
 10
87.39978
 20
93.600098
 11
87.39978
 21
94.585205
  0
LINE
  8
0
  6
CONTINUOUS
 62
     7
 10
112.59985
 20
101.21582
 11
112.59985
 21
103.10034
  0
LINE
  8
0
  6
CONTINUOUS
 62
     7
 10
113.7995
 20
100.01599
 11
112.59953
 21
101.21597
  0
LINE
  8
0
  6
CONTINUOUS
 62
     7
 10
113.79968
 20
95.784912
 11
113.79968
 21
100.01538
  0
LINE
  8
0
  6
CONTINUOUS
 62
     7
 10
113.79984
 20
95.785088
 11
112.59987
 21
94.585114
  0
LINE
  8
0
  6
CONTINUOUS
 62
     7
 10
112.59985
 20
93.600098
 11
112.59985
 21
94.585205
  0
LINE
  8
0
  6
CONTINUOUS
 62
     7
 10
84.449738
 20
102.80091
 11
85.24955
 21
103.60072
  0
LINE
  8
0
  6
CONTINUOUS
 62
     7
 10
85.550049
 20
103.60059
 11
85.249878
 21
103.60059
  0
LINE
  8
0
  6
CONTINUOUS
 62
     7
 10
85.549759
 20
103.60056
 11
86.04953
 21
103.10078
  0
LINE
  8
0
  6
CONTINUOUS
 62
     7
 10
86.049927
 20
103.10034
 11
86.049927
 21
103.7002
  0
LINE
  8
0
  6
CONTINUOUS
 62
     7
 10
88.349731
 20
103.7002
 11
86.049927
 21
103.7002
  0
LINE
  8
0
  6
CONTINUOUS
 62
     7
 10
86.849731
 20
103.7002
 11
86.849731
 21
103.90015
  0
LINE
  8
0
  6
CONTINUOUS
 62
     7
 10
86.849731
 20
103.90015
 11
85.12561
 21
103.90015
  0
LINE
  8
0
  6
CONTINUOUS
 62
     7
 10
88.349731
 20
103.10034
 11
88.349731
 21
103.7002
  0
LINE
  8
0
  6
CONTINUOUS
 62
     7
 10
84.237915
 20
103.01273
 11
85.125595
 21
103.90041
  0
LINE
  8
0
  6
CONTINUOUS
 62
     7
 10
84.237915
 20
103.01273
 11
84.449738
 21
102.80091
  0
LINE
  8
0
  6
CONTINUOUS
 62
     7
 10
94.64978
 20
87.000244
 11
81.089966
 21
87.000244
  0
LINE
  8
0
  6
CONTINUOUS
 62
     7
 10
105.34973
 20
87.000244
 11
118.90979
 21
87.000244
  0
LINE
  8
0
  6
CONTINUOUS
 62
     7
 10
94.853539
 20
87.204079
 11
94.649834
 21
87.000374
  0
LINE
  8
0
  6
CONTINUOUS
 62
     7
 10
105.14612
 20
87.203827
 11
105.34966
 21
87.00029
  0
LINE
  8
0
  6
CONTINUOUS
 62
     7
 10
104.7926
 20
87.350342
 11
95.207031
 21
87.350342
  0
LINE
  8
0
  6
CONTINUOUS
 62
     7
 10
89.863434
 20
97.26413
 11
91.136261
 21
98.536949
  0
LINE
  8
0
  6
CONTINUOUS
 62
     7
 10
89.86335
 20
98.537041
 11
91.136353
 21
97.264038
  0
LINE
  8
0
  6
CONTINUOUS
 62
     7
 10
108.86322
 20
97.264214
 11
110.13605
 21
98.537041
  0
LINE
  8
0
  6
CONTINUOUS
 62
     7
 10
108.86322
 20
98.537209
 11
110.13622
 21
97.264214
  0
LINE
  8
0
  6
CONTINUOUS
 62
     7
 10
88.499245
 20
106.45065
 11
89.049255
 21
107.00066
  0
LINE
  8
0
  6
CONTINUOUS
 62
     7
 10
88.499878
 20
103.10034
 11
88.499878
 21
106.45044
  0
LINE
  8
0
  6
CONTINUOUS
 62
     7
 10
93.499878
 20
107.00049
 11
89.049683
 21
107.00049
  0
LINE
  8
0
  6
CONTINUOUS
 62
     7
 10
94.400024
 20
106.10046
 11
93.5
 21
107.00048
  0
LINE
  8
0
  6
CONTINUOUS
 62
     7
 10
105.5992
 20
106.10046
 11
106.49948
 21
107.00074
  0
LINE
  8
0
  6
CONTINUOUS
 62
     7
 10
106.49988
 20
107.00049
 11
110.94983
 21
107.00049
  0
LINE
  8
0
  6
CONTINUOUS
 62
     7
 10
111.49988
 20
103.10034
 11
111.49988
 21
106.45044
  0
LINE
  8
0
  6
CONTINUOUS
 62
     7
 10
88.499878
 20
106
 11
81.199829
 21
106
  0
LINE
  8
0
  6
CONTINUOUS
 62
     7
 10
80.199455
 20
105.00078
 11
81.199348
 21
106.00067
  0
LINE
  8
0
  6
CONTINUOUS
 62
     7
 10
118.79996
 20
106.0005
 11
119.79951
 21
105.00095
  0
LINE
  8
0
  6
CONTINUOUS
 62
     7
 10
189.99951
 20
305.59979
 11
189.99951
 21
311.55029
  0
LINE
  8
0
  6
CONTINUOUS
 62
     7
 10
200
 20
305.59979
 11
200
 21
311.55029
  0
LINE
  8
0
  6
CONTINUOUS
 62
     7
 10
200
 20
206.09973
 11
200
 21
206.99976
  0
LINE
  8
0
  6
CONTINUOUS
 62
     7
 10
189.99976
 20
206.09973
 11
189.99976
 21
206.99976
  0
LINE
  8
0
  6
CONTINUOUS
 62
     7
 10
347.99976
 20
307.5
 11
347.99976
 21
305.00024
  0
LINE
  8
0
  6
CONTINUOUS
 62
     7
 10
345.99988
 20
303
 11
344.49988
 21
303
  0
LINE
  8
0
  6
CONTINUOUS
 62
     7
 10
344.49988
 20
307.5
 11
344.49988
 21
302.50012
  0
LINE
  8
0
  6
CONTINUOUS
 62
     7
 10
344.49988
 20
302.50012
 11
342.99988
 21
302.50012
  0
LINE
  8
0
  6
CONTINUOUS
 62
     7
 10
344.49988
 20
297.50024
 11
342.99988
 21
297.50024
  0
LINE
  8
0
  6
CONTINUOUS
 62
     7
 10
344.49988
 20
292.5
 11
344.49988
 21
297.50024
  0
LINE
  8
0
  6
CONTINUOUS
 62
     7
 10
345.99988
 20
297
 11
344.49988
 21
297
  0
LINE
  8
0
  6
CONTINUOUS
 62
     7
 10
347.99976
 20
292.5
 11
347.99976
 21
295.00012
  0
LINE
  8
0
  6
CONTINUOUS
 62
     7
 10
100
 20
105.40015
 11
100
 21
103.50317
  0
LINE
  8
0
  6
CONTINUOUS
 62
     7
 10
93.969604
 20
105.40015
 11
90.599731
 21
105.40015
  0
LINE
  8
0
  6
CONTINUOUS
 62
     7
 10
173.99963
 20
303.3999
 11
173.39929
 21
303.3999
  0
LINE
  8
0
  6
CONTINUOUS
 62
     7
 10
173.99963
 20
306.60022
 11
173.39929
 21
306.60022
  0
LINE
  8
0
  6
CONTINUOUS
 62
     7
 10
79.999878
 20
88.090088
 11
79.999878
 21
92.800293
  0
LINE
  8
0
  6
CONTINUOUS
 62
     7
 10
119.99988
 20
88.090088
 11
119.99988
 21
92.800293
  0
LINE
  8
0
  6
CONTINUOUS
 62
     7
 10
91.499878
 20
93.300537
 11
87.499878
 21
93.300537
  0
LINE
  8
0
  6
CONTINUOUS
 62
     7
 10
149
 20
286.27734
 11
173.39929
 21
286.27734
  0
LINE
  8
0
  6
CONTINUOUS
 62
     7
 10
216.59985
 20
286.27734
 11
348.99988
 21
286.27734
  0
LINE
  8
0
  6
CONTINUOUS
 62
     7
 10
149
 20
313.72339
 11
173.39929
 21
313.72339
  0
LINE
  8
0
  6
CONTINUOUS
 62
     7
 10
216.59985
 20
313.72339
 11
348.99988
 21
313.72339
  0
LINE
  8
0
  6
CONTINUOUS
 62
     7
 10
348.99963
 20
186.99951
 11
149
 21
186.99951
  0
LINE
  8
0
  6
DASHED
 62
     7
 10
348.99963
 20
191.99976
 11
149
 21
191.99976
  0
LINE
  8
0
  6
CONTINUOUS
 62
     7
 10
348.99963
 20
202.80005
 11
149
 21
202.80005
  0
LINE
  8
0
  6
CONTINUOUS
 62
     7
 10
348.99988
 20
280.00024
 11
149
 21
280.00024
  0
LINE
  8
0
  6
CONTINUOUS
 62
     7
 10
348.99988
 20
320.00024
 11
149
 21
320.00024
  0
LINE
  8
0
  6
CONTINUOUS
 62
     7
 10
114.10973
 20
100.54063
 11
114.09833
 21
100.55202
  0
LINE
  8
0
  6
CONTINUOUS
 62
     7
 10
114.39978
 20
95.560059
 11
114.39978
 21
100.24023
  0
LINE
  8
0
  6
CONTINUOUS
 62
     7
 10
85.889496
 20
100.54079
 11
85.90107
 21
100.55236
  0
LINE
  8
0
  6
CONTINUOUS
 62
     7
 10
85.889153
 20
95.260971
 11
85.90107
 21
95.249062
  0
LINE
  8
0
  6
CONTINUOUS
 62
     7
 10
85.599854
 20
95.560059
 11
85.599854
 21
100.24023
  0
LINE
  8
0
  6
CONTINUOUS
 62
     7
 10
114.10955
 20
95.260971
 11
114.09781
 21
95.249237
  0
LINE
  8
0
  6
CONTINUOUS
 62
     7
 10
111.49946
 20
106.45082
 11
110.94945
 21
107.00083
  0
LINE
  8
0
  6
CENTER
 62
     7
 10
173.3999
 20
203.3999
 11
166.6377
 21
203.3999
  0
LINE
  8
0
  6
CONTINUOUS
 62
     7
 10
171.8999
 20
205.6499
 11
171.8999
 21
203
  0
LINE
  8
0
  6
CONTINUOUS
 62
     7
 10
173.3999
 20
205.6499
 11
171.8999
 21
205.6499
  0
LINE
  8
0
  6
CONTINUOUS
 62
     7
 10
171.8999
 20
205.14966
 11
170.14966
 21
205.14966
  0
LINE
  8
0
  6
CONTINUOUS
 62
     7
 10
173.39929
 20
307.25024
 11
171.89941
 21
307.25024
  0
LINE
  8
0
  6
CONTINUOUS
 62
     7
 10
171.89941
 20
302.75024
 11
171.89941
 21
307.25024
  0
LINE
  8
0
  6
CONTINUOUS
 62
     7
 10
171.89941
 20
306.75
 11
170.14917
 21
306.75
  0
LINE
  8
0
  6
CENTER
 62
     7
 10
175.30383
 20
305.00024
 11
166.63721
 21
305.00024
  0
LINE
  8
0
  6
CONTINUOUS
 62
     7
 10
171.89941
 20
303.25012
 11
170.14917
 21
303.25012
  0
LINE
  8
0
  6
CONTINUOUS
 62
     7
 10
173.39929
 20
302.75024
 11
171.89941
 21
302.75024
  0
LINE
  8
0
  6
CONTINUOUS
 62
     7
 10
217
 20
205.39941
 11
217
 21
203.09961
  0
LINE
  8
0
  6
CONTINUOUS
 62
     7
 10
353.99976
 20
281.20032
 11
348.99988
 21
281.20032
  0
LINE
  8
0
  6
CONTINUOUS
 62
     7
 10
353.99976
 20
318.7998
 11
348.99988
 21
318.7998
  0
LINE
  8
0
  6
CENTER
 62
     7
 10
10.159269
 20
5.8645282
 11
14.957058
 21
8.6345329
  0
LINE
  8
0
  6
CENTER
 62
     7
 10
-10.158592
 20
5.8649879
 11
-14.956407
 21
8.6350079
  0
LINE
  8
0
  6
CENTER
 62
     7
 10
10.158647
 20
-5.8651757
 11
14.956461
 21
-8.6351957
  0
LINE
  8
0
  6
CENTER
 62
     7
 10
-10.158023
 20
-5.8656659
 11
-14.955784
 21
-8.6356544
  0
LINE
  8
0
  6
CONTINUOUS
 62
     7
 10
172.99939
 20
302.75024
 11
172.99939
 21
288.3999
  0
LINE
  8
0
  6
CONTINUOUS
 62
     7
 10
19.799101
 20
-8.3995056
 11
19.999012
 21
-8.5994148
  0
LINE
  8
0
  6
CONTINUOUS
 62
     7
 10
-19.800611
 20
-8.399395
 11
-20.00078
 21
-8.5995636
  0
LINE
  8
0
  6
CENTER
 62
     7
 10
351.5
 20
278.92981
 11
351.5
 21
287.25952
  0
LINE
  8
0
  6
DASHED
 62
     7
 10
352.79968
 20
284.20032
 11
350.19995
 21
284.20032
  0
LINE
  8
0
  6
DASHED
 62
     7
 10
352.79968
 20
280.19983
 11
352.79968
 21
284.20032
  0
LINE
  8
0
  6
DASHED
 62
     7
 10
350.19995
 20
280.19983
 11
350.19995
 21
284.20032
  0
LINE
  8
0
  6
DASHED
 62
     7
 10
352.56641
 20
280.19983
 11
352.56641
 21
285.7002
  0
LINE
  8
0
  6
DASHED
 62
     7
 10
350.43323
 20
280.19983
 11
350.43323
 21
285.7002
  0
LINE
  8
0
  6
DASHED
 62
     7
 10
352.56641
 20
285.7002
 11
350.43323
 21
285.7002
  0
LINE
  8
0
  6
DASHED
 62
     7
 10
352.80057
 20
284.19931
 11
352.56693
 21
284.60397
  0
LINE
  8
0
  6
DASHED
 62
     7
 10
350.20038
 20
284.19971
 11
350.43402
 21
284.6044
  0
LINE
  8
0
  6
DASHED
 62
     7
 10
352.56708
 20
285.70032
 11
351.50082
 21
286.31592
  0
LINE
  8
0
  6
DASHED
 62
     7
 10
350.43384
 20
285.69946
 11
351.50031
 21
286.31519
  0
LINE
  8
0
  6
CENTER
 62
     7
 10
351.5
 20
321.07025
 11
351.5
 21
312.74084
  0
LINE
  8
0
  6
CENTER
 62
     7
 10
145.49976
 20
278.92981
 11
145.49976
 21
287.25952
  0
LINE
  8
0
  6
DASHED
 62
     7
 10
146.7998
 20
284.20032
 11
144.19971
 21
284.20032
  0
LINE
  8
0
  6
DASHED
 62
     7
 10
146.7998
 20
280.19983
 11
146.7998
 21
284.20032
  0
LINE
  8
0
  6
DASHED
 62
     7
 10
144.19971
 20
280.19983
 11
144.19971
 21
284.20032
  0
LINE
  8
0
  6
DASHED
 62
     7
 10
146.56653
 20
280.19983
 11
146.56653
 21
285.7002
  0
LINE
  8
0
  6
DASHED
 62
     7
 10
144.43335
 20
280.19983
 11
144.43335
 21
285.7002
  0
LINE
  8
0
  6
DASHED
 62
     7
 10
146.56653
 20
285.7002
 11
144.43335
 21
285.7002
  0
LINE
  8
0
  6
DASHED
 62
     7
 10
146.80043
 20
284.19928
 11
146.56697
 21
284.60364
  0
LINE
  8
0
  6
DASHED
 62
     7
 10
144.19968
 20
284.20013
 11
144.43314
 21
284.60449
  0
LINE
  8
0
  6
DASHED
 62
     7
 10
146.56599
 20
285.7001
 11
145.49974
 21
286.3157
  0
LINE
  8
0
  6
DASHED
 62
     7
 10
144.43408
 20
285.69879
 11
145.50075
 21
286.31464
  0
LINE
  8
0
  6
CENTER
 62
     7
 10
145.49976
 20
321.07025
 11
145.49976
 21
312.74084
  0
LINE
  8
0
  6
CONTINUOUS
 62
     7
 10
91.699829
 20
97
 11
91.699829
 21
93.600098
  0
LINE
  8
0
  6
CONTINUOUS
 62
     7
 10
89.299683
 20
97
 11
89.299683
 21
93.600098
  0
LINE
  8
0
  6
CONTINUOUS
 62
     7
 10
108.2998
 20
97
 11
108.2998
 21
93.600098
  0
LINE
  8
0
  6
CONTINUOUS
 62
     7
 10
110.69995
 20
97
 11
110.69995
 21
93.600098
  0
LINE
  8
0
  6
CENTER
 62
     7
 10
21.070313
 20
-3
 11
12.740479
 21
-3
  0
LINE
  8
0
  6
DASHED
 62
     7
 10
15.799805
 20
-4.3000488
 11
15.799805
 21
-1.6999512
  0
LINE
  8
0
  6
DASHED
 62
     7
 10
19.800293
 20
-4.3000488
 11
15.799805
 21
-4.3000488
  0
LINE
  8
0
  6
DASHED
 62
     7
 10
19.800293
 20
-1.6999512
 11
15.799805
 21
-1.6999512
  0
LINE
  8
0
  6
DASHED
 62
     7
 10
19.800293
 20
-4.0664063
 11
14.299805
 21
-4.0664063
  0
LINE
  8
0
  6
DASHED
 62
     7
 10
19.800293
 20
-1.9335938
 11
14.299805
 21
-1.9335938
  0
LINE
  8
0
  6
DASHED
 62
     7
 10
14.299805
 20
-4.0664063
 11
14.299805
 21
-1.9335938
  0
LINE
  8
0
  6
DASHED
 62
     7
 10
15.799695
 20
-4.3005462
 11
15.395331
 21
-4.0670867
  0
LINE
  8
0
  6
DASHED
 62
     7
 10
15.800195
 20
-1.6997662
 11
15.395514
 21
-1.9334087
  0
LINE
  8
0
  6
DASHED
 62
     7
 10
14.300315
 20
-4.0662546
 11
13.684714
 21
-3.0000031
  0
LINE
  8
0
  6
DASHED
 62
     7
 10
14.299724
 20
-1.9342164
 11
13.683757
 21
-3.0011022
  0
LINE
  8
0
  6
CONTINUOUS
 62
     7
 10
211.6001
 20
294.50024
 11
202.59949
 21
294.50024
  0
LINE
  8
0
  6
CONTINUOUS
 62
     7
 10
199.59949
 20
302.50012
 11
199.59949
 21
297.50024
  0
LINE
  8
0
  6
CONTINUOUS
 62
     7
 10
211.6001
 20
305.50012
 11
202.59949
 21
305.50012
  0
LINE
  8
0
  6
CONTINUOUS
 62
     7
 10
348.99963
 20
192.99951
 11
149
 21
192.99951
  0
LINE
  8
0
  6
CONTINUOUS
 62
     7
 10
348.99963
 20
192.79956
 11
149
 21
192.79956
  0
LINE
  8
0
  6
CONTINUOUS
 62
     7
 10
119.79985
 20
93.000427
 11
119.99976
 21
92.800514
  0
LINE
  8
0
  6
CONTINUOUS
 62
     7
 10
80.199371
 20
93.000771
 11
79.99929
 21
92.80069
  0
LINE
  8
0
  6
CENTER
 62
     7
 10
-21.069946
 20
-3
 11
-12.740845
 21
-3
  0
LINE
  8
0
  6
CONTINUOUS
 62
     7
 10
142
 20
187.49976
 11
142
 21
208.99963
  0
LINE
  8
0
  6
CENTER
 62
     7
 10
154
 20
190.79932
 11
137.79993
 21
190.79932
  0
LINE
  8
0
  6
CONTINUOUS
 62
     7
 10
137.79993
 20
193.54956
 11
137.79993
 21
188.0498
  0
LINE
  8
0
  6
CONTINUOUS
 62
     7
 10
137.79993
 20
193.54956
 11
140.79993
 21
193.54956
  0
LINE
  8
0
  6
CONTINUOUS
 62
     7
 10
137.79993
 20
188.0498
 11
140.79993
 21
188.0498
  0
LINE
  8
0
  6
CONTINUOUS
 62
     7
 10
140.79993
 20
193.74951
 11
140.79993
 21
187.84985
  0
LINE
  8
0
  6
CONTINUOUS
 62
     7
 10
141.50012
 20
193.74951
 11
140.79993
 21
193.74951
  0
LINE
  8
0
  6
CONTINUOUS
 62
     7
 10
142
 20
193.79932
 11
141.50012
 21
193.79932
  0
LINE
  8
0
  6
CONTINUOUS
 62
     7
 10
141.50012
 20
193.79932
 11
141.50012
 21
187.79932
  0
LINE
  8
0
  6
CONTINUOUS
 62
     7
 10
141.50012
 20
187.84912
 11
140.79993
 21
187.84912
  0
LINE
  8
0
  6
CONTINUOUS
 62
     7
 10
142
 20
187.79932
 11
141.50012
 21
187.79932
  0
LINE
  8
0
  6
CENTER
 62
     7
 10
154
 20
200.29956
 11
137.79993
 21
200.29956
  0
LINE
  8
0
  6
CONTINUOUS
 62
     7
 10
137.79993
 20
203.0498
 11
137.79993
 21
197.55005
  0
LINE
  8
0
  6
CONTINUOUS
 62
     7
 10
137.79993
 20
203.0498
 11
140.79993
 21
203.0498
  0
LINE
  8
0
  6
CONTINUOUS
 62
     7
 10
137.79993
 20
197.55005
 11
140.79993
 21
197.55005
  0
LINE
  8
0
  6
CONTINUOUS
 62
     7
 10
140.79993
 20
203.24976
 11
140.79993
 21
197.3501
  0
LINE
  8
0
  6
CONTINUOUS
 62
     7
 10
141.50012
 20
203.24976
 11
140.79993
 21
203.24976
  0
LINE
  8
0
  6
CONTINUOUS
 62
     7
 10
142
 20
203.29956
 11
141.50012
 21
203.29956
  0
LINE
  8
0
  6
CONTINUOUS
 62
     7
 10
141.50012
 20
203.29956
 11
141.50012
 21
197.29956
  0
LINE
  8
0
  6
CONTINUOUS
 62
     7
 10
141.50012
 20
197.34937
 11
140.79993
 21
197.34937
  0
LINE
  8
0
  6
CONTINUOUS
 62
     7
 10
142
 20
197.29956
 11
141.50012
 21
197.29956
  0
LINE
  8
0
  6
CENTER
 62
     7
 10
98.72998
 20
200
 11
360.27014
 21
200
  0
LINE
  8
0
  6
CONTINUOUS
 62
     7
 10
218.80005
 20
87.500122
 11
181.20001
 21
87.500122
  0
LINE
  8
0
  6
CONTINUOUS
 62
     7
 10
184.45001
 20
91.521484
 11
184.45001
 21
90.078247
  0
LINE
  8
0
  6
CONTINUOUS
 62
     7
 10
181.95001
 20
91.521484
 11
181.95001
 21
90.078247
  0
LINE
  8
0
  6
CONTINUOUS
 62
     7
 10
181.95036
 20
91.521065
 11
183.20035
 21
92.242744
  0
LINE
  8
0
  6
CONTINUOUS
 62
     7
 10
183.20024
 20
89.356209
 11
184.45023
 21
90.077888
  0
LINE
  8
0
  6
CONTINUOUS
 62
     7
 10
183.20026
 20
92.243431
 11
184.45013
 21
91.521812
  0
LINE
  8
0
  6
CONTINUOUS
 62
     7
 10
181.9502
 20
90.078262
 11
183.20007
 21
89.356644
  0
LINE
  8
0
  6
CONTINUOUS
 62
     7
 10
219.79999
 20
88.500244
 11
219.79999
 21
116.00024
  0
LINE
  8
0
  6
CENTER
 62
     7
 10
200
 20
85.730225
 11
200
 21
118.27026
  0
LINE
  8
0
  6
CENTER
 62
     7
 10
204.77002
 20
100
 11
195.22998
 21
100
  0
LINE
  8
0
  6
CONTINUOUS
 62
     7
 10
180.20001
 20
88.500244
 11
180.20001
 21
116.00024
  0
LINE
  8
0
  6
CONTINUOUS
 62
     7
 10
209.36749
 20
107.5
 11
190.63251
 21
107.5
  0
LINE
  8
0
  6
CENTER
 62
     7
 10
191.00006
 20
106
 11
191.00006
 21
108.77002
  0
LINE
  8
0
  6
CENTER
 62
     7
 10
209
 20
106
 11
209
 21
108.77002
  0
LINE
  8
0
  6
CONTINUOUS
 62
     7
 10
204.79285
 20
87.350342
 11
195.20721
 21
87.350342
  0
LINE
  8
0
  6
CONTINUOUS
 62
     7
 10
194.85368
 20
87.203758
 11
194.65015
 21
87.000229
  0
LINE
  8
0
  6
CONTINUOUS
 62
     7
 10
205.14636
 20
87.203781
 11
205.3499
 21
87.000244
  0
LINE
  8
0
  6
CONTINUOUS
 62
     7
 10
194.65009
 20
87.000244
 11
181.09009
 21
87.000244
  0
LINE
  8
0
  6
CONTINUOUS
 62
     7
 10
205.34998
 20
87.000244
 11
218.90997
 21
87.000244
  0
LINE
  8
0
  6
CONTINUOUS
 62
     7
 10
193.5
 20
107.00012
 11
189.04999
 21
107.00012
  0
LINE
  8
0
  6
CONTINUOUS
 62
     7
 10
188.5
 20
106
 11
188.5
 21
106.44971
  0
LINE
  8
0
  6
CONTINUOUS
 62
     7
 10
194.39966
 20
106.10016
 11
193.49982
 21
107.00001
  0
LINE
  8
0
  6
CONTINUOUS
 62
     7
 10
205.59985
 20
106.10014
 11
206.49997
 21
107.00024
  0
LINE
  8
0
  6
CONTINUOUS
 62
     7
 10
206.5
 20
107.00012
 11
210.95001
 21
107.00012
  0
LINE
  8
0
  6
CONTINUOUS
 62
     7
 10
211.5
 20
106
 11
211.5
 21
106.44971
  0
LINE
  8
0
  6
CONTINUOUS
 62
     7
 10
188.50008
 20
106.44998
 11
189.05009
 21
106.99999
  0
LINE
  8
0
  6
CONTINUOUS
 62
     7
 10
218.80005
 20
106
 11
181.20001
 21
106
  0
LINE
  8
0
  6
CONTINUOUS
 62
     7
 10
181.19994
 20
106.0002
 11
180.19987
 21
105.00014
  0
LINE
  8
0
  6
CONTINUOUS
 62
     7
 10
218.79959
 20
106.00018
 11
219.79991
 21
104.99986
  0
LINE
  8
0
  6
CONTINUOUS
 62
     7
 10
218.79987
 20
87.50045
 11
219.79967
 21
88.500259
  0
LINE
  8
0
  6
CONTINUOUS
 62
     7
 10
181.19975
 20
87.5
 11
180.19969
 21
88.500069
  0
LINE
  8
0
  6
CONTINUOUS
 62
     7
 10
187
 20
106
 11
187
 21
87.500122
  0
LINE
  8
0
  6
CONTINUOUS
 62
     7
 10
213
 20
106
 11
213
 21
87.500122
  0
LINE
  8
0
  6
CONTINUOUS
 62
     7
 10
180.00006
 20
88.090088
 11
180.00006
 21
92.800293
  0
LINE
  8
0
  6
CONTINUOUS
 62
     7
 10
220.00006
 20
88.090088
 11
220.00006
 21
92.799927
  0
LINE
  8
0
  6
CONTINUOUS
 62
     7
 10
211.49971
 20
106.45026
 11
210.94969
 21
107.00027
  0
LINE
  8
0
  6
CENTER
 62
     7
 10
221.07001
 20
97
 11
212.74066
 21
97
  0
LINE
  8
0
  6
CONTINUOUS
 62
     7
 10
219.79993
 20
93.000031
 11
219.99983
 21
92.800125
  0
LINE
  8
0
  6
CONTINUOUS
 62
     7
 10
180.20021
 20
93.000107
 11
179.99977
 21
92.799675
  0
LINE
  8
0
  6
DASHED
 62
     7
 10
184.20007
 20
95.699951
 11
184.20007
 21
98.300049
  0
LINE
  8
0
  6
CENTER
 62
     7
 10
178.93005
 20
97
 11
187.2594
 21
97
  0
LINE
  8
0
  6
DASHED
 62
     7
 10
180.20001
 20
95.699951
 11
184.20007
 21
95.699951
  0
LINE
  8
0
  6
DASHED
 62
     7
 10
180.20001
 20
98.300049
 11
184.20007
 21
98.300049
  0
LINE
  8
0
  6
DASHED
 62
     7
 10
180.20001
 20
95.933594
 11
185.70007
 21
95.933594
  0
LINE
  8
0
  6
DASHED
 62
     7
 10
180.20001
 20
98.066406
 11
185.70007
 21
98.066406
  0
LINE
  8
0
  6
DASHED
 62
     7
 10
185.70007
 20
95.933594
 11
185.70007
 21
98.066406
  0
LINE
  8
0
  6
DASHED
 62
     7
 10
184.20033
 20
95.700317
 11
184.60481
 21
95.933838
  0
LINE
  8
0
  6
DASHED
 62
     7
 10
184.19946
 20
98.299431
 11
184.60399
 21
98.06588
  0
LINE
  8
0
  6
DASHED
 62
     7
 10
185.69951
 20
95.932632
 11
186.31548
 21
96.999519
  0
LINE
  8
0
  6
DASHED
 62
     7
 10
185.7003
 20
98.06665
 11
186.31609
 21
97.000084
  0
LINE
  8
0
  6
CONTINUOUS
 62
     7
 10
353.99976
 20
187.49976
 11
353.99976
 21
206
  0
LINE
  8
0
  6
CENTER
 62
     7
 10
343.99963
 20
190.80005
 11
358.19995
 21
190.80005
  0
LINE
  8
0
  6
CONTINUOUS
 62
     7
 10
358.19995
 20
193.55029
 11
358.19995
 21
188.05054
  0
LINE
  8
0
  6
CONTINUOUS
 62
     7
 10
358.19995
 20
193.55029
 11
355.19971
 21
193.55029
  0
LINE
  8
0
  6
CONTINUOUS
 62
     7
 10
358.19995
 20
188.05054
 11
355.19971
 21
188.05054
  0
LINE
  8
0
  6
CONTINUOUS
 62
     7
 10
131.99951
 20
201.12207
 11
136.49951
 21
201.12207
  0
LINE
  8
0
  6
CONTINUOUS
 62
     7
 10
355.19971
 20
193.75024
 11
355.19971
 21
187.85059
  0
LINE
  8
0
  6
CONTINUOUS
 62
     7
 10
354.49951
 20
193.75024
 11
355.19971
 21
193.75024
  0
LINE
  8
0
  6
CONTINUOUS
 62
     7
 10
353.99976
 20
193.80005
 11
354.49951
 21
193.80005
  0
LINE
  8
0
  6
CONTINUOUS
 62
     7
 10
354.49951
 20
193.80005
 11
354.49951
 21
187.80005
  0
LINE
  8
0
  6
CONTINUOUS
 62
     7
 10
354.49951
 20
187.84985
 11
355.19971
 21
187.84985
  0
LINE
  8
0
  6
CONTINUOUS
 62
     7
 10
353.99976
 20
187.80005
 11
354.49951
 21
187.80005
  0
LINE
  8
0
  6
CENTER
 62
     7
 10
343.99963
 20
200.29993
 11
358.19995
 21
200.29993
  0
LINE
  8
0
  6
CONTINUOUS
 62
     7
 10
358.19995
 20
203.0498
 11
358.19995
 21
197.55005
  0
LINE
  8
0
  6
CONTINUOUS
 62
     7
 10
358.19995
 20
203.0498
 11
355.19971
 21
203.0498
  0
LINE
  8
0
  6
CONTINUOUS
 62
     7
 10
358.19995
 20
197.55005
 11
355.19971
 21
197.55005
  0
LINE
  8
0
  6
CONTINUOUS
 62
     7
 10
355.19971
 20
203.25012
 11
355.19971
 21
197.3501
  0
LINE
  8
0
  6
CONTINUOUS
 62
     7
 10
354.49951
 20
203.25012
 11
355.19971
 21
203.25012
  0
LINE
  8
0
  6
CONTINUOUS
 62
     7
 10
353.99976
 20
203.29993
 11
354.49951
 21
203.29993
  0
LINE
  8
0
  6
CONTINUOUS
 62
     7
 10
354.49951
 20
203.29993
 11
354.49951
 21
197.29993
  0
LINE
  8
0
  6
CONTINUOUS
 62
     7
 10
354.49951
 20
197.34973
 11
355.19971
 21
197.34973
  0
LINE
  8
0
  6
CONTINUOUS
 62
     7
 10
353.99976
 20
197.29993
 11
354.49951
 21
197.29993
  0
LINE
  8
0
  6
CENTER
 62
     7
 10
160
 20
178.99951
 11
160
 21
206.99951
  0
LINE
  8
0
  6
CONTINUOUS
 62
     7
 10
157.50012
 20
297
 11
172.99939
 21
297
  0
LINE
  8
0
  6
CONTINUOUS
 62
     7
 10
157.50012
 20
297.3999
 11
172.99939
 21
297.3999
  0
LINE
  8
0
  6
CONTINUOUS
 62
     7
 10
157.50012
 20
302.6001
 11
172.99939
 21
302.6001
  0
LINE
  8
0
  6
CONTINUOUS
 62
     7
 10
153.50012
 20
302.5
 11
153.50012
 21
303
  0
LINE
  8
0
  6
CONTINUOUS
 62
     7
 10
218.79999
 20
117.00024
 11
181.20001
 21
117.00024
  0
LINE
  8
0
  6
CONTINUOUS
 62
     7
 10
218.79999
 20
115.00024
 11
181.20001
 21
115.00024
  0
LINE
  8
0
  6
CENTER
 62
     7
 10
113.27002
 20
316.80029
 11
98.72998
 21
316.80029
  0
LINE
  8
0
  6
CENTER
 62
     7
 10
113.27002
 20
283.19983
 11
98.72998
 21
283.19983
  0
LINE
  8
0
  6
CONTINUOUS
 62
     7
 10
201.76076
 20
98.033745
 11
201.43178
 21
98.603554
  0
LINE
  8
0
  6
CONTINUOUS
 62
     7
 10
198.21724
 20
98.03376
 11
198.55446
 21
98.617844
  0
LINE
  8
0
  6
CONTINUOUS
 62
     7
 10
218
 20
203
 11
342.99963
 21
203
  0
LINE
  8
0
  6
CONTINUOUS
 62
     7
 10
156.49988
 20
203
 11
171.99976
 21
203
  0
LINE
  8
0
  6
CONTINUOUS
 62
     7
 10
209.79494
 20
298.97824
 11
208.12169
 21
297.30499
  0
LINE
  8
0
  6
CONTINUOUS
 62
     7
 10
210.07788
 20
298.69547
 11
208.40445
 21
297.02203
  0
LINE
  8
0
  6
CONTINUOUS
 62
     7
 10
204.07784
 20
302.69556
 11
202.4045
 21
301.02222
  0
LINE
  8
0
  6
CONTINUOUS
 62
     7
 10
203.79497
 20
302.97842
 11
202.12163
 21
301.30508
  0
LINE
  8
0
  6
CONTINUOUS
 62
     7
 10
211.1001
 20
295.59088
 11
211.1001
 21
304.40906
  0
LINE
  8
0
  6
CONTINUOUS
 62
     7
 10
201.09973
 20
304.40906
 11
201.09973
 21
295.59088
  0
LINE
  8
0
  6
CONTINUOUS
 62
     7
 10
201.09973
 20
304.40906
 11
211.1001
 21
304.40906
  0
LINE
  8
0
  6
CONTINUOUS
 62
     7
 10
201.09973
 20
301.9209
 11
201.90247
 21
301.9209
  0
LINE
  8
0
  6
CONTINUOUS
 62
     7
 10
201.09973
 20
298.07904
 11
207.90247
 21
298.07904
  0
LINE
  8
0
  6
CONTINUOUS
 62
     7
 10
201.09973
 20
295.59088
 11
211.1001
 21
295.59088
  0
LINE
  8
0
  6
CONTINUOUS
 62
     7
 10
204.29724
 20
301.9209
 11
211.1001
 21
301.9209
  0
LINE
  8
0
  6
CONTINUOUS
 62
     7
 10
210.29724
 20
298.07904
 11
211.1001
 21
298.07904
  0
LINE
  8
0
  6
CENTER
 62
     7
 10
351.5
 20
199.57001
 11
351.5
 21
194.42999
  0
LINE
  8
0
  6
CENTER
 62
     7
 10
348.93005
 20
197
 11
354.07007
 21
197
  0
LINE
  8
0
  6
CONTINUOUS
 62
     7
 10
216.59985
 20
203.90002
 11
173.39941
 21
203.90002
  0
LINE
  8
0
  6
CENTER
 62
     7
 10
148.0697
 20
197
 11
142.92969
 21
197
  0
LINE
  8
0
  6
CENTER
 62
     7
 10
145.49976
 20
199.57001
 11
145.49976
 21
194.42999
  0
LINE
  8
0
  6
CENTER
 62
     7
 10
313.5199
 20
309
 11
304.47986
 21
309
  0
LINE
  8
0
  6
CENTER
 62
     7
 10
308.99988
 20
313.51996
 11
308.99988
 21
304.47998
  0
LINE
  8
0
  6
CENTER
 62
     7
 10
313.5199
 20
291
 11
304.47986
 21
291
  0
LINE
  8
0
  6
CENTER
 62
     7
 10
308.99988
 20
295.51996
 11
308.99988
 21
286.47998
  0
LINE
  8
0
  6
CENTER
 62
     7
 10
193.51929
 20
309
 11
184.47925
 21
309
  0
LINE
  8
0
  6
CENTER
 62
     7
 10
188.99927
 20
313.51996
 11
188.99927
 21
304.47998
  0
LINE
  8
0
  6
CENTER
 62
     7
 10
193.51929
 20
291
 11
184.47925
 21
291
  0
LINE
  8
0
  6
CENTER
 62
     7
 10
188.99927
 20
295.51996
 11
188.99927
 21
286.47998
  0
LINE
  8
0
  6
CENTER
 62
     7
 10
187.76941
 20
309
 11
182.22937
 21
309
  0
LINE
  8
0
  6
CENTER
 62
     7
 10
184.99939
 20
311.76996
 11
184.99939
 21
306.22998
  0
LINE
  8
0
  6
CENTER
 62
     7
 10
198.56982
 20
309
 11
191.42981
 21
309
  0
LINE
  8
0
  6
CENTER
 62
     7
 10
194.99988
 20
312.57001
 11
194.99988
 21
305.42999
  0
LINE
  8
0
  6
CENTER
 62
     7
 10
198.56982
 20
291
 11
191.42981
 21
291
  0
LINE
  8
0
  6
CENTER
 62
     7
 10
194.99988
 20
294.57001
 11
194.99988
 21
287.42999
  0
LINE
  8
0
  6
CENTER
 62
     7
 10
187.76941
 20
291
 11
182.22937
 21
291
  0
LINE
  8
0
  6
CENTER
 62
     7
 10
184.99939
 20
293.76996
 11
184.99939
 21
288.22998
  0
LINE
  8
0
  6
CENTER
 62
     7
 10
207.76978
 20
291
 11
202.22974
 21
291
  0
LINE
  8
0
  6
CENTER
 62
     7
 10
204.99976
 20
293.76996
 11
204.99976
 21
288.22998
  0
LINE
  8
0
  6
CENTER
 62
     7
 10
207.76978
 20
309
 11
202.22974
 21
309
  0
LINE
  8
0
  6
CENTER
 62
     7
 10
204.99976
 20
311.76996
 11
204.99976
 21
306.22998
  0
LINE
  8
0
  6
CENTER
 62
     7
 10
-16.800293
 20
-6.1799316
 11
-16.800293
 21
-12.219971
  0
LINE
  8
0
  6
CENTER
 62
     7
 10
-19.820251
 20
-9.1999512
 11
-13.780273
 21
-9.1999512
  0
LINE
  8
0
  6
CENTER
 62
     7
 10
-16.800293
 20
3.3203125
 11
-16.800293
 21
-2.7197266
  0
LINE
  8
0
  6
CENTER
 62
     7
 10
-19.820251
 20
0.30029297
 11
-13.780273
 21
0.30029297
  0
LINE
  8
0
  6
CENTER
 62
     7
 10
16.799927
 20
3.3203125
 11
16.799927
 21
-2.7197266
  0
LINE
  8
0
  6
CENTER
 62
     7
 10
13.779968
 20
0.30029297
 11
19.819946
 21
0.30029297
  0
LINE
  8
0
  6
CENTER
 62
     7
 10
16.799927
 20
-6.1799316
 11
16.799927
 21
-12.219971
  0
LINE
  8
0
  6
CENTER
 62
     7
 10
13.779968
 20
-9.1999512
 11
19.819946
 21
-9.1999512
  0
LINE
  8
0
  6
CENTER
 62
     7
 10
216.79999
 20
96.279907
 11
216.79999
 21
104.31995
  0
LINE
  8
0
  6
CENTER
 62
     7
 10
220.81995
 20
100.29993
 11
212.77997
 21
100.29993
  0
LINE
  8
0
  6
CENTER
 62
     7
 10
216.79999
 20
86.780029
 11
216.79999
 21
94.820068
  0
LINE
  8
0
  6
CENTER
 62
     7
 10
220.82001
 20
90.800049
 11
212.78003
 21
90.800049
  0
LINE
  8
0
  6
CENTER
 62
     7
 10
183.20001
 20
96.279907
 11
183.20001
 21
104.31995
  0
LINE
  8
0
  6
CENTER
 62
     7
 10
187.22003
 20
100.29993
 11
179.17999
 21
100.29993
  0
LINE
  8
0
  6
CENTER
 62
     7
 10
183.20001
 20
86.780029
 11
183.20001
 21
94.820068
  0
LINE
  8
0
  6
CENTER
 62
     7
 10
187.22003
 20
90.800049
 11
179.17999
 21
90.800049
  0
LINE
  8
0
  6
CONTINUOUS
 62
     7
 10
111.49988
 20
106.10046
 11
88.499878
 21
106.10046
  0
LINE
  8
0
  6
CONTINUOUS
 62
     7
 10
178.39966
 20
206.09973
 11
211.59985
 21
206.09973
  0
LINE
  8
0
  6
CONTINUOUS
 62
     7
 10
188.5
 20
106.1001
 11
211.5
 21
106.1001
  0
LINE
  8
0
  6
CONTINUOUS
 62
     7
 10
178.39905
 20
294.39972
 11
189.99951
 21
294.39972
  0
LINE
  8
0
  6
CONTINUOUS
 62
     7
 10
178.40005
 20
305.59979
 11
189.99951
 21
305.59979
  0
LINE
  8
0
  6
CONTINUOUS
 62
     7
 10
200
 20
294.39972
 11
211.6001
 21
294.39972
  0
LINE
  8
0
  6
CONTINUOUS
 62
     7
 10
200
 20
305.59979
 11
211.6001
 21
305.59979
  0
LINE
  8
0
  6
CONTINUOUS
 62
     7
 10
319.79987
 20
93.000435
 11
319.99979
 21
92.800529
  0
LINE
  8
0
  6
CONTINUOUS
 62
     7
 10
310.69995
 20
97
 11
310.69995
 21
93.600098
  0
LINE
  8
0
  6
CONTINUOUS
 62
     7
 10
308.2998
 20
97
 11
308.2998
 21
93.600098
  0
LINE
  8
0
  6
CONTINUOUS
 62
     7
 10
311.49948
 20
106.45083
 11
310.94946
 21
107.00084
  0
LINE
  8
0
  6
CONTINUOUS
 62
     7
 10
314.10956
 20
95.260971
 11
314.09784
 21
95.249237
  0
LINE
  8
0
  6
CONTINUOUS
 62
     7
 10
314.39978
 20
95.560059
 11
314.39978
 21
100.24023
  0
LINE
  8
0
  6
CONTINUOUS
 62
     7
 10
314.10974
 20
100.54063
 11
314.09836
 21
100.55202
  0
LINE
  8
0
  6
CONTINUOUS
 62
     7
 10
319.99988
 20
88.090088
 11
319.99988
 21
92.800293
  0
LINE
  8
0
  6
CONTINUOUS
 62
     7
 10
300
 20
105.40015
 11
300
 21
103.50317
  0
LINE
  8
0
  6
CONTINUOUS
 62
     7
 10
318.79999
 20
106.00049
 11
319.79953
 21
105.00094
  0
LINE
  8
0
  6
CONTINUOUS
 62
     7
 10
311.49988
 20
103.10034
 11
311.49988
 21
106.45044
  0
LINE
  8
0
  6
CONTINUOUS
 62
     7
 10
306.49988
 20
107.00049
 11
310.94983
 21
107.00049
  0
LINE
  8
0
  6
CONTINUOUS
 62
     7
 10
305.59921
 20
106.10044
 11
306.49951
 21
107.00072
  0
LINE
  8
0
  6
CONTINUOUS
 62
     7
 10
304.7926
 20
87.350342
 11
300
 21
87.350342
  0
LINE
  8
0
  6
CONTINUOUS
 62
     7
 10
308.86325
 20
98.537209
 11
310.13623
 21
97.264214
  0
LINE
  8
0
  6
CONTINUOUS
 62
     7
 10
308.86325
 20
97.264214
 11
310.13599
 21
98.536949
  0
LINE
  8
0
  6
CONTINUOUS
 62
     7
 10
305.14615
 20
87.203835
 11
305.34967
 21
87.000298
  0
LINE
  8
0
  6
CONTINUOUS
 62
     7
 10
305.34973
 20
87.000244
 11
318.90979
 21
87.000244
  0
LINE
  8
0
  6
CONTINUOUS
 62
     7
 10
312.59985
 20
93.600098
 11
312.59985
 21
94.585205
  0
LINE
  8
0
  6
CONTINUOUS
 62
     7
 10
313.79987
 20
95.785088
 11
312.59988
 21
94.585114
  0
LINE
  8
0
  6
CONTINUOUS
 62
     7
 10
313.79968
 20
95.784912
 11
313.79968
 21
100.01538
  0
LINE
  8
0
  6
CONTINUOUS
 62
     7
 10
313.79953
 20
100.01599
 11
312.59955
 21
101.21597
  0
LINE
  8
0
  6
CONTINUOUS
 62
     7
 10
312.59985
 20
101.21582
 11
312.59985
 21
103.10034
  0
LINE
  8
0
  6
CONTINUOUS
 62
     7
 10
315.5495
 20
102.80074
 11
314.74988
 21
103.60038
  0
LINE
  8
0
  6
CONTINUOUS
 62
     7
 10
313.1499
 20
103.7002
 11
313.1499
 21
103.90015
  0
LINE
  8
0
  6
CONTINUOUS
 62
     7
 10
313.1499
 20
103.90015
 11
314.87415
 21
103.90015
  0
LINE
  8
0
  6
CONTINUOUS
 62
     7
 10
315.76169
 20
103.01291
 11
314.87399
 21
103.90059
  0
LINE
  8
0
  6
CONTINUOUS
 62
     7
 10
315.76169
 20
103.01291
 11
315.5495
 21
102.80074
  0
LINE
  8
0
  6
CONTINUOUS
 62
     7
 10
314.44995
 20
103.60059
 11
314.74988
 21
103.60059
  0
LINE
  8
0
  6
CONTINUOUS
 62
     7
 10
310.39978
 20
103.10034
 11
313.94983
 21
103.10034
  0
LINE
  8
0
  6
CONTINUOUS
 62
     7
 10
314.44983
 20
103.60072
 11
313.9498
 21
103.10069
  0
LINE
  8
0
  6
CONTINUOUS
 62
     7
 10
313.94983
 20
103.10034
 11
313.94983
 21
103.7002
  0
LINE
  8
0
  6
CONTINUOUS
 62
     7
 10
311.6499
 20
103.7002
 11
313.94983
 21
103.7002
  0
LINE
  8
0
  6
CONTINUOUS
 62
     7
 10
311.6499
 20
103.10034
 11
311.6499
 21
103.7002
  0
LINE
  8
0
  6
CONTINUOUS
 62
     7
 10
309.89978
 20
103.60059
 11
309.89978
 21
104.90063
  0
LINE
  8
0
  6
CONTINUOUS
 62
     7
 10
312.75
 20
93.600098
 11
303.49988
 21
93.600098
  0
LINE
  8
0
  6
CONTINUOUS
 62
     7
 10
309.3999
 20
105.40015
 11
300
 21
105.40015
  0
LINE
  8
0
  6
CONTINUOUS
 62
     7
 10
303.49988
 20
93.600098
 11
303.49988
 21
100
  0
LINE
  8
0
  6
CONTINUOUS
 62
     7
 10
300
 20
105.70044
 11
310.8999
 21
105.70044
  0
LINE
  8
0
  6
CONTINUOUS
 62
     7
 10
300
 20
93.400146
 11
312.55005
 21
93.400146
  0
LINE
  8
0
  6
CONTINUOUS
 62
     7
 10
311.39978
 20
103.10034
 11
311.39978
 21
105.2002
  0
LINE
  8
0
  6
CONTINUOUS
 62
     7
 10
312.49954
 20
93.300819
 11
312.60208
 21
93.403366
  0
LINE
  8
0
  6
CONTINUOUS
 62
     7
 10
312.49988
 20
93.300537
 11
300
 21
93.300537
  0
LINE
  8
0
  6
CENTER
 62
     7
 10
309
 20
98.940277
 11
309
 21
108.27048
  0
LINE
  8
0
  6
CENTER
 62
     7
 10
309
 20
85.730225
 11
309
 21
93.500488
  0
LINE
  8
0
  6
CONTINUOUS
 62
     7
 10
313.24988
 20
101.60474
 11
313.24988
 21
103.7002
  0
LINE
  8
0
  6
CENTER
 62
     7
 10
295.22717
 20
100
 11
304.77271
 21
100
  0
LINE
  8
0
  6
CENTER
 62
     7
 10
300
 20
85.730225
 11
300
 21
108.27048
  0
LINE
  8
0
  6
CONTINUOUS
 62
     7
 10
313.24988
 20
94
 11
313.24988
 21
94.198486
  0
LINE
  8
0
  6
CONTINUOUS
 62
     7
 10
319.79993
 20
93.000244
 11
319.79993
 21
105.00024
  0
LINE
  8
0
  6
CONTINUOUS
 62
     7
 10
313.72302
 20
102.80005
 11
317.73669
 21
102.80005
  0
LINE
  8
0
  6
CONTINUOUS
 62
     7
 10
311.25
 20
92.000488
 11
300
 21
92.000488
  0
LINE
  8
0
  6
CONTINUOUS
 62
     7
 10
318.79993
 20
106
 11
311.49988
 21
106
  0
LINE
  8
0
  6
CONTINUOUS
 62
     7
 10
311.49988
 20
106.10046
 11
300
 21
106.10046
  0
LINE
  8
0
  6
CENTER
 62
     7
 10
332.66992
 20
97.000244
 11
315.79993
 21
97.000244
  0
LINE
  8
0
  6
PHANTOM
 62
     7
 10
320.09998
 20
93.000244
 11
324.5
 21
93.000244
  0
LINE
  8
0
  6
PHANTOM
 62
     7
 10
320.8999
 20
99.150253
 11
321.29993
 21
99.150253
  0
LINE
  8
0
  6
PHANTOM
 62
     7
 10
321.8999
 20
99.900253
 11
323.69995
 21
99.900253
  0
LINE
  8
0
  6
PHANTOM
 62
     7
 10
320.59998
 20
95.150253
 11
320.59998
 21
98.85025
  0
LINE
  8
0
  6
PHANTOM
 62
     7
 10
324
 20
94.400253
 11
324
 21
94.550247
  0
LINE
  8
0
  6
PHANTOM
 62
     7
 10
321.8999
 20
94.10025
 11
323.69995
 21
94.10025
  0
LINE
  8
0
  6
PHANTOM
 62
     7
 10
320.8999
 20
94.85025
 11
321.29993
 21
94.85025
  0
LINE
  8
0
  6
PHANTOM
 62
     7
 10
320.09998
 20
101.00024
 11
324.5
 21
101.00024
  0
LINE
  8
0
  6
PHANTOM
 62
     7
 10
321.59998
 20
94.400253
 11
321.59998
 21
94.550247
  0
LINE
  8
0
  6
PHANTOM
 62
     7
 10
324
 20
99.60025
 11
324
 21
99.450241
  0
LINE
  8
0
  6
PHANTOM
 62
     7
 10
324.29993
 20
94.85025
 11
324.5
 21
94.85025
  0
LINE
  8
0
  6
PHANTOM
 62
     7
 10
321.59998
 20
99.60025
 11
321.59998
 21
99.450241
  0
LINE
  8
0
  6
PHANTOM
 62
     7
 10
324.29993
 20
99.150253
 11
324.5
 21
99.150253
  0
LINE
  8
0
  6
PHANTOM
 62
     7
 10
324.79993
 20
90.550247
 11
324.79993
 21
103.45024
  0
LINE
  8
0
  6
PHANTOM
 62
     7
 10
333.19995
 20
106.90047
 11
311.0498
 21
106.90047
  0
LINE
  8
0
  6
PHANTOM
 62
     7
 10
305.30005
 20
106.10046
 11
305.30005
 21
106.90047
  0
LINE
  8
0
  6
PHANTOM
 62
     7
 10
333.19995
 20
106.10046
 11
311.49988
 21
106.10046
  0
LINE
  8
0
  6
PHANTOM
 62
     7
 10
306.39929
 20
106.90047
 11
305.30005
 21
106.90047
  0
LINE
  8
0
  6
CONTINUOUS
 62
     7
 10
411.49988
 20
106.10046
 11
400
 21
106.10046
  0
LINE
  8
0
  6
CONTINUOUS
 62
     7
 10
418.79993
 20
106
 11
411.49988
 21
106
  0
LINE
  8
0
  6
CONTINUOUS
 62
     7
 10
411.25
 20
92.000488
 11
400
 21
92.000488
  0
LINE
  8
0
  6
CONTINUOUS
 62
     7
 10
413.72302
 20
102.80005
 11
417.73669
 21
102.80005
  0
LINE
  8
0
  6
CONTINUOUS
 62
     7
 10
419.79993
 20
93.000244
 11
419.79993
 21
105.00024
  0
LINE
  8
0
  6
CONTINUOUS
 62
     7
 10
413.24988
 20
94
 11
413.24988
 21
94.198486
  0
LINE
  8
0
  6
CENTER
 62
     7
 10
400
 20
85.730225
 11
400
 21
108.27048
  0
LINE
  8
0
  6
CENTER
 62
     7
 10
395.22717
 20
100
 11
404.77271
 21
100
  0
LINE
  8
0
  6
CONTINUOUS
 62
     7
 10
413.24988
 20
101.60474
 11
413.24988
 21
103.7002
  0
LINE
  8
0
  6
CENTER
 62
     7
 10
409
 20
85.730225
 11
409
 21
93.500488
  0
LINE
  8
0
  6
CENTER
 62
     7
 10
409
 20
98.940277
 11
409
 21
108.27048
  0
LINE
  8
0
  6
CONTINUOUS
 62
     7
 10
412.49988
 20
93.300537
 11
400
 21
93.300537
  0
LINE
  8
0
  6
CONTINUOUS
 62
     7
 10
412.49948
 20
93.300827
 11
412.60202
 21
93.403366
  0
LINE
  8
0
  6
CONTINUOUS
 62
     7
 10
411.39978
 20
103.10034
 11
411.39978
 21
105.2002
  0
LINE
  8
0
  6
CONTINUOUS
 62
     7
 10
400
 20
93.400146
 11
412.55005
 21
93.400146
  0
LINE
  8
0
  6
CONTINUOUS
 62
     7
 10
400
 20
105.70044
 11
410.8999
 21
105.70044
  0
LINE
  8
0
  6
CONTINUOUS
 62
     7
 10
403.49988
 20
93.600098
 11
403.49988
 21
100
  0
LINE
  8
0
  6
CONTINUOUS
 62
     7
 10
409.3999
 20
105.40015
 11
400
 21
105.40015
  0
LINE
  8
0
  6
CONTINUOUS
 62
     7
 10
412.75
 20
93.600098
 11
403.49988
 21
93.600098
  0
LINE
  8
0
  6
CONTINUOUS
 62
     7
 10
409.89978
 20
103.60059
 11
409.89978
 21
104.90063
  0
LINE
  8
0
  6
CONTINUOUS
 62
     7
 10
411.6499
 20
103.10034
 11
411.6499
 21
103.7002
  0
LINE
  8
0
  6
CONTINUOUS
 62
     7
 10
411.6499
 20
103.7002
 11
413.94983
 21
103.7002
  0
LINE
  8
0
  6
CONTINUOUS
 62
     7
 10
413.94983
 20
103.10034
 11
413.94983
 21
103.7002
  0
LINE
  8
0
  6
CONTINUOUS
 62
     7
 10
414.44977
 20
103.60072
 11
413.94974
 21
103.10069
  0
LINE
  8
0
  6
CONTINUOUS
 62
     7
 10
410.39978
 20
103.10034
 11
413.94983
 21
103.10034
  0
LINE
  8
0
  6
CONTINUOUS
 62
     7
 10
414.44995
 20
103.60059
 11
414.74988
 21
103.60059
  0
LINE
  8
0
  6
CONTINUOUS
 62
     7
 10
415.7616
 20
103.01291
 11
415.54944
 21
102.80074
  0
LINE
  8
0
  6
CONTINUOUS
 62
     7
 10
415.7616
 20
103.01291
 11
414.87393
 21
103.90059
  0
LINE
  8
0
  6
CONTINUOUS
 62
     7
 10
413.1499
 20
103.90015
 11
414.87415
 21
103.90015
  0
LINE
  8
0
  6
CONTINUOUS
 62
     7
 10
413.1499
 20
103.7002
 11
413.1499
 21
103.90015
  0
LINE
  8
0
  6
CONTINUOUS
 62
     7
 10
415.54944
 20
102.80074
 11
414.74982
 21
103.60038
  0
LINE
  8
0
  6
CONTINUOUS
 62
     7
 10
412.59985
 20
101.21582
 11
412.59985
 21
103.10034
  0
LINE
  8
0
  6
CONTINUOUS
 62
     7
 10
413.79947
 20
100.01599
 11
412.59949
 21
101.21597
  0
LINE
  8
0
  6
CONTINUOUS
 62
     7
 10
413.79968
 20
95.784912
 11
413.79968
 21
100.01538
  0
LINE
  8
0
  6
CONTINUOUS
 62
     7
 10
413.7998
 20
95.785088
 11
412.59982
 21
94.585114
  0
LINE
  8
0
  6
CONTINUOUS
 62
     7
 10
412.59985
 20
93.600098
 11
412.59985
 21
94.585205
  0
LINE
  8
0
  6
CONTINUOUS
 62
     7
 10
405.34973
 20
87.000244
 11
418.90979
 21
87.000244
  0
LINE
  8
0
  6
CONTINUOUS
 62
     7
 10
405.14606
 20
87.203842
 11
405.34961
 21
87.000305
  0
LINE
  8
0
  6
CONTINUOUS
 62
     7
 10
408.86319
 20
97.264214
 11
410.13593
 21
98.536949
  0
LINE
  8
0
  6
CONTINUOUS
 62
     7
 10
408.86319
 20
98.537209
 11
410.13617
 21
97.264214
  0
LINE
  8
0
  6
CONTINUOUS
 62
     7
 10
404.7926
 20
87.350342
 11
400
 21
87.350342
  0
LINE
  8
0
  6
CONTINUOUS
 62
     7
 10
405.59921
 20
106.1004
 11
406.49948
 21
107.00068
  0
LINE
  8
0
  6
CONTINUOUS
 62
     7
 10
406.49988
 20
107.00049
 11
410.94983
 21
107.00049
  0
LINE
  8
0
  6
CONTINUOUS
 62
     7
 10
411.49988
 20
103.10034
 11
411.49988
 21
106.45044
  0
LINE
  8
0
  6
CONTINUOUS
 62
     7
 10
418.79996
 20
106.00044
 11
419.7995
 21
105.00089
  0
LINE
  8
0
  6
CONTINUOUS
 62
     7
 10
400
 20
105.40015
 11
400
 21
103.50317
  0
LINE
  8
0
  6
CONTINUOUS
 62
     7
 10
419.99988
 20
88.090088
 11
419.99988
 21
92.800293
  0
LINE
  8
0
  6
CONTINUOUS
 62
     7
 10
414.10968
 20
100.54063
 11
414.0983
 21
100.55202
  0
LINE
  8
0
  6
CONTINUOUS
 62
     7
 10
414.39978
 20
95.560059
 11
414.39978
 21
100.24023
  0
LINE
  8
0
  6
CONTINUOUS
 62
     7
 10
414.1095
 20
95.260971
 11
414.09778
 21
95.249237
  0
LINE
  8
0
  6
CONTINUOUS
 62
     7
 10
411.49942
 20
106.45084
 11
410.9494
 21
107.00085
  0
LINE
  8
0
  6
CONTINUOUS
 62
     7
 10
408.2998
 20
97
 11
408.2998
 21
93.600098
  0
LINE
  8
0
  6
CONTINUOUS
 62
     7
 10
410.69995
 20
97
 11
410.69995
 21
93.600098
  0
LINE
  8
0
  6
CONTINUOUS
 62
     7
 10
419.7998
 20
93.000443
 11
419.99973
 21
92.800529
  0
LINE
  8
0
  6
PHANTOM
 62
     7
 10
424.79993
 20
93.000244
 11
424.79993
 21
101.00024
  0
LINE
  8
0
  6
PHANTOM
 62
     7
 10
423.19995
 20
95.000244
 11
423.19995
 21
99.000244
  0
LINE
  8
0
  6
PHANTOM
 62
     7
 10
424.29993
 20
99.150253
 11
424.5
 21
99.150253
  0
LINE
  8
0
  6
PHANTOM
 62
     7
 10
420.09998
 20
101.00024
 11
424.5
 21
101.00024
  0
LINE
  8
0
  6
PHANTOM
 62
     7
 10
421.59998
 20
99.60025
 11
421.59998
 21
99.450241
  0
LINE
  8
0
  6
PHANTOM
 62
     7
 10
424.29993
 20
94.85025
 11
424.5
 21
94.85025
  0
LINE
  8
0
  6
PHANTOM
 62
     7
 10
424
 20
99.60025
 11
424
 21
99.450241
  0
LINE
  8
0
  6
PHANTOM
 62
     7
 10
421.59998
 20
94.400253
 11
421.59998
 21
94.550247
  0
LINE
  8
0
  6
PHANTOM
 62
     7
 10
420.8999
 20
94.85025
 11
421.29993
 21
94.85025
  0
LINE
  8
0
  6
PHANTOM
 62
     7
 10
420.8999
 20
99.150253
 11
421.29993
 21
99.150253
  0
LINE
  8
0
  6
PHANTOM
 62
     7
 10
421.8999
 20
94.10025
 11
423.69995
 21
94.10025
  0
LINE
  8
0
  6
PHANTOM
 62
     7
 10
424
 20
94.400253
 11
424
 21
94.550247
  0
LINE
  8
0
  6
PHANTOM
 62
     7
 10
420.59998
 20
95.150253
 11
420.59998
 21
98.85025
  0
LINE
  8
0
  6
PHANTOM
 62
     7
 10
421.8999
 20
99.900253
 11
423.69995
 21
99.900253
  0
LINE
  8
0
  6
PHANTOM
 62
     7
 10
420.09998
 20
93.000244
 11
424.5
 21
93.000244
  0
LINE
  8
0
  6
CENTER
 62
     7
 10
432.06995
 20
97.000244
 11
415.79993
 21
97.000244
  0
LINE
  8
0
  6
PHANTOM
 62
     7
 10
430.79993
 20
93.000244
 11
430.79993
 21
101.00024
  0
LINE
  8
0
  6
PHANTOM
 62
     7
 10
430.79993
 20
101.00024
 11
424.79993
 21
101.00024
  0
LINE
  8
0
  6
PHANTOM
 62
     7
 10
430.79993
 20
93.000244
 11
424.79993
 21
93.000244
  0
LINE
  8
0
  6
PHANTOM
 62
     7
 10
424.79993
 20
95.000244
 11
423.19995
 21
95.000244
  0
LINE
  8
0
  6
PHANTOM
 62
     7
 10
424.79993
 20
99.000244
 11
423.19995
 21
99.000244
  0
LINE
  8
0
  6
PHANTOM
 62
     7
 10
431.69995
 20
106.90047
 11
411.0498
 21
106.90047
  0
LINE
  8
0
  6
PHANTOM
 62
     7
 10
405.30005
 20
106.10046
 11
405.30005
 21
106.90047
  0
LINE
  8
0
  6
PHANTOM
 62
     7
 10
431.69995
 20
106.10046
 11
411.49988
 21
106.10046
  0
LINE
  8
0
  6
PHANTOM
 62
     7
 10
431.69995
 20
93.000465
 11
431.69995
 21
106.10046
  0
LINE
  8
0
  6
PHANTOM
 62
     7
 10
432.5
 20
93.000465
 11
432.5
 21
106.10046
  0
LINE
  8
0
  6
PHANTOM
 62
     7
 10
432.5
 20
93.000465
 11
431.69995
 21
93.000465
  0
LINE
  8
0
  6
PHANTOM
 62
     7
 10
406.39929
 20
106.90047
 11
405.30005
 21
106.90047
  0
LINE
  8
0
  6
PHANTOM
 62
     7
 10
142.99976
 20
275.19983
 11
354
 21
275.19983
  0
LINE
  8
0
  6
PHANTOM
 62
     7
 10
142.99976
 20
275.19983
 11
142.99976
 21
280.19983
  0
LINE
  8
0
  6
PHANTOM
 62
     7
 10
354
 20
275.19983
 11
354
 21
280.19983
  0
LINE
  8
0
  6
PHANTOM
 62
     7
 10
348.99988
 20
280.19983
 11
349.49976
 21
280.19983
  0
LINE
  8
0
  6
PHANTOM
 62
     7
 10
353.49988
 20
280.19983
 11
353.99976
 21
280.19983
  0
LINE
  8
0
  6
PHANTOM
 62
     7
 10
147.99988
 20
280.19983
 11
149
 21
280.19983
  0
LINE
  8
0
  6
PHANTOM
 62
     7
 10
334
 20
90.600464
 11
334
 21
106.10046
  0
LINE
  8
0
  6
PHANTOM
 62
     7
 10
334
 20
90.600464
 11
333.19995
 21
90.600464
  0
LINE
  8
0
  6
PHANTOM
 62
     7
 10
333.19995
 20
90.600464
 11
333.19995
 21
106.10046
  0
LINE
  8
0
  6
PHANTOM
 62
     7
 10
332.29993
 20
91.400246
 11
332.29993
 21
102.60024
  0
LINE
  8
0
  6
PHANTOM
 62
     7
 10
325.19995
 20
90.950241
 11
325.19995
 21
103.05025
  0
LINE
  8
0
  6
PHANTOM
 62
     7
 10
326.79993
 20
90.550247
 11
324.79993
 21
90.550247
  0
LINE
  8
0
  6
PHANTOM
 62
     7
 10
326.79993
 20
103.45024
 11
324.79993
 21
103.45024
  0
LINE
  8
0
  6
PHANTOM
 62
     7
 10
326.79993
 20
103.05025
 11
325.19995
 21
103.05025
  0
LINE
  8
0
  6
PHANTOM
 62
     7
 10
326.79993
 20
90.950241
 11
325.19995
 21
90.950241
  0
LINE
  8
0
  6
PHANTOM
 62
     7
 10
326.79993
 20
90.550247
 11
326.79993
 21
90.950241
  0
LINE
  8
0
  6
PHANTOM
 62
     7
 10
326.79993
 20
103.05025
 11
326.79993
 21
103.45024
  0
LINE
  8
0
  6
PHANTOM
 62
     7
 10
331.3999
 20
103.00024
 11
325.19995
 21
103.00024
  0
LINE
  8
0
  6
PHANTOM
 62
     7
 10
331.3999
 20
91.000244
 11
325.19995
 21
91.000244
  0
LINE
  8
0
  6
PHANTOM
 62
     7
 10
332.29993
 20
91.400246
 11
331.3999
 21
91.400246
  0
LINE
  8
0
  6
PHANTOM
 62
     7
 10
332.29993
 20
102.60024
 11
331.3999
 21
102.60024
  0
LINE
  8
0
  6
PHANTOM
 62
     7
 10
331.3999
 20
91.000244
 11
331.3999
 21
103.00024
  0
LINE
  8
0
  6
PHANTOM
 62
     7
 10
322.79993
 20
95.800247
 11
322.79993
 21
98.200241
  0
LINE
  8
0
  6
PHANTOM
 62
     7
 10
324.79993
 20
95.800247
 11
322.79993
 21
95.800247
  0
LINE
  8
0
  6
PHANTOM
 62
     7
 10
324.79993
 20
98.200241
 11
322.79993
 21
98.200241
  0
LINE
  8
0
  6
CONTINUOUS
 62
     7
 10
80.199371
 20
-6.9992504
 11
79.99929
 21
-7.1993322
  0
LINE
  8
0
  6
CONTINUOUS
 62
     7
 10
119.7998
 20
-6.9995546
 11
119.99972
 21
-7.1994643
  0
LINE
  8
0
  6
CONTINUOUS
 62
     7
 10
110.69995
 20
-3
 11
110.69995
 21
-6.3999023
  0
LINE
  8
0
  6
CONTINUOUS
 62
     7
 10
108.2998
 20
-3
 11
108.2998
 21
-6.3999023
  0
LINE
  8
0
  6
CONTINUOUS
 62
     7
 10
89.299683
 20
-3
 11
89.299683
 21
-6.3999023
  0
LINE
  8
0
  6
CONTINUOUS
 62
     7
 10
91.699829
 20
-3
 11
91.699829
 21
-6.3999023
  0
LINE
  8
0
  6
CONTINUOUS
 62
     7
 10
111.49941
 20
6.4508381
 11
110.9494
 21
7.0008483
  0
LINE
  8
0
  6
CONTINUOUS
 62
     7
 10
114.10955
 20
-4.7390485
 11
114.09781
 21
-4.7507873
  0
LINE
  8
0
  6
CONTINUOUS
 62
     7
 10
85.599854
 20
-4.4399414
 11
85.599854
 21
0.24023438
  0
LINE
  8
0
  6
CONTINUOUS
 62
     7
 10
85.889153
 20
-4.7390485
 11
85.90107
 21
-4.7509599
  0
LINE
  8
0
  6
CONTINUOUS
 62
     7
 10
85.889496
 20
0.54077441
 11
85.90107
 21
0.55234087
  0
LINE
  8
0
  6
CONTINUOUS
 62
     7
 10
114.39978
 20
-4.4399414
 11
114.39978
 21
0.24023438
  0
LINE
  8
0
  6
CONTINUOUS
 62
     7
 10
114.10973
 20
0.54060179
 11
114.09833
 21
0.55199558
  0
LINE
  8
0
  6
CONTINUOUS
 62
     7
 10
91.499878
 20
-6.6994629
 11
87.499878
 21
-6.6994629
  0
LINE
  8
0
  6
CONTINUOUS
 62
     7
 10
119.99988
 20
-11.909912
 11
119.99988
 21
-7.199707
  0
LINE
  8
0
  6
CONTINUOUS
 62
     7
 10
79.999878
 20
-11.909912
 11
79.999878
 21
-7.199707
  0
LINE
  8
0
  6
CONTINUOUS
 62
     7
 10
100
 20
5.4001465
 11
100
 21
3.5031738
  0
LINE
  8
0
  6
CONTINUOUS
 62
     7
 10
93.969604
 20
5.4001465
 11
90.599731
 21
5.4001465
  0
LINE
  8
0
  6
CONTINUOUS
 62
     7
 10
111.49988
 20
3.1003418
 11
111.49988
 21
6.5004883
  0
LINE
  8
0
  6
CONTINUOUS
 62
     7
 10
88.499878
 20
3.1003418
 11
88.499878
 21
6.5004883
  0
LINE
  8
0
  6
CONTINUOUS
 62
     7
 10
105.59919
 20
6.1004372
 11
106.49947
 21
7.0007205
  0
LINE
  8
0
  6
CONTINUOUS
 62
     7
 10
94.399979
 20
6.1004748
 11
93.499954
 21
7.0004997
  0
LINE
  8
0
  6
CONTINUOUS
 62
     7
 10
110.99988
 20
7.0004883
 11
88.999878
 21
7.0004883
  0
LINE
  8
0
  6
CONTINUOUS
 62
     7
 10
88.499237
 20
6.4506221
 11
89.049248
 21
7.0006323
  0
LINE
  8
0
  6
CONTINUOUS
 62
     7
 10
104.7926
 20
-12.649658
 11
95.207031
 21
-12.649658
  0
LINE
  8
0
  6
CONTINUOUS
 62
     7
 10
108.86322
 20
-1.4628099
 11
110.13622
 21
-2.7358093
  0
LINE
  8
0
  6
CONTINUOUS
 62
     7
 10
108.86322
 20
-2.7358093
 11
110.13605
 21
-1.4629825
  0
LINE
  8
0
  6
CONTINUOUS
 62
     7
 10
89.86335
 20
-1.4629825
 11
91.136353
 21
-2.7359819
  0
LINE
  8
0
  6
CONTINUOUS
 62
     7
 10
89.863434
 20
-2.7358956
 11
91.136261
 21
-1.4630688
  0
LINE
  8
0
  6
CONTINUOUS
 62
     7
 10
105.14607
 20
-12.796157
 11
105.3496
 21
-12.999691
  0
LINE
  8
0
  6
CONTINUOUS
 62
     7
 10
84.237915
 20
3.0127134
 11
85.125595
 21
3.9003947
  0
LINE
  8
0
  6
CONTINUOUS
 62
     7
 10
94.853531
 20
-12.795936
 11
94.649826
 21
-12.999643
  0
LINE
  8
0
  6
CONTINUOUS
 62
     7
 10
105.34973
 20
-12.999756
 11
118.90979
 21
-12.999756
  0
LINE
  8
0
  6
CONTINUOUS
 62
     7
 10
94.64978
 20
-12.999756
 11
81.089966
 21
-12.999756
  0
LINE
  8
0
  6
CONTINUOUS
 62
     7
 10
84.237915
 20
3.0127134
 11
84.449738
 21
2.8008921
  0
LINE
  8
0
  6
CONTINUOUS
 62
     7
 10
88.349731
 20
3.1003418
 11
88.349731
 21
3.7001953
  0
LINE
  8
0
  6
CONTINUOUS
 62
     7
 10
86.849731
 20
3.7001953
 11
86.849731
 21
3.9001465
  0
LINE
  8
0
  6
CONTINUOUS
 62
     7
 10
86.849731
 20
3.9001465
 11
85.12561
 21
3.9001465
  0
LINE
  8
0
  6
CONTINUOUS
 62
     7
 10
88.349731
 20
3.7001953
 11
86.049927
 21
3.7001953
  0
LINE
  8
0
  6
CONTINUOUS
 62
     7
 10
85.549759
 20
3.6005304
 11
86.04953
 21
3.1007564
  0
LINE
  8
0
  6
CONTINUOUS
 62
     7
 10
86.049927
 20
3.1003418
 11
86.049927
 21
3.7001953
  0
LINE
  8
0
  6
CONTINUOUS
 62
     7
 10
85.550049
 20
3.6005859
 11
85.249878
 21
3.6005859
  0
LINE
  8
0
  6
CONTINUOUS
 62
     7
 10
84.449738
 20
2.8008921
 11
85.24955
 21
3.600703
  0
LINE
  8
0
  6
CONTINUOUS
 62
     7
 10
112.59985
 20
-6.3999023
 11
112.59985
 21
-5.4147949
  0
LINE
  8
0
  6
CONTINUOUS
 62
     7
 10
113.79984
 20
-4.2149329
 11
112.59987
 21
-5.4149084
  0
LINE
  8
0
  6
CONTINUOUS
 62
     7
 10
113.79968
 20
-4.2150879
 11
113.79968
 21
0.015380859
  0
LINE
  8
0
  6
CONTINUOUS
 62
     7
 10
113.7995
 20
0.015968598
 11
112.59953
 21
1.2159441
  0
LINE
  8
0
  6
CONTINUOUS
 62
     7
 10
112.59985
 20
1.2158203
 11
112.59985
 21
3.1003418
  0
LINE
  8
0
  6
CONTINUOUS
 62
     7
 10
87.39978
 20
1.2158203
 11
87.39978
 21
3.1003418
  0
LINE
  8
0
  6
CONTINUOUS
 62
     7
 10
87.39978
 20
-6.3999023
 11
87.39978
 21
-5.4147949
  0
LINE
  8
0
  6
CONTINUOUS
 62
     7
 10
86.199898
 20
-4.2149329
 11
87.399872
 21
-5.4149084
  0
LINE
  8
0
  6
CONTINUOUS
 62
     7
 10
86.199829
 20
-4.2150879
 11
86.199829
 21
0.015380859
  0
LINE
  8
0
  6
CONTINUOUS
 62
     7
 10
86.199638
 20
0.016054915
 11
87.399696
 21
1.2161167
  0
LINE
  8
0
  6
CONTINUOUS
 62
     7
 10
96.499878
 20
-6.3999023
 11
87.25
 21
-6.3999023
  0
LINE
  8
0
  6
CONTINUOUS
 62
     7
 10
115.54948
 20
2.8007195
 11
114.74985
 21
3.6003578
  0
LINE
  8
0
  6
CONTINUOUS
 62
     7
 10
113.1499
 20
3.7001953
 11
113.1499
 21
3.9001465
  0
LINE
  8
0
  6
CONTINUOUS
 62
     7
 10
113.1499
 20
3.9001465
 11
114.87415
 21
3.9001465
  0
LINE
  8
0
  6
CONTINUOUS
 62
     7
 10
115.76165
 20
3.012886
 11
114.87397
 21
3.9005675
  0
LINE
  8
0
  6
CONTINUOUS
 62
     7
 10
115.76165
 20
3.012886
 11
115.54948
 21
2.8007195
  0
LINE
  8
0
  6
CONTINUOUS
 62
     7
 10
114.44995
 20
3.6005859
 11
114.74988
 21
3.6005859
  0
LINE
  8
0
  6
CONTINUOUS
 62
     7
 10
110.39978
 20
3.1003418
 11
113.94983
 21
3.1003418
  0
LINE
  8
0
  6
CONTINUOUS
 62
     7
 10
114.44981
 20
3.600703
 11
113.94987
 21
3.1007564
  0
LINE
  8
0
  6
CONTINUOUS
 62
     7
 10
113.94983
 20
3.1003418
 11
113.94983
 21
3.7001953
  0
LINE
  8
0
  6
CONTINUOUS
 62
     7
 10
111.6499
 20
3.7001953
 11
113.94983
 21
3.7001953
  0
LINE
  8
0
  6
CONTINUOUS
 62
     7
 10
111.6499
 20
3.1003418
 11
111.6499
 21
3.7001953
  0
LINE
  8
0
  6
CONTINUOUS
 62
     7
 10
109.89978
 20
3.6005859
 11
109.89978
 21
4.9006348
  0
LINE
  8
0
  6
CONTINUOUS
 62
     7
 10
89.599731
 20
3.1003418
 11
86.049927
 21
3.1003418
  0
LINE
  8
0
  6
CONTINUOUS
 62
     7
 10
112.75
 20
-6.3999023
 11
103.49988
 21
-6.3999023
  0
LINE
  8
0
  6
CONTINUOUS
 62
     7
 10
109.3999
 20
5.4001465
 11
96.030151
 21
5.4001465
  0
LINE
  8
0
  6
CONTINUOUS
 62
     7
 10
90.099854
 20
3.6005859
 11
90.099854
 21
4.9006348
  0
LINE
  8
0
  6
CONTINUOUS
 62
     7
 10
103.49988
 20
-6.3999023
 11
103.49988
 21
0
  0
LINE
  8
0
  6
CONTINUOUS
 62
     7
 10
89.099731
 20
5.7004395
 11
110.8999
 21
5.7004395
  0
LINE
  8
0
  6
CONTINUOUS
 62
     7
 10
96.499878
 20
-6.3999023
 11
96.499878
 21
0
  0
LINE
  8
0
  6
CONTINUOUS
 62
     7
 10
88.599854
 20
3.1003418
 11
88.599854
 21
5.2001953
  0
LINE
  8
0
  6
CONTINUOUS
 62
     7
 10
87.449951
 20
-6.5998535
 11
112.55005
 21
-6.5998535
  0
LINE
  8
0
  6
CONTINUOUS
 62
     7
 10
111.39978
 20
3.1003418
 11
111.39978
 21
5.2001953
  0
LINE
  8
0
  6
CONTINUOUS
 62
     7
 10
112.49948
 20
-6.699173
 11
112.60202
 21
-6.5966287
  0
LINE
  8
0
  6
CONTINUOUS
 62
     7
 10
87.499519
 20
-6.699038
 11
87.396973
 21
-6.5964937
  0
LINE
  8
0
  6
CONTINUOUS
 62
     7
 10
112.49988
 20
-6.6994629
 11
92.299683
 21
-6.6994629
  0
LINE
  8
0
  6
CENTER
 62
     7
 10
109
 20
-1.0597229
 11
109
 21
19.270504
  0
LINE
  8
0
  6
CENTER
 62
     7
 10
91
 20
-1.0597229
 11
91
 21
19.270504
  0
LINE
  8
0
  6
CENTER
 62
     7
 10
91
 20
-14.269775
 11
91
 21
-6.4995117
  0
LINE
  8
0
  6
CONTINUOUS
 62
     7
 10
113.24988
 20
1.6047363
 11
113.24988
 21
3.7001953
  0
LINE
  8
0
  6
CENTER
 62
     7
 10
95.227173
 20
0
 11
104.77271
 21
0
  0
LINE
  8
0
  6
CONTINUOUS
 62
     7
 10
80.199829
 20
-5.7495117
 11
80.199829
 21
4.5005035
  0
LINE
  8
0
  6
CENTER
 62
     7
 10
100
 20
-14.269775
 11
100
 21
8.2704773
  0
LINE
  8
0
  6
CONTINUOUS
 62
     7
 10
113.24988
 20
-6
 11
113.24988
 21
-5.8015137
  0
LINE
  8
0
  6
DASHED
 62
     7
 10
107.30005
 20
-12.849609
 11
107.30005
 21
-10.999512
  0
LINE
  8
0
  6
CONTINUOUS
 62
     7
 10
119.79993
 20
-6.9997559
 11
119.79993
 21
4.5005035
  0
LINE
  8
0
  6
CONTINUOUS
 62
     7
 10
113.72302
 20
2.8000488
 11
117.73669
 21
2.8000488
  0
LINE
  8
0
  6
CONTINUOUS
 62
     7
 10
86.749878
 20
1.6047363
 11
86.749878
 21
3.7001953
  0
LINE
  8
0
  6
CONTINUOUS
 62
     7
 10
86.749878
 20
-6
 11
86.749878
 21
-5.8015137
  0
LINE
  8
0
  6
DASHED
 62
     7
 10
105.75012
 20
-10.999512
 11
105.75012
 21
-7.9995117
  0
LINE
  8
0
  6
CONTINUOUS
 62
     7
 10
111.25
 20
-7.9995117
 11
88.75
 21
-7.9995117
  0
LINE
  8
0
  6
CENTER
 62
     7
 10
109
 20
-14.269775
 11
109
 21
-6.4995117
  0
LINE
  8
0
  6
DASHED
 62
     7
 10
112.25012
 20
-10.999512
 11
112.25012
 21
-7.7314453
  0
LINE
  8
0
  6
DASHED
 62
     7
 10
105.75012
 20
-10.999512
 11
112.25012
 21
-10.999512
  0
LINE
  8
0
  6
DASHED
 62
     7
 10
110.69995
 20
-12.849609
 11
110.69995
 21
-10.999512
  0
LINE
  8
0
  6
CONTINUOUS
 62
     7
 10
80.199829
 20
-6.9997559
 11
80.199829
 21
-6.5500488
  0
LINE
  8
0
  6
DASHED
 62
     7
 10
107.30005
 20
-12.849609
 11
110.69995
 21
-12.849609
  0
LINE
  8
0
  6
CONTINUOUS
 62
     7
 10
86.276611
 20
2.8000488
 11
82.263062
 21
2.8000488
  0
LINE
  8
0
  6
DASHED
 62
     7
 10
107.30063
 20
-12.849504
 11
107.15044
 21
-12.999695
  0
LINE
  8
0
  6
DASHED
 62
     7
 10
110.70026
 20
-12.849624
 11
110.85027
 21
-12.999642
  0
LINE
  8
0
  6
CONTINUOUS
 62
     7
 10
111.49988
 20
6.1004639
 11
88.499878
 21
6.1004639
  0
LINE
  8
0
  6
CONTINUOUS
 62
     7
 10
87.75
 20
17.500488
 11
94.25
 21
17.500488
  0
LINE
  8
0
  6
CONTINUOUS
 62
     7
 10
110.5
 20
18.000504
 11
107.5
 21
18.000504
  0
LINE
  8
0
  6
CONTINUOUS
 62
     7
 10
89.5
 20
18.000504
 11
92.5
 21
18.000504
  0
LINE
  8
0
  6
CONTINUOUS
 62
     7
 10
115.5
 20
15.000504
 11
115.5
 21
15.800491
  0
LINE
  8
0
  6
CONTINUOUS
 62
     7
 10
112.5
 20
15.000504
 11
112.5
 21
15.800491
  0
LINE
  8
0
  6
CONTINUOUS
 62
     7
 10
112.5
 20
15.800491
 11
115.5
 21
15.800491
  0
LINE
  8
0
  6
CONTINUOUS
 62
     7
 10
104.5
 20
15.000504
 11
104.5
 21
15.800491
  0
LINE
  8
0
  6
CONTINUOUS
 62
     7
 10
87.5
 20
15.000504
 11
87.5
 21
15.800491
  0
LINE
  8
0
  6
CONTINUOUS
 62
     7
 10
95.5
 20
15.000504
 11
95.5
 21
15.800491
  0
LINE
  8
0
  6
CONTINUOUS
 62
     7
 10
87.5
 20
15.800491
 11
84.5
 21
15.800491
  0
LINE
  8
0
  6
CONTINUOUS
 62
     7
 10
104.5
 20
15.800491
 11
95.5
 21
15.800491
  0
LINE
  8
0
  6
CONTINUOUS
 62
     7
 10
84.5
 20
15.000504
 11
84.5
 21
15.800491
  0
LINE
  8
0
  6
CONTINUOUS
 62
     7
 10
92.49987
 20
17.700466
 11
94.249954
 21
17.500458
  0
LINE
  8
0
  6
CONTINUOUS
 62
     7
 10
112.25
 20
17.500488
 11
105.75
 21
17.500488
  0
LINE
  8
0
  6
CONTINUOUS
 62
     7
 10
96.699951
 20
17.000496
 11
83
 21
17.000496
  0
LINE
  8
0
  6
CONTINUOUS
 62
     7
 10
117.5
 20
15.500496
 11
117.5
 21
16.500504
  0
LINE
  8
0
  6
CONTINUOUS
 62
     7
 10
82.5
 20
15.500496
 11
82.5
 21
16.500504
  0
LINE
  8
0
  6
CONTINUOUS
 62
     7
 10
100.2998
 20
17.000496
 11
102.69995
 21
17.000496
  0
LINE
  8
0
  6
CONTINUOUS
 62
     7
 10
111.99988
 20
16.700443
 11
111.69984
 21
17.000486
  0
LINE
  8
0
  6
CONTINUOUS
 62
     7
 10
111.99979
 20
16.700392
 11
112.29984
 21
17.000429
  0
LINE
  8
0
  6
CONTINUOUS
 62
     7
 10
108.99981
 20
16.700476
 11
108.69995
 21
17.000347
  0
LINE
  8
0
  6
CONTINUOUS
 62
     7
 10
108.99982
 20
16.700434
 11
109.29985
 21
17.000471
  0
LINE
  8
0
  6
CONTINUOUS
 62
     7
 10
107.49989
 20
17.700518
 11
105.75005
 21
17.500536
  0
LINE
  8
0
  6
CONTINUOUS
 62
     7
 10
105.99996
 20
16.700377
 11
105.69993
 21
17.000422
  0
LINE
  8
0
  6
CONTINUOUS
 62
     7
 10
105.99996
 20
16.700262
 11
106.3
 21
17.000299
  0
LINE
  8
0
  6
CONTINUOUS
 62
     7
 10
117
 20
17.000496
 11
103.2998
 21
17.000496
  0
LINE
  8
0
  6
CONTINUOUS
 62
     7
 10
102.99989
 20
16.700411
 11
102.69986
 21
17.000454
  0
LINE
  8
0
  6
CONTINUOUS
 62
     7
 10
102.99981
 20
16.700478
 11
103.2998
 21
17.000471
  0
LINE
  8
0
  6
CONTINUOUS
 62
     7
 10
105.75
 20
17.000496
 11
105.75
 21
17.500488
  0
LINE
  8
0
  6
CONTINUOUS
 62
     7
 10
88.000031
 20
16.700251
 11
88.300018
 21
17.000252
  0
LINE
  8
0
  6
CONTINUOUS
 62
     7
 10
87.999947
 20
16.700392
 11
87.699905
 21
17.000429
  0
LINE
  8
0
  6
CONTINUOUS
 62
     7
 10
91.000015
 20
16.700283
 11
91.300003
 21
17.000284
  0
LINE
  8
0
  6
CONTINUOUS
 62
     7
 10
90.999969
 20
16.700392
 11
90.699928
 21
17.000429
  0
LINE
  8
0
  6
CONTINUOUS
 62
     7
 10
93.999954
 20
16.700274
 11
94.299942
 21
17.000275
  0
LINE
  8
0
  6
CONTINUOUS
 62
     7
 10
93.999947
 20
16.700348
 11
93.699913
 21
17.000385
  0
LINE
  8
0
  6
CONTINUOUS
 62
     7
 10
112.25
 20
17.000496
 11
112.25
 21
17.500488
  0
LINE
  8
0
  6
CONTINUOUS
 62
     7
 10
96.999939
 20
16.700306
 11
97.299919
 21
17.000307
  0
LINE
  8
0
  6
CONTINUOUS
 62
     7
 10
96.999977
 20
16.700348
 11
96.699936
 21
17.000385
  0
LINE
  8
0
  6
CONTINUOUS
 62
     7
 10
110.49982
 20
17.700472
 11
112.24991
 21
17.500463
  0
LINE
  8
0
  6
CONTINUOUS
 62
     7
 10
99.999916
 20
16.70034
 11
100.2999
 21
17.000341
  0
LINE
  8
0
  6
CONTINUOUS
 62
     7
 10
100
 20
16.700348
 11
99.699966
 21
17.000385
  0
LINE
  8
0
  6
CONTINUOUS
 62
     7
 10
97.299805
 20
17.000496
 11
99.699951
 21
17.000496
  0
LINE
  8
0
  6
CONTINUOUS
 62
     7
 10
107.5
 20
17.700485
 11
107.5
 21
18.000504
  0
LINE
  8
0
  6
CONTINUOUS
 62
     7
 10
110.5
 20
17.700485
 11
107.5
 21
17.700485
  0
LINE
  8
0
  6
CONTINUOUS
 62
     7
 10
92.5
 20
17.700485
 11
92.5
 21
18.000504
  0
LINE
  8
0
  6
CONTINUOUS
 62
     7
 10
87.75
 20
17.000496
 11
87.75
 21
17.500488
  0
LINE
  8
0
  6
CONTINUOUS
 62
     7
 10
89.5
 20
17.700485
 11
89.5
 21
18.000504
  0
LINE
  8
0
  6
CONTINUOUS
 62
     7
 10
94.25
 20
17.000496
 11
94.25
 21
17.500488
  0
LINE
  8
0
  6
CONTINUOUS
 62
     7
 10
89.5
 20
17.700485
 11
92.5
 21
17.700485
  0
LINE
  8
0
  6
CONTINUOUS
 62
     7
 10
88.5
 20
4.5005035
 11
75
 21
4.5005035
  0
LINE
  8
0
  6
CONTINUOUS
 62
     7
 10
124.99976
 20
4.5005035
 11
111.5
 21
4.5005035
  0
LINE
  8
0
  6
CENTER
 62
     7
 10
122.5
 20
3.2305036
 11
122.5
 21
20.270489
  0
LINE
  8
0
  6
CENTER
 62
     7
 10
77.5
 20
3.2305036
 11
77.5
 21
20.270489
  0
LINE
  8
0
  6
CONTINUOUS
 62
     7
 10
81.5
 20
19.000488
 11
74
 21
19.000488
  0
LINE
  8
0
  6
CONTINUOUS
 62
     7
 10
126
 20
19.000488
 11
118.5
 21
19.000488
  0
LINE
  8
0
  6
CONTINUOUS
 62
     7
 10
74.999908
 20
4.5003848
 11
73.99984
 21
5.5004506
  0
LINE
  8
0
  6
CONTINUOUS
 62
     7
 10
124.99987
 20
4.5004253
 11
125.99989
 21
5.5004482
  0
LINE
  8
0
  6
CONTINUOUS
 62
     7
 10
126
 20
5.5004883
 11
126
 21
19.000488
  0
LINE
  8
0
  6
CONTINUOUS
 62
     7
 10
74
 20
5.5004883
 11
74
 21
19.000488
  0
LINE
  8
0
  6
CONTINUOUS
 62
     7
 10
118.5
 20
13.000488
 11
118.5
 21
19.000488
  0
LINE
  8
0
  6
CONTINUOUS
 62
     7
 10
81.5
 20
13.000488
 11
81.5
 21
19.000488
  0
LINE
  8
0
  6
CONTINUOUS
 62
     7
 10
118.5
 20
13.000488
 11
81.5
 21
13.000488
  0
LINE
  8
0
  6
CONTINUOUS
 62
     7
 10
110.5
 20
17.700485
 11
110.5
 21
18.000504
  0
LINE
  8
0
  6
CONTINUOUS
 62
     7
 10
89.499931
 20
17.700508
 11
87.749847
 21
17.5005
  0
LINE
  8
0
  6
CONTINUOUS
 62
     7
 10
81.5
 20
15.000504
 11
118.5
 21
15.000504
  0
LINE
  8
0
  6
CONTINUOUS
 62
     7
 10
305.34973
 20
-12.999756
 11
318.90979
 21
-12.999756
  0
LINE
  8
0
  6
CONTINUOUS
 62
     7
 10
304.7926
 20
-12.649658
 11
300
 21
-12.649658
  0
LINE
  8
0
  6
CONTINUOUS
 62
     7
 10
305.59921
 20
6.1004233
 11
306.49951
 21
7.0007067
  0
LINE
  8
0
  6
CONTINUOUS
 62
     7
 10
310.99988
 20
7.0004883
 11
300
 21
7.0004883
  0
LINE
  8
0
  6
CONTINUOUS
 62
     7
 10
308.86319
 20
-1.4627668
 11
310.1362
 21
-2.7357662
  0
LINE
  8
0
  6
CONTINUOUS
 62
     7
 10
305.14609
 20
-12.796143
 11
305.34964
 21
-12.999678
  0
LINE
  8
0
  6
CONTINUOUS
 62
     7
 10
308.86319
 20
-2.7357662
 11
310.13602
 21
-1.4629394
  0
LINE
  8
0
  6
CONTINUOUS
 62
     7
 10
319.79984
 20
-6.9995408
 11
319.99976
 21
-7.1994505
  0
LINE
  8
0
  6
CONTINUOUS
 62
     7
 10
310.69995
 20
-3
 11
310.69995
 21
-6.3999023
  0
LINE
  8
0
  6
CONTINUOUS
 62
     7
 10
308.2998
 20
-3
 11
308.2998
 21
-6.3999023
  0
LINE
  8
0
  6
CONTINUOUS
 62
     7
 10
311.49988
 20
3.1003418
 11
311.49988
 21
6.5004883
  0
LINE
  8
0
  6
CONTINUOUS
 62
     7
 10
314.10971
 20
0.54064494
 11
314.0983
 21
0.55203873
  0
LINE
  8
0
  6
CONTINUOUS
 62
     7
 10
319.99988
 20
-11.909912
 11
319.99988
 21
-7.199707
  0
LINE
  8
0
  6
CONTINUOUS
 62
     7
 10
300
 20
5.4001465
 11
300
 21
3.5031738
  0
LINE
  8
0
  6
CONTINUOUS
 62
     7
 10
311.49945
 20
6.4508519
 11
310.94943
 21
7.0008621
  0
LINE
  8
0
  6
CONTINUOUS
 62
     7
 10
314.39978
 20
-4.4399414
 11
314.39978
 21
0.24023438
  0
LINE
  8
0
  6
CONTINUOUS
 62
     7
 10
314.10953
 20
-4.7390051
 11
314.09778
 21
-4.7507443
  0
LINE
  8
0
  6
CONTINUOUS
 62
     7
 10
312.59985
 20
-6.3999023
 11
312.59985
 21
-5.4147949
  0
LINE
  8
0
  6
CONTINUOUS
 62
     7
 10
313.79984
 20
-4.21489
 11
312.59985
 21
-5.414865
  0
LINE
  8
0
  6
CONTINUOUS
 62
     7
 10
313.79968
 20
-4.2150879
 11
313.79968
 21
0.015380859
  0
LINE
  8
0
  6
CONTINUOUS
 62
     7
 10
313.79947
 20
0.016011756
 11
312.59952
 21
1.2159872
  0
LINE
  8
0
  6
CONTINUOUS
 62
     7
 10
312.59985
 20
1.2158203
 11
312.59985
 21
3.1003418
  0
LINE
  8
0
  6
CONTINUOUS
 62
     7
 10
315.54947
 20
2.8007627
 11
314.74982
 21
3.6004009
  0
LINE
  8
0
  6
CONTINUOUS
 62
     7
 10
313.1499
 20
3.7001953
 11
313.1499
 21
3.9001465
  0
LINE
  8
0
  6
CONTINUOUS
 62
     7
 10
313.1499
 20
3.9001465
 11
314.87415
 21
3.9001465
  0
LINE
  8
0
  6
CONTINUOUS
 62
     7
 10
315.76163
 20
3.0129292
 11
314.87396
 21
3.9006107
  0
LINE
  8
0
  6
CONTINUOUS
 62
     7
 10
315.76163
 20
3.0129292
 11
315.54947
 21
2.8007627
  0
LINE
  8
0
  6
CONTINUOUS
 62
     7
 10
314.44995
 20
3.6005859
 11
314.74988
 21
3.6005859
  0
LINE
  8
0
  6
CONTINUOUS
 62
     7
 10
310.39978
 20
3.1003418
 11
313.94983
 21
3.1003418
  0
LINE
  8
0
  6
CONTINUOUS
 62
     7
 10
314.4498
 20
3.6007462
 11
313.94983
 21
3.1007996
  0
LINE
  8
0
  6
CONTINUOUS
 62
     7
 10
313.94983
 20
3.1003418
 11
313.94983
 21
3.7001953
  0
LINE
  8
0
  6
CONTINUOUS
 62
     7
 10
311.6499
 20
3.7001953
 11
313.94983
 21
3.7001953
  0
LINE
  8
0
  6
CONTINUOUS
 62
     7
 10
311.6499
 20
3.1003418
 11
311.6499
 21
3.7001953
  0
LINE
  8
0
  6
CONTINUOUS
 62
     7
 10
309.89978
 20
3.6005859
 11
309.89978
 21
4.9006348
  0
LINE
  8
0
  6
CONTINUOUS
 62
     7
 10
312.75
 20
-6.3999023
 11
303.49988
 21
-6.3999023
  0
LINE
  8
0
  6
CONTINUOUS
 62
     7
 10
309.3999
 20
5.4001465
 11
300
 21
5.4001465
  0
LINE
  8
0
  6
CONTINUOUS
 62
     7
 10
303.49988
 20
-6.3999023
 11
303.49988
 21
0
  0
LINE
  8
0
  6
CONTINUOUS
 62
     7
 10
300
 20
5.7004395
 11
310.8999
 21
5.7004395
  0
LINE
  8
0
  6
CONTINUOUS
 62
     7
 10
300
 20
-6.5998535
 11
312.55005
 21
-6.5998535
  0
LINE
  8
0
  6
CONTINUOUS
 62
     7
 10
311.39978
 20
3.1003418
 11
311.39978
 21
5.2001953
  0
LINE
  8
0
  6
CONTINUOUS
 62
     7
 10
312.49951
 20
-6.6991591
 11
312.60205
 21
-6.5966148
  0
LINE
  8
0
  6
CONTINUOUS
 62
     7
 10
312.49988
 20
-6.6994629
 11
300
 21
-6.6994629
  0
LINE
  8
0
  6
CENTER
 62
     7
 10
309
 20
-1.0597229
 11
309
 21
19.270504
  0
LINE
  8
0
  6
CENTER
 62
     7
 10
309
 20
-14.269775
 11
309
 21
-6.4995117
  0
LINE
  8
0
  6
CONTINUOUS
 62
     7
 10
313.24988
 20
1.6047363
 11
313.24988
 21
3.7001953
  0
LINE
  8
0
  6
CENTER
 62
     7
 10
295.22717
 20
0
 11
304.77271
 21
0
  0
LINE
  8
0
  6
CENTER
 62
     7
 10
300
 20
-14.269775
 11
300
 21
18.270496
  0
LINE
  8
0
  6
CONTINUOUS
 62
     7
 10
313.24988
 20
-6
 11
313.24988
 21
-5.8015137
  0
LINE
  8
0
  6
CONTINUOUS
 62
     7
 10
319.79993
 20
-6.9997559
 11
319.79993
 21
4.5005035
  0
LINE
  8
0
  6
CONTINUOUS
 62
     7
 10
313.72302
 20
2.8000488
 11
317.73669
 21
2.8000488
  0
LINE
  8
0
  6
CONTINUOUS
 62
     7
 10
311.25
 20
-7.9995117
 11
300
 21
-7.9995117
  0
LINE
  8
0
  6
CONTINUOUS
 62
     7
 10
311.49988
 20
6.1004639
 11
300
 21
6.1004639
  0
LINE
  8
0
  6
CONTINUOUS
 62
     7
 10
310.5
 20
18.000504
 11
307.5
 21
18.000504
  0
LINE
  8
0
  6
CONTINUOUS
 62
     7
 10
315.5
 20
15.000504
 11
315.5
 21
15.800491
  0
LINE
  8
0
  6
CONTINUOUS
 62
     7
 10
312.5
 20
15.000504
 11
312.5
 21
15.800491
  0
LINE
  8
0
  6
CONTINUOUS
 62
     7
 10
312.5
 20
15.800491
 11
315.5
 21
15.800491
  0
LINE
  8
0
  6
CONTINUOUS
 62
     7
 10
304.5
 20
15.000504
 11
304.5
 21
15.800491
  0
LINE
  8
0
  6
CONTINUOUS
 62
     7
 10
304.5
 20
15.800491
 11
300
 21
15.800491
  0
LINE
  8
0
  6
CONTINUOUS
 62
     7
 10
312.25
 20
17.500488
 11
305.75
 21
17.500488
  0
LINE
  8
0
  6
CONTINUOUS
 62
     7
 10
317.5
 20
15.500496
 11
317.5
 21
16.500504
  0
LINE
  8
0
  6
CONTINUOUS
 62
     7
 10
300.2998
 20
17.000496
 11
302.69995
 21
17.000496
  0
LINE
  8
0
  6
CONTINUOUS
 62
     7
 10
311.99985
 20
16.700434
 11
311.69983
 21
17.000479
  0
LINE
  8
0
  6
CONTINUOUS
 62
     7
 10
311.99979
 20
16.700434
 11
312.2998
 21
17.000471
  0
LINE
  8
0
  6
CONTINUOUS
 62
     7
 10
308.99979
 20
16.700466
 11
308.69992
 21
17.000338
  0
LINE
  8
0
  6
CONTINUOUS
 62
     7
 10
308.99985
 20
16.700434
 11
309.29987
 21
17.000471
  0
LINE
  8
0
  6
CONTINUOUS
 62
     7
 10
307.49991
 20
17.700521
 11
305.75006
 21
17.50054
  0
LINE
  8
0
  6
CONTINUOUS
 62
     7
 10
305.99994
 20
16.700371
 11
305.69992
 21
17.000414
  0
LINE
  8
0
  6
CONTINUOUS
 62
     7
 10
306
 20
16.700262
 11
306.30002
 21
17.000299
  0
LINE
  8
0
  6
CONTINUOUS
 62
     7
 10
317
 20
17.000496
 11
303.2998
 21
17.000496
  0
LINE
  8
0
  6
CONTINUOUS
 62
     7
 10
302.99988
 20
16.700403
 11
302.69983
 21
17.000448
  0
LINE
  8
0
  6
CONTINUOUS
 62
     7
 10
302.99979
 20
16.700521
 11
303.29977
 21
17.000515
  0
LINE
  8
0
  6
CONTINUOUS
 62
     7
 10
305.75
 20
17.000496
 11
305.75
 21
17.500488
  0
LINE
  8
0
  6
CONTINUOUS
 62
     7
 10
312.25
 20
17.000496
 11
312.25
 21
17.500488
  0
LINE
  8
0
  6
CONTINUOUS
 62
     7
 10
310.49979
 20
17.700481
 11
312.24985
 21
17.500473
  0
LINE
  8
0
  6
CONTINUOUS
 62
     7
 10
299.99991
 20
16.700346
 11
300.2999
 21
17.000347
  0
LINE
  8
0
  6
CONTINUOUS
 62
     7
 10
307.5
 20
17.700485
 11
307.5
 21
18.000504
  0
LINE
  8
0
  6
CONTINUOUS
 62
     7
 10
310.5
 20
17.700485
 11
307.5
 21
17.700485
  0
LINE
  8
0
  6
CONTINUOUS
 62
     7
 10
324.99976
 20
4.5005035
 11
311.5
 21
4.5005035
  0
LINE
  8
0
  6
CENTER
 62
     7
 10
322.5
 20
3.2305036
 11
322.5
 21
20.270489
  0
LINE
  8
0
  6
CONTINUOUS
 62
     7
 10
326
 20
19.000488
 11
318.5
 21
19.000488
  0
LINE
  8
0
  6
CONTINUOUS
 62
     7
 10
324.99985
 20
4.5004826
 11
325.99988
 21
5.500505
  0
LINE
  8
0
  6
CONTINUOUS
 62
     7
 10
326
 20
5.5004883
 11
326
 21
19.000488
  0
LINE
  8
0
  6
CONTINUOUS
 62
     7
 10
318.5
 20
13.000488
 11
318.5
 21
19.000488
  0
LINE
  8
0
  6
CONTINUOUS
 62
     7
 10
318.5
 20
13.000488
 11
300
 21
13.000488
  0
LINE
  8
0
  6
CONTINUOUS
 62
     7
 10
310.5
 20
17.700485
 11
310.5
 21
18.000504
  0
LINE
  8
0
  6
CONTINUOUS
 62
     7
 10
300
 20
15.000504
 11
318.5
 21
15.000504
  0
LINE
  8
0
  6
PHANTOM
 62
     7
 10
324.79993
 20
-9.4497557
 11
324.79993
 21
3.4502442
  0
LINE
  8
0
  6
PHANTOM
 62
     7
 10
324.29993
 20
-0.84974676
 11
324.5
 21
-0.84974676
  0
LINE
  8
0
  6
PHANTOM
 62
     7
 10
320.09998
 20
1.000244
 11
324.5
 21
1.000244
  0
LINE
  8
0
  6
PHANTOM
 62
     7
 10
321.59998
 20
-0.39974985
 11
321.59998
 21
-0.54975897
  0
LINE
  8
0
  6
PHANTOM
 62
     7
 10
324.29993
 20
-5.1497478
 11
324.5
 21
-5.1497478
  0
LINE
  8
0
  6
PHANTOM
 62
     7
 10
324
 20
-0.39974985
 11
324
 21
-0.54975897
  0
LINE
  8
0
  6
PHANTOM
 62
     7
 10
321.59998
 20
-5.5997448
 11
321.59998
 21
-5.4497509
  0
LINE
  8
0
  6
PHANTOM
 62
     7
 10
320.8999
 20
-5.1497478
 11
321.29993
 21
-5.1497478
  0
LINE
  8
0
  6
PHANTOM
 62
     7
 10
320.8999
 20
-0.84974676
 11
321.29993
 21
-0.84974676
  0
LINE
  8
0
  6
PHANTOM
 62
     7
 10
321.8999
 20
-5.8997478
 11
323.69995
 21
-5.8997478
  0
LINE
  8
0
  6
PHANTOM
 62
     7
 10
324
 20
-5.5997448
 11
324
 21
-5.4497509
  0
LINE
  8
0
  6
PHANTOM
 62
     7
 10
320.59998
 20
-4.8497448
 11
320.59998
 21
-1.1497498
  0
LINE
  8
0
  6
PHANTOM
 62
     7
 10
321.8999
 20
-0.099746794
 11
323.69995
 21
-0.099746794
  0
LINE
  8
0
  6
PHANTOM
 62
     7
 10
320.09998
 20
-6.999754
 11
324.5
 21
-6.999754
  0
LINE
  8
0
  6
CENTER
 62
     7
 10
332.66992
 20
-2.9997559
 11
315.79993
 21
-2.9997559
  0
LINE
  8
0
  6
PHANTOM
 62
     7
 10
325.19995
 20
-9.0497561
 11
325.19995
 21
3.0502441
  0
LINE
  8
0
  6
PHANTOM
 62
     7
 10
326.79993
 20
-9.0497561
 11
325.19995
 21
-9.0497561
  0
LINE
  8
0
  6
PHANTOM
 62
     7
 10
332.29993
 20
2.600244
 11
331.3999
 21
2.600244
  0
LINE
  8
0
  6
PHANTOM
 62
     7
 10
326.79993
 20
-9.4497557
 11
324.79993
 21
-9.4497557
  0
LINE
  8
0
  6
PHANTOM
 62
     7
 10
326.79993
 20
3.4502442
 11
324.79993
 21
3.4502442
  0
LINE
  8
0
  6
PHANTOM
 62
     7
 10
332.29993
 20
-8.5997562
 11
331.3999
 21
-8.5997562
  0
LINE
  8
0
  6
PHANTOM
 62
     7
 10
332.29993
 20
-8.5997562
 11
332.29993
 21
2.600244
  0
LINE
  8
0
  6
PHANTOM
 62
     7
 10
326.79993
 20
3.0502441
 11
325.19995
 21
3.0502441
  0
LINE
  8
0
  6
PHANTOM
 62
     7
 10
326.79993
 20
-9.4497557
 11
326.79993
 21
-9.0497561
  0
LINE
  8
0
  6
PHANTOM
 62
     7
 10
331.3999
 20
-8.9997559
 11
331.3999
 21
3.0002441
  0
LINE
  8
0
  6
PHANTOM
 62
     7
 10
331.3999
 20
-8.9997559
 11
325.19995
 21
-8.9997559
  0
LINE
  8
0
  6
PHANTOM
 62
     7
 10
331.3999
 20
3.0002441
 11
325.19995
 21
3.0002441
  0
LINE
  8
0
  6
PHANTOM
 62
     7
 10
326.79993
 20
3.0502441
 11
326.79993
 21
3.4502442
  0
LINE
  8
0
  6
PHANTOM
 62
     7
 10
322.79993
 20
-4.1997557
 11
322.79993
 21
-1.7997558
  0
LINE
  8
0
  6
PHANTOM
 62
     7
 10
324.79993
 20
-4.1997557
 11
322.79993
 21
-4.1997557
  0
LINE
  8
0
  6
PHANTOM
 62
     7
 10
324.79993
 20
-1.7997558
 11
322.79993
 21
-1.7997558
  0
LINE
  8
0
  6
CENTER
 62
     7
 10
322
 20
10.500488
 11
329.67004
 21
10.500488
  0
LINE
  8
0
  6
PHANTOM
 62
     7
 10
326
 20
13.400488
 11
326.80005
 21
13.400488
  0
LINE
  8
0
  6
PHANTOM
 62
     7
 10
326.80005
 20
7.2004881
 11
326.80005
 21
13.400488
  0
LINE
  8
0
  6
PHANTOM
 62
     7
 10
334.09998
 20
-8.9995117
 11
334.09998
 21
6.4004884
  0
LINE
  8
0
  6
PHANTOM
 62
     7
 10
333.30005
 20
-8.9995117
 11
334.09998
 21
-8.9995117
  0
LINE
  8
0
  6
PHANTOM
 62
     7
 10
333.30005
 20
-8.9995117
 11
333.30005
 21
6.4004884
  0
LINE
  8
0
  6
PHANTOM
 62
     7
 10
326.80005
 20
6.4004884
 11
333.30005
 21
6.4004884
  0
LINE
  8
0
  6
PHANTOM
 62
     7
 10
326.80005
 20
7.2004881
 11
333.30005
 21
7.2004881
  0
LINE
  8
0
  6
PHANTOM
 62
     7
 10
328.40002
 20
9.5004883
 11
328.40002
 21
11.500488
  0
LINE
  8
0
  6
PHANTOM
 62
     7
 10
326.80005
 20
8.5004883
 11
327.40002
 21
8.5004883
  0
LINE
  8
0
  6
PHANTOM
 62
     7
 10
326.80005
 20
12.500488
 11
327.40002
 21
12.500488
  0
LINE
  8
0
  6
PHANTOM
 62
     7
 10
357.99963
 20
214.99976
 11
147.99951
 21
214.99976
  0
LINE
  8
0
  6
PHANTOM
 62
     7
 10
349.49854
 20
214.99977
 11
348.99942
 21
214.50064
  0
LINE
  8
0
  6
PHANTOM
 62
     7
 10
359.00009
 20
214.00035
 11
358.00003
 21
215.00041
  0
LINE
  8
0
  6
PHANTOM
 62
     7
 10
348.99963
 20
205.50082
 11
348.99963
 21
214.49976
  0
LINE
  8
0
  6
PHANTOM
 62
     7
 10
358.99976
 20
205.00069
 11
358.99976
 21
213.99951
  0
LINE
  8
0
  6
PHANTOM
 62
     7
 10
357.99963
 20
216.99976
 11
142.00012
 21
216.99976
  0
LINE
  8
0
  6
CONTINUOUS
 62
     7
 10
357.99976
 20
214.99976
 11
357.99976
 21
216.99976
  0
LINE
  8
0
  6
PHANTOM
 62
     7
 10
142.00012
 20
215
 11
142.00012
 21
216.99976
  0
LINE
  8
0
  6
PHANTOM
 62
     7
 10
211.59985
 20
218.99951
 11
178.39966
 21
218.99951
  0
LINE
  8
0
  6
PHANTOM
 62
     7
 10
178.39966
 20
218.99951
 11
178.39966
 21
206.40004
  0
LINE
  8
0
  6
PHANTOM
 62
     7
 10
211.59985
 20
218.99951
 11
211.59985
 21
206.40024
  0
LINE
  8
0
  6
PHANTOM
 62
     7
 10
211.59985
 20
204.49951
 11
178.39966
 21
204.49951
  0
LINE
  8
0
  6
PHANTOM
 62
     7
 10
345.09998
 20
269.1998
 11
345.09998
 21
275.19983
  0
LINE
  8
0
  6
PHANTOM
 62
     7
 10
343.09998
 20
269.1998
 11
343.09998
 21
275.19983
  0
LINE
  8
0
  6
PHANTOM
 62
     7
 10
345.09998
 20
270.6998
 11
348.10046
 21
270.6998
  0
LINE
  8
0
  6
PHANTOM
 62
     7
 10
320.09998
 20
269.1998
 11
345.09998
 21
269.1998
  0
LINE
  8
0
  6
PHANTOM
 62
     7
 10
345.09998
 20
273.1998
 11
348.10046
 21
273.1998
  0
LINE
  8
0
  6
PHANTOM
 62
     7
 10
320.09998
 20
269.1998
 11
320.09998
 21
275.19983
  0
LINE
  8
0
  6
PHANTOM
 62
     7
 10
151.49976
 20
269.1998
 11
151.49976
 21
275.19983
  0
LINE
  8
0
  6
PHANTOM
 62
     7
 10
153.49976
 20
269.1998
 11
153.49976
 21
275.19983
  0
LINE
  8
0
  6
PHANTOM
 62
     7
 10
151.49976
 20
270.6998
 11
148.49927
 21
270.6998
  0
LINE
  8
0
  6
PHANTOM
 62
     7
 10
176.49976
 20
269.1998
 11
151.49976
 21
269.1998
  0
LINE
  8
0
  6
PHANTOM
 62
     7
 10
151.49976
 20
273.1998
 11
148.49927
 21
273.1998
  0
LINE
  8
0
  6
PHANTOM
 62
     7
 10
176.49976
 20
269.1998
 11
176.49976
 21
275.19983
  0
LINE
  8
0
  6
PHANTOM
 62
     7
 10
209.69983
 20
269.1998
 11
209.69983
 21
275.19983
  0
LINE
  8
0
  6
PHANTOM
 62
     7
 10
207.69983
 20
269.1998
 11
207.69983
 21
275.19983
  0
LINE
  8
0
  6
PHANTOM
 62
     7
 10
209.69983
 20
270.6998
 11
212.70032
 21
270.6998
  0
LINE
  8
0
  6
PHANTOM
 62
     7
 10
184.69983
 20
269.1998
 11
209.69983
 21
269.1998
  0
LINE
  8
0
  6
PHANTOM
 62
     7
 10
209.69983
 20
273.1998
 11
212.70032
 21
273.1998
  0
LINE
  8
0
  6
PHANTOM
 62
     7
 10
184.69983
 20
269.1998
 11
184.69983
 21
275.19983
  0
LINE
  8
0
  6
PHANTOM
 62
     7
 10
200
 20
267.39999
 11
189.99951
 21
267.39999
  0
LINE
  8
0
  6
PHANTOM
 62
     7
 10
189.99951
 20
294.70001
 11
189.99951
 21
267.39999
  0
LINE
  8
0
  6
PHANTOM
 62
     7
 10
200
 20
294.70001
 11
200
 21
267.39999
  0
LINE
  8
0
  6
PHANTOM
 62
     7
 10
200
 20
294.70001
 11
189.99951
 21
294.70001
  0
LINE
  8
0
  6
CONTINUOUS
 62
     7
 10
405.34973
 20
-12.999756
 11
418.90979
 21
-12.999756
  0
LINE
  8
0
  6
CONTINUOUS
 62
     7
 10
404.7926
 20
-12.649658
 11
400
 21
-12.649658
  0
LINE
  8
0
  6
CONTINUOUS
 62
     7
 10
405.59915
 20
6.100419
 11
406.49942
 21
7.0007024
  0
LINE
  8
0
  6
CONTINUOUS
 62
     7
 10
410.99988
 20
7.0004883
 11
400
 21
7.0004883
  0
LINE
  8
0
  6
CONTINUOUS
 62
     7
 10
408.86319
 20
-1.4628099
 11
410.13617
 21
-2.7358093
  0
LINE
  8
0
  6
CONTINUOUS
 62
     7
 10
405.14609
 20
-12.796182
 11
405.34961
 21
-12.999717
  0
LINE
  8
0
  6
CONTINUOUS
 62
     7
 10
408.86319
 20
-2.7358093
 11
410.13602
 21
-1.4629825
  0
LINE
  8
0
  6
CONTINUOUS
 62
     7
 10
419.7998
 20
-6.9995799
 11
419.99973
 21
-7.1994896
  0
LINE
  8
0
  6
CONTINUOUS
 62
     7
 10
410.69995
 20
-3
 11
410.69995
 21
-6.3999023
  0
LINE
  8
0
  6
CONTINUOUS
 62
     7
 10
408.2998
 20
-3
 11
408.2998
 21
-6.3999023
  0
LINE
  8
0
  6
CONTINUOUS
 62
     7
 10
411.49988
 20
3.1003418
 11
411.49988
 21
6.5004883
  0
LINE
  8
0
  6
CONTINUOUS
 62
     7
 10
414.10968
 20
0.54060179
 11
414.0983
 21
0.55199558
  0
LINE
  8
0
  6
CONTINUOUS
 62
     7
 10
419.99988
 20
-11.909912
 11
419.99988
 21
-7.199707
  0
LINE
  8
0
  6
CONTINUOUS
 62
     7
 10
400
 20
5.4001465
 11
400
 21
3.5031738
  0
LINE
  8
0
  6
CONTINUOUS
 62
     7
 10
411.49942
 20
6.4508128
 11
410.9494
 21
7.0008235
  0
LINE
  8
0
  6
CONTINUOUS
 62
     7
 10
414.39978
 20
-4.4399414
 11
414.39978
 21
0.24023438
  0
LINE
  8
0
  6
CONTINUOUS
 62
     7
 10
414.1095
 20
-4.7390485
 11
414.09778
 21
-4.7507873
  0
LINE
  8
0
  6
CONTINUOUS
 62
     7
 10
412.59985
 20
-6.3999023
 11
412.59985
 21
-5.4147949
  0
LINE
  8
0
  6
CONTINUOUS
 62
     7
 10
413.7998
 20
-4.2149329
 11
412.59982
 21
-5.4149084
  0
LINE
  8
0
  6
CONTINUOUS
 62
     7
 10
413.79968
 20
-4.2150879
 11
413.79968
 21
0.015380859
  0
LINE
  8
0
  6
CONTINUOUS
 62
     7
 10
413.79947
 20
0.015968598
 11
412.59949
 21
1.2159441
  0
LINE
  8
0
  6
CONTINUOUS
 62
     7
 10
412.59985
 20
1.2158203
 11
412.59985
 21
3.1003418
  0
LINE
  8
0
  6
CONTINUOUS
 62
     7
 10
415.54944
 20
2.8007195
 11
414.74982
 21
3.6003578
  0
LINE
  8
0
  6
CONTINUOUS
 62
     7
 10
413.1499
 20
3.7001953
 11
413.1499
 21
3.9001465
  0
LINE
  8
0
  6
CONTINUOUS
 62
     7
 10
413.1499
 20
3.9001465
 11
414.87415
 21
3.9001465
  0
LINE
  8
0
  6
CONTINUOUS
 62
     7
 10
415.7616
 20
3.012886
 11
414.87393
 21
3.9005675
  0
LINE
  8
0
  6
CONTINUOUS
 62
     7
 10
415.7616
 20
3.012886
 11
415.54944
 21
2.8007195
  0
LINE
  8
0
  6
CONTINUOUS
 62
     7
 10
414.44995
 20
3.6005859
 11
414.74988
 21
3.6005859
  0
LINE
  8
0
  6
CONTINUOUS
 62
     7
 10
410.39978
 20
3.1003418
 11
413.94983
 21
3.1003418
  0
LINE
  8
0
  6
CONTINUOUS
 62
     7
 10
414.44977
 20
3.600703
 11
413.94983
 21
3.1007564
  0
LINE
  8
0
  6
CONTINUOUS
 62
     7
 10
413.94983
 20
3.1003418
 11
413.94983
 21
3.7001953
  0
LINE
  8
0
  6
CONTINUOUS
 62
     7
 10
411.6499
 20
3.7001953
 11
413.94983
 21
3.7001953
  0
LINE
  8
0
  6
CONTINUOUS
 62
     7
 10
411.6499
 20
3.1003418
 11
411.6499
 21
3.7001953
  0
LINE
  8
0
  6
CONTINUOUS
 62
     7
 10
409.89978
 20
3.6005859
 11
409.89978
 21
4.9006348
  0
LINE
  8
0
  6
CONTINUOUS
 62
     7
 10
412.75
 20
-6.3999023
 11
403.49988
 21
-6.3999023
  0
LINE
  8
0
  6
CONTINUOUS
 62
     7
 10
409.3999
 20
5.4001465
 11
400
 21
5.4001465
  0
LINE
  8
0
  6
CONTINUOUS
 62
     7
 10
403.49988
 20
-6.3999023
 11
403.49988
 21
0
  0
LINE
  8
0
  6
CONTINUOUS
 62
     7
 10
400
 20
5.7004395
 11
410.8999
 21
5.7004395
  0
LINE
  8
0
  6
CONTINUOUS
 62
     7
 10
400
 20
-6.5998535
 11
412.55005
 21
-6.5998535
  0
LINE
  8
0
  6
CONTINUOUS
 62
     7
 10
411.39978
 20
3.1003418
 11
411.39978
 21
5.2001953
  0
LINE
  8
0
  6
CONTINUOUS
 62
     7
 10
412.49948
 20
-6.6991978
 11
412.60202
 21
-6.5966535
  0
LINE
  8
0
  6
CONTINUOUS
 62
     7
 10
412.49988
 20
-6.6994629
 11
400
 21
-6.6994629
  0
LINE
  8
0
  6
CENTER
 62
     7
 10
409
 20
-1.0597229
 11
409
 21
19.270504
  0
LINE
  8
0
  6
CENTER
 62
     7
 10
409
 20
-14.269775
 11
409
 21
-6.4995117
  0
LINE
  8
0
  6
CONTINUOUS
 62
     7
 10
413.24988
 20
1.6047363
 11
413.24988
 21
3.7001953
  0
LINE
  8
0
  6
CENTER
 62
     7
 10
395.22717
 20
0
 11
404.77271
 21
0
  0
LINE
  8
0
  6
CENTER
 62
     7
 10
400
 20
-14.269775
 11
400
 21
18.270496
  0
LINE
  8
0
  6
CONTINUOUS
 62
     7
 10
413.24988
 20
-6
 11
413.24988
 21
-5.8015137
  0
LINE
  8
0
  6
CONTINUOUS
 62
     7
 10
419.79993
 20
-6.9997559
 11
419.79993
 21
4.5005035
  0
LINE
  8
0
  6
CONTINUOUS
 62
     7
 10
413.72302
 20
2.8000488
 11
417.73669
 21
2.8000488
  0
LINE
  8
0
  6
CONTINUOUS
 62
     7
 10
411.25
 20
-7.9995117
 11
400
 21
-7.9995117
  0
LINE
  8
0
  6
CONTINUOUS
 62
     7
 10
411.49988
 20
6.1004639
 11
400
 21
6.1004639
  0
LINE
  8
0
  6
CONTINUOUS
 62
     7
 10
410.5
 20
18.000504
 11
407.5
 21
18.000504
  0
LINE
  8
0
  6
CONTINUOUS
 62
     7
 10
415.5
 20
15.000504
 11
415.5
 21
15.800491
  0
LINE
  8
0
  6
CONTINUOUS
 62
     7
 10
412.5
 20
15.000504
 11
412.5
 21
15.800491
  0
LINE
  8
0
  6
CONTINUOUS
 62
     7
 10
412.5
 20
15.800491
 11
415.5
 21
15.800491
  0
LINE
  8
0
  6
CONTINUOUS
 62
     7
 10
404.5
 20
15.000504
 11
404.5
 21
15.800491
  0
LINE
  8
0
  6
CONTINUOUS
 62
     7
 10
404.5
 20
15.800491
 11
400
 21
15.800491
  0
LINE
  8
0
  6
CONTINUOUS
 62
     7
 10
412.25
 20
17.500488
 11
405.75
 21
17.500488
  0
LINE
  8
0
  6
CONTINUOUS
 62
     7
 10
417.5
 20
15.500496
 11
417.5
 21
16.500504
  0
LINE
  8
0
  6
CONTINUOUS
 62
     7
 10
400.2998
 20
17.000496
 11
402.69995
 21
17.000496
  0
LINE
  8
0
  6
CONTINUOUS
 62
     7
 10
411.99988
 20
16.70039
 11
411.69986
 21
17.000435
  0
LINE
  8
0
  6
CONTINUOUS
 62
     7
 10
411.99979
 20
16.700434
 11
412.2998
 21
17.000429
  0
LINE
  8
0
  6
CONTINUOUS
 62
     7
 10
408.99982
 20
16.700424
 11
408.69995
 21
17.000296
  0
LINE
  8
0
  6
CONTINUOUS
 62
     7
 10
408.99982
 20
16.700478
 11
409.2998
 21
17.000471
  0
LINE
  8
0
  6
CONTINUOUS
 62
     7
 10
407.49991
 20
17.70051
 11
405.75006
 21
17.500528
  0
LINE
  8
0
  6
CONTINUOUS
 62
     7
 10
405.99997
 20
16.700327
 11
405.69992
 21
17.000372
  0
LINE
  8
0
  6
CONTINUOUS
 62
     7
 10
405.99997
 20
16.700306
 11
406.29999
 21
17.000341
  0
LINE
  8
0
  6
CONTINUOUS
 62
     7
 10
417
 20
17.000496
 11
403.2998
 21
17.000496
  0
LINE
  8
0
  6
CONTINUOUS
 62
     7
 10
402.99994
 20
16.700403
 11
402.69989
 21
17.000448
  0
LINE
  8
0
  6
CONTINUOUS
 62
     7
 10
402.99976
 20
16.700478
 11
403.2998
 21
17.000515
  0
LINE
  8
0
  6
CONTINUOUS
 62
     7
 10
405.75
 20
17.000496
 11
405.75
 21
17.500488
  0
LINE
  8
0
  6
CONTINUOUS
 62
     7
 10
412.25
 20
17.000496
 11
412.25
 21
17.500488
  0
LINE
  8
0
  6
CONTINUOUS
 62
     7
 10
410.49979
 20
17.700487
 11
412.24985
 21
17.500477
  0
LINE
  8
0
  6
CONTINUOUS
 62
     7
 10
399.99997
 20
16.700346
 11
400.29996
 21
17.000347
  0
LINE
  8
0
  6
CONTINUOUS
 62
     7
 10
407.5
 20
17.700485
 11
407.5
 21
18.000504
  0
LINE
  8
0
  6
CONTINUOUS
 62
     7
 10
410.5
 20
17.700485
 11
407.5
 21
17.700485
  0
LINE
  8
0
  6
CONTINUOUS
 62
     7
 10
424.99976
 20
4.5005035
 11
411.5
 21
4.5005035
  0
LINE
  8
0
  6
CENTER
 62
     7
 10
422.5
 20
3.2305036
 11
422.5
 21
20.270489
  0
LINE
  8
0
  6
CONTINUOUS
 62
     7
 10
426
 20
19.000488
 11
418.5
 21
19.000488
  0
LINE
  8
0
  6
CONTINUOUS
 62
     7
 10
424.99985
 20
4.5004435
 11
425.99985
 21
5.5004663
  0
LINE
  8
0
  6
CONTINUOUS
 62
     7
 10
426
 20
5.5004883
 11
426
 21
19.000488
  0
LINE
  8
0
  6
CONTINUOUS
 62
     7
 10
418.5
 20
13.000488
 11
418.5
 21
19.000488
  0
LINE
  8
0
  6
CONTINUOUS
 62
     7
 10
418.5
 20
13.000488
 11
400
 21
13.000488
  0
LINE
  8
0
  6
CONTINUOUS
 62
     7
 10
410.5
 20
17.700485
 11
410.5
 21
18.000504
  0
LINE
  8
0
  6
CONTINUOUS
 62
     7
 10
400
 20
15.000504
 11
418.5
 21
15.000504
  0
LINE
  8
0
  6
PHANTOM
 62
     7
 10
424.79993
 20
-6.9997559
 11
424.79993
 21
1.0002441
  0
LINE
  8
0
  6
PHANTOM
 62
     7
 10
423.19995
 20
-4.9997559
 11
423.19995
 21
-0.99975586
  0
LINE
  8
0
  6
PHANTOM
 62
     7
 10
424.29993
 20
-0.84974676
 11
424.5
 21
-0.84974676
  0
LINE
  8
0
  6
PHANTOM
 62
     7
 10
420.09998
 20
1.000244
 11
424.5
 21
1.000244
  0
LINE
  8
0
  6
PHANTOM
 62
     7
 10
421.59998
 20
-0.39974985
 11
421.59998
 21
-0.54975897
  0
LINE
  8
0
  6
PHANTOM
 62
     7
 10
424.29993
 20
-5.1497478
 11
424.5
 21
-5.1497478
  0
LINE
  8
0
  6
PHANTOM
 62
     7
 10
424
 20
-0.39974985
 11
424
 21
-0.54975897
  0
LINE
  8
0
  6
PHANTOM
 62
     7
 10
421.59998
 20
-5.5997448
 11
421.59998
 21
-5.4497509
  0
LINE
  8
0
  6
PHANTOM
 62
     7
 10
420.8999
 20
-5.1497478
 11
421.29993
 21
-5.1497478
  0
LINE
  8
0
  6
PHANTOM
 62
     7
 10
420.8999
 20
-0.84974676
 11
421.29993
 21
-0.84974676
  0
LINE
  8
0
  6
PHANTOM
 62
     7
 10
421.8999
 20
-5.8997478
 11
423.69995
 21
-5.8997478
  0
LINE
  8
0
  6
PHANTOM
 62
     7
 10
424
 20
-5.5997448
 11
424
 21
-5.4497509
  0
LINE
  8
0
  6
PHANTOM
 62
     7
 10
420.59998
 20
-4.8497448
 11
420.59998
 21
-1.1497498
  0
LINE
  8
0
  6
PHANTOM
 62
     7
 10
421.8999
 20
-0.099746794
 11
423.69995
 21
-0.099746794
  0
LINE
  8
0
  6
PHANTOM
 62
     7
 10
420.09998
 20
-6.999754
 11
424.5
 21
-6.999754
  0
LINE
  8
0
  6
CENTER
 62
     7
 10
432.06995
 20
-2.9997559
 11
415.79993
 21
-2.9997559
  0
LINE
  8
0
  6
PHANTOM
 62
     7
 10
430.79993
 20
-6.9997559
 11
430.79993
 21
1.0002441
  0
LINE
  8
0
  6
PHANTOM
 62
     7
 10
430.79993
 20
1.0002441
 11
424.79993
 21
1.0002441
  0
LINE
  8
0
  6
PHANTOM
 62
     7
 10
430.79993
 20
-6.9997559
 11
424.79993
 21
-6.9997559
  0
LINE
  8
0
  6
PHANTOM
 62
     7
 10
424.79993
 20
-4.9997559
 11
423.19995
 21
-4.9997559
  0
LINE
  8
0
  6
PHANTOM
 62
     7
 10
424.79993
 20
-0.99975586
 11
423.19995
 21
-0.99975586
  0
LINE
  8
0
  6
CENTER
 62
     7
 10
422
 20
10.500488
 11
429.67004
 21
10.500488
  0
LINE
  8
0
  6
PHANTOM
 62
     7
 10
426
 20
13.400488
 11
426.80005
 21
13.400488
  0
LINE
  8
0
  6
PHANTOM
 62
     7
 10
426.80005
 20
7.2004881
 11
426.80005
 21
13.400488
  0
LINE
  8
0
  6
PHANTOM
 62
     7
 10
432.59998
 20
-6.9995117
 11
432.59998
 21
6.4004884
  0
LINE
  8
0
  6
PHANTOM
 62
     7
 10
431.80005
 20
-6.9995117
 11
432.59998
 21
-6.9995117
  0
LINE
  8
0
  6
PHANTOM
 62
     7
 10
431.80005
 20
-6.9995117
 11
431.80005
 21
6.4004884
  0
LINE
  8
0
  6
PHANTOM
 62
     7
 10
426.80005
 20
6.4004884
 11
431.80005
 21
6.4004884
  0
LINE
  8
0
  6
PHANTOM
 62
     7
 10
426.80005
 20
7.2004881
 11
431.80005
 21
7.2004881
  0
LINE
  8
0
  6
PHANTOM
 62
     7
 10
428.40002
 20
9.5004883
 11
428.40002
 21
11.500488
  0
LINE
  8
0
  6
PHANTOM
 62
     7
 10
426.80005
 20
8.5004883
 11
427.40002
 21
8.5004883
  0
LINE
  8
0
  6
PHANTOM
 62
     7
 10
426.80005
 20
12.500488
 11
427.40002
 21
12.500488
  0
LINE
  8
0
  6
CONTINUOUS
 62
     7
 10
131.99988
 20
306.65701
 11
136.49988
 21
306.65701
  0
LINE
  8
0
  6
CONTINUOUS
 62
     7
 10
131.99988
 20
293.34491
 11
136.49988
 21
293.34491
  0
LINE
  8
0
  6
CONTINUOUS
 62
     7
 10
131.99989
 20
293.34494
 11
136.49988
 21
298.87793
  0
LINE
  8
0
  6
CONTINUOUS
 62
     7
 10
131.99989
 20
298.87793
 11
136.49989
 21
293.34491
  0
LINE
  8
0
  6
CONTINUOUS
 62
     7
 10
136.49991
 20
306.65707
 11
131.99986
 21
301.12207
  0
LINE
  8
0
  6
CONTINUOUS
 62
     7
 10
136.49991
 20
301.12204
 11
131.99992
 21
306.65701
  0
LINE
  8
0
  6
CENTER
 62
     7
 10
98.519897
 20
103.3999
 11
91.479858
 21
103.3999
  0
LINE
  8
0
  6
CENTER
 62
     7
 10
94.999878
 20
106.9199
 11
94.999878
 21
99.879906
  0
LINE
  8
0
  6
CENTER
 62
     7
 10
98.519897
 20
3.3999023
 11
91.479858
 21
3.3999023
  0
LINE
  8
0
  6
CENTER
 62
     7
 10
94.999878
 20
6.9199023
 11
94.999878
 21
-0.12009766
  0
LINE
  8
0
  6
CENTER
 62
     7
 10
113.27002
 20
383.19983
 11
98.72998
 21
383.19983
  0
LINE
  8
0
  6
CENTER
 62
     7
 10
113.27002
 20
416.80029
 11
98.72998
 21
416.80029
  0
LINE
  8
0
  6
DASHED
 62
     7
 10
153.50012
 20
402.5
 11
153.50012
 21
403
  0
LINE
  8
0
  6
DASHED
 62
     7
 10
157.50012
 20
402.6001
 11
172.99939
 21
402.6001
  0
LINE
  8
0
  6
DASHED
 62
     7
 10
157.50012
 20
397.3999
 11
172.99939
 21
397.3999
  0
LINE
  8
0
  6
DASHED
 62
     7
 10
157.50012
 20
397
 11
172.99939
 21
397
  0
LINE
  8
0
  6
DASHED
 62
     7
 10
203.79498
 20
402.97842
 11
202.12164
 21
401.30508
  0
LINE
  8
0
  6
DASHED
 62
     7
 10
204.07784
 20
402.69556
 11
202.40451
 21
401.02222
  0
LINE
  8
0
  6
DASHED
 62
     7
 10
211.6001
 20
405.50012
 11
202.59949
 21
405.50012
  0
LINE
  8
0
  6
DASHED
 62
     7
 10
199.59949
 20
402.50012
 11
199.59949
 21
397.50024
  0
LINE
  8
0
  6
DASHED
 62
     7
 10
211.6001
 20
394.50024
 11
202.59949
 21
394.50024
  0
LINE
  8
0
  6
CENTER
 62
     7
 10
145.49976
 20
421.07025
 11
145.49976
 21
412.74084
  0
LINE
  8
0
  6
DASHED
 62
     7
 10
144.43408
 20
385.69879
 11
145.50075
 21
386.31464
  0
LINE
  8
0
  6
DASHED
 62
     7
 10
146.56599
 20
385.7001
 11
145.49974
 21
386.3157
  0
LINE
  8
0
  6
DASHED
 62
     7
 10
144.19968
 20
384.20013
 11
144.43314
 21
384.60449
  0
LINE
  8
0
  6
DASHED
 62
     7
 10
146.80043
 20
384.19928
 11
146.56697
 21
384.60364
  0
LINE
  8
0
  6
DASHED
 62
     7
 10
146.56653
 20
385.7002
 11
144.43335
 21
385.7002
  0
LINE
  8
0
  6
DASHED
 62
     7
 10
144.43335
 20
380.19983
 11
144.43335
 21
385.7002
  0
LINE
  8
0
  6
DASHED
 62
     7
 10
146.56653
 20
380.19983
 11
146.56653
 21
385.7002
  0
LINE
  8
0
  6
DASHED
 62
     7
 10
144.19971
 20
380.19983
 11
144.19971
 21
384.20032
  0
LINE
  8
0
  6
DASHED
 62
     7
 10
146.7998
 20
380.19983
 11
146.7998
 21
384.20032
  0
LINE
  8
0
  6
DASHED
 62
     7
 10
146.7998
 20
384.20032
 11
144.19971
 21
384.20032
  0
LINE
  8
0
  6
CENTER
 62
     7
 10
145.49976
 20
378.92981
 11
145.49976
 21
387.25952
  0
LINE
  8
0
  6
CENTER
 62
     7
 10
351.5
 20
421.07025
 11
351.5
 21
412.74084
  0
LINE
  8
0
  6
DASHED
 62
     7
 10
350.43387
 20
385.69946
 11
351.50031
 21
386.31519
  0
LINE
  8
0
  6
DASHED
 62
     7
 10
352.56708
 20
385.70032
 11
351.50082
 21
386.31592
  0
LINE
  8
0
  6
DASHED
 62
     7
 10
350.20038
 20
384.19974
 11
350.43402
 21
384.6044
  0
LINE
  8
0
  6
DASHED
 62
     7
 10
352.80057
 20
384.19928
 11
352.56693
 21
384.60397
  0
LINE
  8
0
  6
DASHED
 62
     7
 10
352.56641
 20
385.7002
 11
350.43323
 21
385.7002
  0
LINE
  8
0
  6
DASHED
 62
     7
 10
350.43323
 20
380.19983
 11
350.43323
 21
385.7002
  0
LINE
  8
0
  6
DASHED
 62
     7
 10
352.56641
 20
380.19983
 11
352.56641
 21
385.7002
  0
LINE
  8
0
  6
DASHED
 62
     7
 10
350.19995
 20
380.19983
 11
350.19995
 21
384.20032
  0
LINE
  8
0
  6
DASHED
 62
     7
 10
352.79968
 20
380.19983
 11
352.79968
 21
384.20032
  0
LINE
  8
0
  6
DASHED
 62
     7
 10
352.79968
 20
384.20032
 11
350.19995
 21
384.20032
  0
LINE
  8
0
  6
CENTER
 62
     7
 10
351.5
 20
378.92981
 11
351.5
 21
387.25952
  0
LINE
  8
0
  6
DASHED
 62
     7
 10
172.99939
 20
402.75024
 11
172.99939
 21
388.3999
  0
LINE
  8
0
  6
CONTINUOUS
 62
     7
 10
353.99976
 20
418.7998
 11
348.99988
 21
418.7998
  0
LINE
  8
0
  6
CONTINUOUS
 62
     7
 10
353.99976
 20
381.20032
 11
348.99988
 21
381.20032
  0
LINE
  8
0
  6
DASHED
 62
     7
 10
173.39929
 20
402.75024
 11
171.89941
 21
402.75024
  0
LINE
  8
0
  6
DASHED
 62
     7
 10
171.89941
 20
403.25012
 11
170.14917
 21
403.25012
  0
LINE
  8
0
  6
CENTER
 62
     7
 10
175.30383
 20
405.00024
 11
166.63721
 21
405.00024
  0
LINE
  8
0
  6
DASHED
 62
     7
 10
171.89941
 20
406.75
 11
170.14917
 21
406.75
  0
LINE
  8
0
  6
DASHED
 62
     7
 10
171.89941
 20
402.75024
 11
171.89941
 21
407.25024
  0
LINE
  8
0
  6
DASHED
 62
     7
 10
173.39929
 20
407.25024
 11
171.89941
 21
407.25024
  0
LINE
  8
0
  6
CONTINUOUS
 62
     7
 10
348.99988
 20
420.00024
 11
211.6001
 21
420.00024
  0
LINE
  8
0
  6
CONTINUOUS
 62
     7
 10
348.99988
 20
380.00024
 11
211.6001
 21
380.00024
  0
LINE
  8
0
  6
DASHED
 62
     7
 10
216.59985
 20
386.27734
 11
348.99988
 21
386.27734
  0
LINE
  8
0
  6
DASHED
 62
     7
 10
216.59985
 20
413.72339
 11
348.99988
 21
413.72339
  0
LINE
  8
0
  6
DASHED
 62
     7
 10
149
 20
413.72339
 11
173.39929
 21
413.72339
  0
LINE
  8
0
  6
DASHED
 62
     7
 10
149
 20
386.27734
 11
173.39929
 21
386.27734
  0
LINE
  8
0
  6
DASHED
 62
     7
 10
173.99963
 20
406.60022
 11
173.39929
 21
406.60022
  0
LINE
  8
0
  6
DASHED
 62
     7
 10
173.99963
 20
403.3999
 11
173.39929
 21
403.3999
  0
LINE
  8
0
  6
DASHED
 62
     7
 10
347.99976
 20
392.5
 11
347.99976
 21
395.00012
  0
LINE
  8
0
  6
DASHED
 62
     7
 10
344.49988
 20
407.5
 11
344.49988
 21
402.50012
  0
LINE
  8
0
  6
DASHED
 62
     7
 10
345.99988
 20
397
 11
344.49988
 21
397
  0
LINE
  8
0
  6
DASHED
 62
     7
 10
344.49988
 20
392.5
 11
344.49988
 21
397.50024
  0
LINE
  8
0
  6
DASHED
 62
     7
 10
344.49988
 20
397.50024
 11
342.99988
 21
397.50024
  0
LINE
  8
0
  6
DASHED
 62
     7
 10
344.49988
 20
402.50012
 11
342.99988
 21
402.50012
  0
LINE
  8
0
  6
DASHED
 62
     7
 10
345.99988
 20
403
 11
344.49988
 21
403
  0
LINE
  8
0
  6
DASHED
 62
     7
 10
347.99976
 20
407.5
 11
347.99976
 21
405.00024
  0
LINE
  8
0
  6
CENTER
 62
     7
 10
188.99927
 20
413.51996
 11
188.99927
 21
404.47998
  0
LINE
  8
0
  6
CENTER
 62
     7
 10
193.51929
 20
409
 11
184.47925
 21
409
  0
LINE
  8
0
  6
CENTER
 62
     7
 10
188.99927
 20
395.51996
 11
188.99927
 21
386.47998
  0
LINE
  8
0
  6
CENTER
 62
     7
 10
193.51929
 20
391
 11
184.47925
 21
391
  0
LINE
  8
0
  6
DASHED
 62
     7
 10
151.09985
 20
410.82739
 11
151.09985
 21
405.6272
  0
LINE
  8
0
  6
DASHED
 62
     7
 10
151.09985
 20
394.3728
 11
151.09985
 21
389.17297
  0
LINE
  8
0
  6
DASHED
 62
     7
 10
150.5
 20
389.17297
 11
151.09985
 21
389.17297
  0
LINE
  8
0
  6
DASHED
 62
     7
 10
150.5
 20
394.3728
 11
151.09985
 21
394.3728
  0
LINE
  8
0
  6
DASHED
 62
     7
 10
150.5
 20
405.6272
 11
151.09985
 21
405.6272
  0
LINE
  8
0
  6
DASHED
 62
     7
 10
150.5
 20
410.82739
 11
151.09985
 21
410.82739
  0
LINE
  8
0
  6
DASHED
 62
     7
 10
342.99988
 20
407.5
 11
342.99988
 21
392.5
  0
LINE
  8
0
  6
DASHED
 62
     7
 10
157.49927
 20
392.5
 11
153.59961
 21
392.5
  0
LINE
  8
0
  6
DASHED
 62
     7
 10
157.49927
 20
407.5
 11
153.59961
 21
407.5
  0
LINE
  8
0
  6
DASHED
 62
     7
 10
153.50012
 20
397
 11
153.50012
 21
397.5
  0
LINE
  8
0
  6
DASHED
 62
     7
 10
210.0779
 20
398.69547
 11
208.40446
 21
397.02206
  0
LINE
  8
0
  6
DASHED
 62
     7
 10
209.79494
 20
398.97824
 11
208.12169
 21
397.30499
  0
LINE
  8
0
  6
DASHED
 62
     7
 10
216.59985
 20
386.75012
 11
348.99988
 21
386.75012
  0
LINE
  8
0
  6
DASHED
 62
     7
 10
216.59985
 20
413.25024
 11
348.99988
 21
413.25024
  0
LINE
  8
0
  6
CONTINUOUS
 62
     7
 10
149
 20
417.73706
 11
178.39905
 21
417.73706
  0
LINE
  8
0
  6
DASHED
 62
     7
 10
149
 20
413.25024
 11
173.39929
 21
413.25024
  0
LINE
  8
0
  6
CONTINUOUS
 62
     7
 10
149
 20
382.26343
 11
178.39905
 21
382.26343
  0
LINE
  8
0
  6
DASHED
 62
     7
 10
149
 20
386.75012
 11
173.39929
 21
386.75012
  0
LINE
  8
0
  6
DASHED
 62
     7
 10
157.50012
 20
402.5
 11
153.50012
 21
402.5
  0
LINE
  8
0
  6
DASHED
 62
     7
 10
157.50012
 20
403
 11
171.89941
 21
403
  0
LINE
  8
0
  6
DASHED
 62
     7
 10
151.00012
 20
396.54999
 11
150.5
 21
396.54999
  0
LINE
  8
0
  6
DASHED
 62
     7
 10
151.00012
 20
403.45001
 11
150.5
 21
403.45001
  0
LINE
  8
0
  6
DASHED
 62
     7
 10
157.50012
 20
397.5
 11
153.50012
 21
397.5
  0
LINE
  8
0
  6
CONTINUOUS
 62
     7
 10
354.5
 20
419.80029
 11
354.5
 21
417.5
  0
LINE
  8
0
  6
DASHED
 62
     7
 10
151.00012
 20
396.54999
 11
151.00012
 21
403.45001
  0
LINE
  8
0
  6
CONTINUOUS
 62
     7
 10
354.5
 20
419.80029
 11
353.99976
 21
419.80029
  0
LINE
  8
0
  6
DASHED
 62
     7
 10
354.5
 20
413.80029
 11
353.99976
 21
413.80029
  0
LINE
  8
0
  6
CONTINUOUS
 62
     7
 10
354.5
 20
380.19983
 11
353.99976
 21
380.19983
  0
LINE
  8
0
  6
DASHED
 62
     7
 10
354.5
 20
386.19971
 11
353.99976
 21
386.19971
  0
LINE
  8
0
  6
DASHED
 62
     7
 10
354.5
 20
386.19971
 11
354.5
 21
382.5
  0
LINE
  8
0
  6
DASHED
 62
     7
 10
142
 20
413.80029
 11
141.50012
 21
413.80029
  0
LINE
  8
0
  6
DASHED
 62
     7
 10
142
 20
386.19971
 11
141.50012
 21
386.19971
  0
LINE
  8
0
  6
DASHED
 62
     7
 10
142
 20
382.5
 11
142
 21
380.19983
  0
LINE
  8
0
  6
DASHED
 62
     7
 10
171.99915
 20
387.40015
 11
171.99915
 21
386.75012
  0
LINE
  8
0
  6
CONTINUOUS
 62
     7
 10
141.50012
 20
419.80029
 11
141.50012
 21
380.19983
  0
LINE
  8
0
  6
DASHED
 62
     7
 10
216.99976
 20
411.6001
 11
216.99976
 21
388.3999
  0
LINE
  8
0
  6
DASHED
 62
     7
 10
172.99939
 20
411.6001
 11
172.99939
 21
407.25024
  0
LINE
  8
0
  6
DASHED
 62
     7
 10
218
 20
387.40015
 11
218
 21
386.75012
  0
LINE
  8
0
  6
DASHED
 62
     7
 10
172.99945
 20
388.40085
 11
171.99939
 21
387.40079
  0
LINE
  8
0
  6
DASHED
 62
     7
 10
217.99974
 20
412.60019
 11
216.99968
 21
411.60013
  0
LINE
  8
0
  6
DASHED
 62
     7
 10
216.99959
 20
388.40018
 11
217.99965
 21
387.40012
  0
LINE
  8
0
  6
DASHED
 62
     7
 10
173.39929
 20
415.76245
 11
173.39929
 21
384.2384
  0
LINE
  8
0
  6
DASHED
 62
     7
 10
171.99939
 20
412.6008
 11
172.99945
 21
411.60074
  0
LINE
  8
0
  6
DASHED
 62
     7
 10
215.99988
 20
411.55029
 11
215.99988
 21
388.44971
  0
LINE
  8
0
  6
DASHED
 62
     7
 10
173.99963
 20
411.55029
 11
173.99963
 21
388.44971
  0
LINE
  8
0
  6
DASHED
 62
     7
 10
216.59985
 20
415.76245
 11
216.59985
 21
384.2384
  0
LINE
  8
0
  6
DASHED
 62
     7
 10
216.59985
 20
384.2384
 11
211.6001
 21
384.2384
  0
LINE
  8
0
  6
DASHED
 62
     7
 10
216.59985
 20
388.44971
 11
211.6001
 21
388.44971
  0
LINE
  8
0
  6
DASHED
 62
     7
 10
216.59985
 20
411.55029
 11
211.6001
 21
411.55029
  0
LINE
  8
0
  6
DASHED
 62
     7
 10
216.59985
 20
415.76245
 11
211.6001
 21
415.76245
  0
LINE
  8
0
  6
DASHED
 62
     7
 10
215.99963
 20
388.60022
 11
211.6001
 21
388.60022
  0
LINE
  8
0
  6
DASHED
 62
     7
 10
218
 20
413.25024
 11
218
 21
412.60022
  0
LINE
  8
0
  6
DASHED
 62
     7
 10
171.99915
 20
413.25024
 11
171.99915
 21
412.60022
  0
LINE
  8
0
  6
DASHED
 62
     7
 10
173.99963
 20
411.40015
 11
178.39905
 21
411.40015
  0
LINE
  8
0
  6
DASHED
 62
     7
 10
173.99963
 20
388.60022
 11
178.39905
 21
388.60022
  0
LINE
  8
0
  6
DASHED
 62
     7
 10
215.99963
 20
411.40015
 11
211.6001
 21
411.40015
  0
LINE
  8
0
  6
CENTER
 62
     7
 10
207.76978
 20
391
 11
202.22974
 21
391
  0
LINE
  8
0
  6
CENTER
 62
     7
 10
204.99976
 20
393.76996
 11
204.99976
 21
388.22998
  0
LINE
  8
0
  6
CENTER
 62
     7
 10
184.99939
 20
393.76996
 11
184.99939
 21
388.22998
  0
LINE
  8
0
  6
CENTER
 62
     7
 10
187.76941
 20
391
 11
182.22937
 21
391
  0
LINE
  8
0
  6
CENTER
 62
     7
 10
184.99939
 20
411.76996
 11
184.99939
 21
406.22998
  0
LINE
  8
0
  6
CENTER
 62
     7
 10
187.76941
 20
409
 11
182.22937
 21
409
  0
LINE
  8
0
  6
CONTINUOUS
 62
     7
 10
149.00003
 20
409.36685
 11
150.50005
 21
390.63214
  0
LINE
  8
0
  6
CONTINUOUS
 62
     7
 10
149.00038
 20
390.63205
 11
150.5004
 21
409.36679
  0
LINE
  8
0
  6
DASHED
 62
     7
 10
149
 20
409.36768
 11
150.5
 21
409.36768
  0
LINE
  8
0
  6
DASHED
 62
     7
 10
149
 20
390.63306
 11
150.5
 21
390.63306
  0
LINE
  8
0
  6
CONTINUOUS
 62
     7
 10
131.99988
 20
406.65701
 11
136.49988
 21
406.65701
  0
LINE
  8
0
  6
CONTINUOUS
 62
     7
 10
136.49989
 20
406.65707
 11
131.99986
 21
401.12207
  0
LINE
  8
0
  6
CONTINUOUS
 62
     7
 10
131.99988
 20
401.12207
 11
136.49988
 21
401.12207
  0
LINE
  8
0
  6
CONTINUOUS
 62
     7
 10
136.49989
 20
401.12204
 11
131.99991
 21
406.65698
  0
LINE
  8
0
  6
CONTINUOUS
 62
     7
 10
131.99988
 20
393.34491
 11
136.49988
 21
393.34491
  0
LINE
  8
0
  6
CONTINUOUS
 62
     7
 10
131.99988
 20
398.87793
 11
136.49988
 21
398.87793
  0
LINE
  8
0
  6
CONTINUOUS
 62
     7
 10
131.99991
 20
398.87796
 11
136.49991
 21
393.34494
  0
LINE
  8
0
  6
CONTINUOUS
 62
     7
 10
123.2998
 20
398.00012
 11
123.2998
 21
402.00024
  0
LINE
  8
0
  6
CONTINUOUS
 62
     7
 10
122.99951
 20
398.30051
 11
123.29938
 21
398.00064
  0
LINE
  8
0
  6
CONTINUOUS
 62
     7
 10
123.2999
 20
402.00037
 11
122.99986
 21
401.70035
  0
LINE
  8
0
  6
CONTINUOUS
 62
     7
 10
122.99988
 20
398.30005
 11
122.99988
 21
401.69995
  0
LINE
  8
0
  6
DASHED
 62
     7
 10
357.99988
 20
413.00012
 11
354.5
 21
413.00012
  0
LINE
  8
0
  6
DASHED
 62
     7
 10
357.99988
 20
387.00024
 11
354.5
 21
387.00024
  0
LINE
  8
0
  6
DASHED
 62
     7
 10
353.99976
 20
386.5
 11
353.99976
 21
382.5
  0
LINE
  8
0
  6
CONTINUOUS
 62
     7
 10
358.19983
 20
380.45032
 11
355.19983
 21
380.45032
  0
LINE
  8
0
  6
CONTINUOUS
 62
     7
 10
358.19983
 20
385.94995
 11
357.99988
 21
385.94995
  0
LINE
  8
0
  6
CONTINUOUS
 62
     7
 10
358.19983
 20
385.94995
 11
358.19983
 21
380.45032
  0
LINE
  8
0
  6
CONTINUOUS
 62
     7
 10
358.19983
 20
414.05005
 11
357.99988
 21
414.05005
  0
LINE
  8
0
  6
CONTINUOUS
 62
     7
 10
358.19983
 20
419.5498
 11
355.19983
 21
419.5498
  0
LINE
  8
0
  6
CONTINUOUS
 62
     7
 10
358.19983
 20
419.5498
 11
358.19983
 21
414.05005
  0
LINE
  8
0
  6
DASHED
 62
     7
 10
354.5
 20
413.8501
 11
355.19983
 21
413.8501
  0
LINE
  8
0
  6
DASHED
 62
     7
 10
355.19983
 20
413.8501
 11
355.19983
 21
417.5
  0
LINE
  8
0
  6
CONTINUOUS
 62
     7
 10
354.5
 20
419.75012
 11
355.19983
 21
419.75012
  0
LINE
  8
0
  6
CONTINUOUS
 62
     7
 10
354.5
 20
380.25037
 11
355.19983
 21
380.25037
  0
LINE
  8
0
  6
DASHED
 62
     7
 10
354.5
 20
386.1499
 11
355.19983
 21
386.1499
  0
LINE
  8
0
  6
DASHED
 62
     7
 10
355.19983
 20
386.1499
 11
355.19983
 21
382.5
  0
LINE
  8
0
  6
CONTINUOUS
 62
     7
 10
353.99976
 20
419.80029
 11
353.99976
 21
417.5
  0
LINE
  8
0
  6
DASHED
 62
     7
 10
157.49927
 20
395.00012
 11
150.5
 21
395.00012
  0
LINE
  8
0
  6
DASHED
 62
     7
 10
157.49927
 20
405.00024
 11
150.5
 21
405.00024
  0
LINE
  8
0
  6
CONTINUOUS
 62
     7
 10
137.00012
 20
395.5
 11
136.49988
 21
395.5
  0
LINE
  8
0
  6
CONTINUOUS
 62
     7
 10
136.49988
 20
406.75
 11
136.49988
 21
393.25
  0
LINE
  8
0
  6
CONTINUOUS
 62
     7
 10
131.99989
 20
393.34494
 11
136.49988
 21
398.87793
  0
LINE
  8
0
  6
CONTINUOUS
 62
     7
 10
136.49988
 20
393.25
 11
131.99988
 21
393.25
  0
LINE
  8
0
  6
CONTINUOUS
 62
     7
 10
131.99988
 20
397.77014
 11
131.02979
 21
397.77014
  0
LINE
  8
0
  6
CONTINUOUS
 62
     7
 10
131.99988
 20
402.23022
 11
131.02979
 21
402.23022
  0
LINE
  8
0
  6
CONTINUOUS
 62
     7
 10
131.00012
 20
398.00012
 11
123.2998
 21
398.00012
  0
LINE
  8
0
  6
CONTINUOUS
 62
     7
 10
131.00012
 20
402.00024
 11
123.2998
 21
402.00024
  0
LINE
  8
0
  6
CONTINUOUS
 62
     7
 10
131.29968
 20
397.50024
 11
131.29968
 21
402.50012
  0
LINE
  8
0
  6
CONTINUOUS
 62
     7
 10
130.99953
 20
397.80072
 11
131.2999
 21
397.50034
  0
LINE
  8
0
  6
CONTINUOUS
 62
     7
 10
130.9996
 20
402.20084
 11
131.29947
 21
402.5007
  0
LINE
  8
0
  6
CONTINUOUS
 62
     7
 10
131.00012
 20
397.7998
 11
131.00012
 21
402.2002
  0
LINE
  8
0
  6
CONTINUOUS
 62
     7
 10
137.00012
 20
404.5
 11
136.49988
 21
404.5
  0
LINE
  8
0
  6
CONTINUOUS
 62
     7
 10
136.49988
 20
406.75
 11
131.99988
 21
406.75
  0
LINE
  8
0
  6
CONTINUOUS
 62
     7
 10
131.99988
 20
397.50024
 11
131.29968
 21
397.50024
  0
LINE
  8
0
  6
CONTINUOUS
 62
     7
 10
131.99988
 20
402.50012
 11
131.29968
 21
402.50012
  0
LINE
  8
0
  6
DASHED
 62
     7
 10
141.50012
 20
419.75012
 11
140.79993
 21
419.75012
  0
LINE
  8
0
  6
DASHED
 62
     7
 10
140.79993
 20
413.8501
 11
140.79993
 21
419.75012
  0
LINE
  8
0
  6
DASHED
 62
     7
 10
141.50012
 20
413.8501
 11
140.79993
 21
413.8501
  0
LINE
  8
0
  6
DASHED
 62
     7
 10
141.50012
 20
386.1499
 11
140.79993
 21
386.1499
  0
LINE
  8
0
  6
DASHED
 62
     7
 10
141.50012
 20
380.25037
 11
140.79993
 21
380.25037
  0
LINE
  8
0
  6
DASHED
 62
     7
 10
140.79993
 20
386.1499
 11
140.79993
 21
380.25037
  0
LINE
  8
0
  6
DASHED
 62
     7
 10
113.99988
 20
387.50012
 11
113.00012
 21
387.50012
  0
LINE
  8
0
  6
DASHED
 62
     7
 10
113.99988
 20
412.50024
 11
113.00012
 21
412.50024
  0
LINE
  8
0
  6
CONTINUOUS
 62
     7
 10
134.99988
 20
412.50024
 11
113.99988
 21
412.50024
  0
LINE
  8
0
  6
CONTINUOUS
 62
     7
 10
134.99988
 20
387.50012
 11
113.99988
 21
387.50012
  0
LINE
  8
0
  6
CONTINUOUS
 62
     7
 10
112
 20
410.5
 11
112
 21
389.5
  0
LINE
  8
0
  6
DASHED
 62
     7
 10
112
 20
386.5
 11
112
 21
380.19983
  0
LINE
  8
0
  6
CENTER
 62
     7
 10
358.19983
 20
383.19983
 11
343.99988
 21
383.19983
  0
LINE
  8
0
  6
CENTER
 62
     7
 10
154
 20
383.19983
 11
137.79993
 21
383.19983
  0
LINE
  8
0
  6
CENTER
 62
     7
 10
154
 20
416.80029
 11
137.79993
 21
416.80029
  0
LINE
  8
0
  6
CENTER
 62
     7
 10
358.19983
 20
416.80029
 11
343.99988
 21
416.80029
  0
LINE
  8
0
  6
DASHED
 62
     7
 10
137.79993
 20
380.45032
 11
140.79993
 21
380.45032
  0
LINE
  8
0
  6
DASHED
 62
     7
 10
137.79993
 20
385.94995
 11
140.79993
 21
385.94995
  0
LINE
  8
0
  6
DASHED
 62
     7
 10
137.79993
 20
385.94995
 11
137.79993
 21
380.45032
  0
LINE
  8
0
  6
DASHED
 62
     7
 10
137.79993
 20
414.05005
 11
140.79993
 21
414.05005
  0
LINE
  8
0
  6
DASHED
 62
     7
 10
137.79993
 20
419.5498
 11
140.79993
 21
419.5498
  0
LINE
  8
0
  6
DASHED
 62
     7
 10
137.79993
 20
419.5498
 11
137.79993
 21
414.05005
  0
LINE
  8
0
  6
CONTINUOUS
 62
     7
 10
137.00012
 20
389.5
 11
112
 21
389.5
  0
LINE
  8
0
  6
CONTINUOUS
 62
     7
 10
137.00012
 20
410.5
 11
112
 21
410.5
  0
LINE
  8
0
  6
DASHED
 62
     7
 10
140.99988
 20
412.50024
 11
134.99988
 21
412.50024
  0
LINE
  8
0
  6
DASHED
 62
     7
 10
140.99988
 20
387.50012
 11
134.99988
 21
387.50012
  0
LINE
  8
0
  6
CONTINUOUS
 62
     7
 10
131.99988
 20
395.00012
 11
113.99988
 21
395.00012
  0
LINE
  8
0
  6
CONTINUOUS
 62
     7
 10
131.99988
 20
405.00024
 11
113.99988
 21
405.00024
  0
LINE
  8
0
  6
DASHED
 62
     7
 10
112
 20
419.80029
 11
112
 21
413.5
  0
LINE
  8
0
  6
CONTINUOUS
 62
     7
 10
100
 20
418.7998
 11
100
 21
381.20032
  0
LINE
  8
0
  6
CENTER
 62
     7
 10
308.99988
 20
395.51996
 11
308.99988
 21
386.47998
  0
LINE
  8
0
  6
CENTER
 62
     7
 10
313.5199
 20
391
 11
304.47986
 21
391
  0
LINE
  8
0
  6
CENTER
 62
     7
 10
308.99988
 20
413.51996
 11
308.99988
 21
404.47998
  0
LINE
  8
0
  6
CENTER
 62
     7
 10
313.5199
 20
409
 11
304.47986
 21
409
  0
LINE
  8
0
  6
DASHED
 62
     7
 10
151.09985
 20
410.47729
 11
153.59961
 21
410.47729
  0
LINE
  8
0
  6
DASHED
 62
     7
 10
151.09985
 20
405.97729
 11
153.59961
 21
405.97729
  0
LINE
  8
0
  6
DASHED
 62
     7
 10
153.59961
 20
410.47729
 11
153.59961
 21
405.97729
  0
LINE
  8
0
  6
CENTER
 62
     7
 10
143
 20
408.22729
 11
153.59961
 21
408.22729
  0
LINE
  8
0
  6
DASHED
 62
     7
 10
151.09985
 20
389.52271
 11
153.59961
 21
389.52271
  0
LINE
  8
0
  6
CENTER
 62
     7
 10
143
 20
391.77271
 11
153.59961
 21
391.77271
  0
LINE
  8
0
  6
DASHED
 62
     7
 10
153.59961
 20
389.52271
 11
153.59961
 21
394.02271
  0
LINE
  8
0
  6
DASHED
 62
     7
 10
151.09985
 20
394.02271
 11
153.59961
 21
394.02271
  0
LINE
  8
0
  6
DASHED
 62
     7
 10
216.99976
 20
403
 11
342.99988
 21
403
  0
LINE
  8
0
  6
DASHED
 62
     7
 10
216.99976
 20
402.6001
 11
342.99988
 21
402.6001
  0
LINE
  8
0
  6
DASHED
 62
     7
 10
216.99976
 20
397.3999
 11
342.99988
 21
397.3999
  0
LINE
  8
0
  6
DASHED
 62
     7
 10
216.99976
 20
397
 11
342.99988
 21
397
  0
LINE
  8
0
  6
DASHED
 62
     7
 10
157.49927
 20
397.5
 11
157.49927
 21
389.00012
  0
LINE
  8
0
  6
DASHED
 62
     7
 10
157.49927
 20
411.00024
 11
150.5
 21
411.00024
  0
LINE
  8
0
  6
DASHED
 62
     7
 10
157.49927
 20
389.00012
 11
150.5
 21
389.00012
  0
LINE
  8
0
  6
DASHED
 62
     7
 10
157.49927
 20
411.00024
 11
157.49927
 21
402.5
  0
LINE
  8
0
  6
DASHED
 62
     7
 10
151.00012
 20
403
 11
153.50012
 21
403
  0
LINE
  8
0
  6
DASHED
 62
     7
 10
151.00012
 20
397
 11
153.50012
 21
397
  0
LINE
  8
0
  6
DASHED
 62
     7
 10
150.5
 20
388
 11
149
 21
388
  0
LINE
  8
0
  6
DASHED
 62
     7
 10
150.5
 20
412
 11
149
 21
412
  0
LINE
  8
0
  6
DASHED
 62
     7
 10
150.5
 20
412
 11
150.5
 21
388
  0
LINE
  8
0
  6
DASHED
 62
     7
 10
348.99988
 20
392.5
 11
342.99988
 21
392.5
  0
LINE
  8
0
  6
DASHED
 62
     7
 10
348.99988
 20
407.5
 11
342.99988
 21
407.5
  0
LINE
  8
0
  6
DASHED
 62
     7
 10
142
 20
419.80029
 11
142
 21
417.5
  0
LINE
  8
0
  6
CONTINUOUS
 62
     7
 10
131.99988
 20
406.75
 11
131.99988
 21
393.25
  0
LINE
  8
0
  6
CONTINUOUS
 62
     7
 10
147.99988
 20
419.80029
 11
101.00012
 21
419.80029
  0
LINE
  8
0
  6
CONTINUOUS
 62
     7
 10
147.99988
 20
380.19983
 11
101.00012
 21
380.19983
  0
LINE
  8
0
  6
CONTINUOUS
 62
     7
 10
137.00012
 20
410.5
 11
137.00012
 21
389.5
  0
LINE
  8
0
  6
CONTINUOUS
 62
     7
 10
353.49988
 20
380.19983
 11
349.49976
 21
380.19983
  0
LINE
  8
0
  6
CONTINUOUS
 62
     7
 10
353.49988
 20
419.80029
 11
349.49976
 21
419.80029
  0
LINE
  8
0
  6
CONTINUOUS
 62
     7
 10
359
 20
412
 11
359
 21
388
  0
LINE
  8
0
  6
DASHED
 62
     7
 10
151.00012
 20
397.3999
 11
153.50012
 21
397.3999
  0
LINE
  8
0
  6
DASHED
 62
     7
 10
151.00012
 20
402.6001
 11
153.50012
 21
402.6001
  0
LINE
  8
0
  6
CONTINUOUS
 62
     7
 10
149
 20
380.19983
 11
178.39905
 21
380.19983
  0
LINE
  8
0
  6
CONTINUOUS
 62
     7
 10
348.99988
 20
420.00024
 11
348.99988
 21
417.5
  0
LINE
  8
0
  6
CONTINUOUS
 62
     7
 10
149
 20
420.00024
 11
149
 21
417.5
  0
LINE
  8
0
  6
CONTINUOUS
 62
     7
 10
149
 20
419.80029
 11
178.39905
 21
419.80029
  0
LINE
  8
0
  6
CENTER
 62
     7
 10
360.27002
 20
400
 11
98.72998
 21
400
  0
LINE
  8
0
  6
CENTER
 62
     7
 10
134.29968
 20
398.00012
 11
134.29968
 21
402.00024
  0
LINE
  8
0
  6
DASHED
 62
     7
 10
201.09973
 20
404.40906
 11
201.09973
 21
395.59088
  0
LINE
  8
0
  6
DASHED
 62
     7
 10
211.1001
 20
395.59088
 11
211.1001
 21
404.40906
  0
LINE
  8
0
  6
DASHED
 62
     7
 10
201.09973
 20
404.40906
 11
211.1001
 21
404.40906
  0
LINE
  8
0
  6
DASHED
 62
     7
 10
201.09973
 20
395.59088
 11
211.1001
 21
395.59088
  0
LINE
  8
0
  6
CONTINUOUS
 62
     7
 10
211.6001
 20
426
 11
211.6001
 21
417.5
  0
LINE
  8
0
  6
CONTINUOUS
 62
     7
 10
178.39905
 20
426
 11
178.39905
 21
417.5
  0
LINE
  8
0
  6
CONTINUOUS
 62
     7
 10
211.6001
 20
426
 11
178.39905
 21
426
  0
LINE
  8
0
  6
CONTINUOUS
 62
     7
 10
211.6001
 20
374
 11
178.39905
 21
374
  0
LINE
  8
0
  6
CENTER
 62
     7
 10
188.26904
 20
422.5
 11
181.729
 21
422.5
  0
LINE
  8
0
  6
CENTER
 62
     7
 10
184.99902
 20
419.23001
 11
184.99902
 21
425.76999
  0
LINE
  8
0
  6
CENTER
 62
     7
 10
205.00073
 20
419.23001
 11
205.00073
 21
425.76999
  0
LINE
  8
0
  6
CENTER
 62
     7
 10
201.73071
 20
422.5
 11
208.27075
 21
422.5
  0
LINE
  8
0
  6
CENTER
 62
     7
 10
188.26904
 20
377.5
 11
181.729
 21
377.5
  0
LINE
  8
0
  6
CENTER
 62
     7
 10
184.99902
 20
380.76999
 11
184.99902
 21
374.23001
  0
LINE
  8
0
  6
CENTER
 62
     7
 10
201.73071
 20
377.5
 11
208.27075
 21
377.5
  0
LINE
  8
0
  6
CENTER
 62
     7
 10
205.00073
 20
380.76999
 11
205.00073
 21
374.23001
  0
LINE
  8
0
  6
DASHED
 62
     7
 10
122.00003
 20
9.5004883
 11
122.00003
 21
11.500504
  0
LINE
  8
0
  6
DASHED
 62
     7
 10
120.75
 20
9.7170563
 11
120.75
 21
11.28418
  0
LINE
  8
0
  6
DASHED
 62
     7
 10
126
 20
9.5004883
 11
122.00003
 21
9.5004883
  0
LINE
  8
0
  6
DASHED
 62
     7
 10
126
 20
11.500504
 11
122.00003
 21
11.500504
  0
LINE
  8
0
  6
DASHED
 62
     7
 10
121.99984
 20
11.500508
 11
121.62514
 21
11.284181
  0
LINE
  8
0
  6
DASHED
 62
     7
 10
122.00008
 20
9.5008326
 11
121.62557
 21
9.7170572
  0
LINE
  8
0
  6
DASHED
 62
     7
 10
120.29752
 20
10.500522
 11
120.74987
 21
9.7170277
  0
LINE
  8
0
  6
DASHED
 62
     7
 10
120.29762
 20
10.500663
 11
120.74989
 21
11.284019
  0
LINE
  8
0
  6
CENTER
 62
     7
 10
126.36768
 20
10.500488
 11
119.93753
 21
10.500488
  0
LINE
  8
0
  6
DASHED
 62
     7
 10
126
 20
11.28418
 11
120.75
 21
11.28418
  0
LINE
  8
0
  6
DASHED
 62
     7
 10
126
 20
9.7170563
 11
120.75
 21
9.7170563
  0
LINE
  8
0
  6
CENTER
 62
     7
 10
73.632324
 20
10.500488
 11
80.062469
 21
10.500488
  0
LINE
  8
0
  6
CONTINUOUS
 62
     7
 10
357.99988
 20
382.5
 11
142
 21
382.5
  0
LINE
  8
0
  6
CONTINUOUS
 62
     7
 10
357.99988
 20
417.5
 11
142
 21
417.5
  0
LINE
  8
0
  6
CENTER
 62
     7
 10
207.76978
 20
409
 11
202.22974
 21
409
  0
LINE
  8
0
  6
CENTER
 62
     7
 10
204.99976
 20
406.23004
 11
204.99976
 21
411.77002
  0
LINE
  8
0
  6
CONTINUOUS
 62
     7
 10
357.99988
 20
417.5
 11
357.99988
 21
382.5
  0
LINE
  8
0
  6
CONTINUOUS
 62
     7
 10
211.6001
 20
418.5
 11
178.39905
 21
418.5
  0
LINE
  8
0
  6
CONTINUOUS
 62
     7
 10
211.6001
 20
381.5
 11
178.39905
 21
381.5
  0
LINE
  8
0
  6
CONTINUOUS
 62
     7
 10
178.39905
 20
380.00024
 11
149
 21
380.00024
  0
LINE
  8
0
  6
CONTINUOUS
 62
     7
 10
211.6001
 20
380.19983
 11
348.99988
 21
380.19983
  0
LINE
  8
0
  6
CONTINUOUS
 62
     7
 10
211.6001
 20
419.80029
 11
348.99988
 21
419.80029
  0
LINE
  8
0
  6
CONTINUOUS
 62
     7
 10
178.39905
 20
420.00024
 11
149
 21
420.00024
  0
LINE
  8
0
  6
CONTINUOUS
 62
     7
 10
142
 20
417.5
 11
142
 21
382.5
  0
LINE
  8
0
  6
DASHED
 62
     7
 10
178.39905
 20
388.44971
 11
173.39929
 21
388.44971
  0
LINE
  8
0
  6
DASHED
 62
     7
 10
178.39905
 20
384.2384
 11
173.39929
 21
384.2384
  0
LINE
  8
0
  6
DASHED
 62
     7
 10
178.39905
 20
411.55029
 11
173.39929
 21
411.55029
  0
LINE
  8
0
  6
DASHED
 62
     7
 10
178.39905
 20
415.76245
 11
173.39929
 21
415.76245
  0
LINE
  8
0
  6
CONTINUOUS
 62
     7
 10
211.6001
 20
417.73706
 11
348.99988
 21
417.73706
  0
LINE
  8
0
  6
CONTINUOUS
 62
     7
 10
211.6001
 20
382.26343
 11
348.99988
 21
382.26343
  0
LINE
  8
0
  6
CONTINUOUS
 62
     7
 10
178.39905
 20
382.5
 11
178.39905
 21
374
  0
LINE
  8
0
  6
CONTINUOUS
 62
     7
 10
211.6001
 20
382.5
 11
211.6001
 21
374
  0
LINE
  8
0
  6
DASHED
 62
     7
 10
178.39905
 20
382.5
 11
178.39905
 21
417.5
  0
LINE
  8
0
  6
DASHED
 62
     7
 10
211.6001
 20
417.5
 11
211.6001
 21
382.5
  0
LINE
  8
0
  6
DASHED
 62
     7
 10
357.99988
 20
414.05005
 11
355.19983
 21
414.05005
  0
LINE
  8
0
  6
CONTINUOUS
 62
     7
 10
355.19983
 20
417.5
 11
355.19983
 21
419.75012
  0
LINE
  8
0
  6
DASHED
 62
     7
 10
354.5
 20
417.5
 11
354.5
 21
413.80029
  0
LINE
  8
0
  6
DASHED
 62
     7
 10
353.99976
 20
417.5
 11
353.99976
 21
413.5
  0
LINE
  8
0
  6
DASHED
 62
     7
 10
348.99988
 20
417.5
 11
348.99988
 21
382.5
  0
LINE
  8
0
  6
DASHED
 62
     7
 10
357.99988
 20
385.94995
 11
355.19983
 21
385.94995
  0
LINE
  8
0
  6
CONTINUOUS
 62
     7
 10
355.19983
 20
382.5
 11
355.19983
 21
380.25037
  0
LINE
  8
0
  6
CONTINUOUS
 62
     7
 10
354.5
 20
382.5
 11
354.5
 21
380.19983
  0
LINE
  8
0
  6
CONTINUOUS
 62
     7
 10
353.99976
 20
382.5
 11
353.99976
 21
380.19983
  0
LINE
  8
0
  6
CONTINUOUS
 62
     7
 10
348.99988
 20
382.5
 11
348.99988
 21
380.00024
  0
LINE
  8
0
  6
CONTINUOUS
 62
     7
 10
149
 20
382.5
 11
149
 21
380.00024
  0
LINE
  8
0
  6
DASHED
 62
     7
 10
149
 20
417.5
 11
149
 21
382.5
  0
LINE
  8
0
  6
CONTINUOUS
 62
     7
 10
144.86462
 20
391.36646
 11
145.49963
 21
391.73309
  0
LINE
  8
0
  6
CONTINUOUS
 62
     7
 10
145.49963
 20
390.2666
 11
146.13464
 21
390.63321
  0
LINE
  8
0
  6
CONTINUOUS
 62
     7
 10
144.86447
 20
390.63345
 11
145.49973
 21
390.26669
  0
LINE
  8
0
  6
CONTINUOUS
 62
     7
 10
145.49945
 20
391.73328
 11
146.1347
 21
391.36652
  0
LINE
  8
0
  6
CONTINUOUS
 62
     7
 10
144.86475
 20
391.36658
 11
144.86475
 21
390.63342
  0
LINE
  8
0
  6
CONTINUOUS
 62
     7
 10
146.13477
 20
391.36658
 11
146.13477
 21
390.63342
  0
LINE
  8
0
  6
CENTER
 62
     7
 10
145.49976
 20
394.99976
 11
145.49976
 21
386.99988
  0
LINE
  8
0
  6
CENTER
 62
     7
 10
141.49989
 20
391
 11
149.49974
 21
391
  0
LINE
  8
0
  6
CENTER
 62
     7
 10
145.49976
 20
412.99976
 11
145.49976
 21
404.99988
  0
LINE
  8
0
  6
CENTER
 62
     7
 10
141.49989
 20
409
 11
149.49974
 21
409
  0
LINE
  8
0
  6
CENTER
 62
     7
 10
354.49988
 20
394.99976
 11
354.49988
 21
386.99997
  0
LINE
  8
0
  6
CENTER
 62
     7
 10
350.50012
 20
391
 11
358.49988
 21
391
  0
LINE
  8
0
  6
CENTER
 62
     7
 10
354.49988
 20
412.99976
 11
354.49988
 21
404.99997
  0
LINE
  8
0
  6
CENTER
 62
     7
 10
350.50012
 20
409
 11
358.49988
 21
409
  0
LINE
  8
0
  6
CENTER
 62
     7
 10
354.49966
 20
208.82755
 11
354.49966
 21
218.67752
  0
LINE
  8
0
  6
PHANTOM
 62
     7
 10
355.99966
 20
217.69974
 11
355.99966
 21
217.99966
  0
LINE
  8
0
  6
PHANTOM
 62
     7
 10
355.99966
 20
217.69974
 11
352.99966
 21
217.69974
  0
LINE
  8
0
  6
PHANTOM
 62
     7
 10
352.99966
 20
217.69974
 11
352.99966
 21
217.99966
  0
LINE
  8
0
  6
PHANTOM
 62
     7
 10
355.9996
 20
217.69968
 11
357.74957
 21
217.49968
  0
LINE
  8
0
  6
PHANTOM
 62
     7
 10
357.74966
 20
216.99954
 11
357.74966
 21
217.49979
  0
LINE
  8
0
  6
PHANTOM
 62
     7
 10
351.24969
 20
216.99954
 11
351.24969
 21
217.49979
  0
LINE
  8
0
  6
PHANTOM
 62
     7
 10
352.99969
 20
217.69958
 11
351.24969
 21
217.49957
  0
LINE
  8
0
  6
PHANTOM
 62
     7
 10
357.74966
 20
217.49979
 11
351.24969
 21
217.49979
  0
LINE
  8
0
  6
PHANTOM
 62
     7
 10
355.99966
 20
217.99966
 11
352.99966
 21
217.99966
  0
LINE
  8
0
  6
PHANTOM
 62
     7
 10
146.99976
 20
217.99966
 11
143.99976
 21
217.99966
  0
LINE
  8
0
  6
PHANTOM
 62
     7
 10
148.74976
 20
217.49979
 11
142.24977
 21
217.49979
  0
LINE
  8
0
  6
PHANTOM
 62
     7
 10
143.99977
 20
217.69958
 11
142.24979
 21
217.49959
  0
LINE
  8
0
  6
PHANTOM
 62
     7
 10
142.24977
 20
216.99954
 11
142.24977
 21
217.49979
  0
LINE
  8
0
  6
PHANTOM
 62
     7
 10
148.74976
 20
216.99954
 11
148.74976
 21
217.49979
  0
LINE
  8
0
  6
PHANTOM
 62
     7
 10
146.99968
 20
217.69968
 11
148.74968
 21
217.49968
  0
LINE
  8
0
  6
PHANTOM
 62
     7
 10
143.99976
 20
217.69974
 11
143.99976
 21
217.99966
  0
LINE
  8
0
  6
PHANTOM
 62
     7
 10
146.99976
 20
217.69974
 11
143.99976
 21
217.69974
  0
LINE
  8
0
  6
PHANTOM
 62
     7
 10
146.99976
 20
217.69974
 11
146.99976
 21
217.99966
  0
LINE
  8
0
  6
CENTER
 62
     7
 10
145.49976
 20
208.82755
 11
145.49976
 21
218.67752
  0
LINE
  8
0
  6
DASHED
 62
     7
 10
191.21547
 20
374
 11
191.21547
 21
379.25
  0
LINE
  8
0
  6
DASHED
 62
     7
 10
192.78259
 20
374
 11
192.78259
 21
379.25
  0
LINE
  8
0
  6
CENTER
 62
     7
 10
191.9989
 20
371.60004
 11
191.9989
 21
380.06247
  0
LINE
  8
0
  6
DASHED
 62
     7
 10
191.99907
 20
379.70239
 11
192.78275
 21
379.24994
  0
LINE
  8
0
  6
DASHED
 62
     7
 10
191.99893
 20
379.70248
 11
191.21542
 21
379.25012
  0
LINE
  8
0
  6
DASHED
 62
     7
 10
190.99892
 20
378.00009
 11
191.24245
 21
378.42191
  0
LINE
  8
0
  6
DASHED
 62
     7
 10
192.9989
 20
378.00015
 11
192.75537
 21
378.42197
  0
LINE
  8
0
  6
DASHED
 62
     7
 10
192.99892
 20
374
 11
192.99892
 21
377.99997
  0
LINE
  8
0
  6
DASHED
 62
     7
 10
190.9989
 20
374
 11
190.9989
 21
377.99997
  0
LINE
  8
0
  6
DASHED
 62
     7
 10
191.21547
 20
379.25
 11
192.78259
 21
379.25
  0
LINE
  8
0
  6
DASHED
 62
     7
 10
190.9989
 20
377.99997
 11
192.99892
 21
377.99997
  0
LINE
  8
0
  6
CENTER
 62
     7
 10
197.9989
 20
371.60004
 11
197.9989
 21
380.06247
  0
LINE
  8
0
  6
CENTER
 62
     7
 10
191.9989
 20
426.36768
 11
191.9989
 21
419.93753
  0
LINE
  8
0
  6
CENTER
 62
     7
 10
197.9989
 20
426.36768
 11
197.9989
 21
419.93753
  0
LINE
  8
0
  6
PHANTOM
 62
     7
 10
341.80005
 20
367.59982
 11
338.19995
 21
367.59982
  0
LINE
  8
0
  6
PHANTOM
 62
     7
 10
329.80005
 20
367.69983
 11
318.19995
 21
367.69983
  0
LINE
  8
0
  6
PHANTOM
 62
     7
 10
350
 20
374.79984
 11
345
 21
374.79984
  0
LINE
  8
0
  6
PHANTOM
 62
     7
 10
324.19995
 20
375.19983
 11
324.19995
 21
373.19983
  0
LINE
  8
0
  6
PHANTOM
 62
     7
 10
345
 20
375.19983
 11
345
 21
373.19983
  0
LINE
  8
0
  6
PHANTOM
 62
     7
 10
318.19995
 20
368.59982
 11
318.19995
 21
367.69983
  0
LINE
  8
0
  6
PHANTOM
 62
     7
 10
329.80005
 20
368.59982
 11
329.80005
 21
367.69983
  0
LINE
  8
0
  6
PHANTOM
 62
     7
 10
317.80005
 20
374.79984
 11
317.80005
 21
368.59982
  0
LINE
  8
0
  6
PHANTOM
 62
     7
 10
350
 20
368.59982
 11
317.80005
 21
368.59982
  0
LINE
  8
0
  6
PHANTOM
 62
     7
 10
345.19995
 20
374.79984
 11
345.19995
 21
368.59982
  0
LINE
  8
0
  6
PHANTOM
 62
     7
 10
350
 20
374.79984
 11
350
 21
368.59982
  0
LINE
  8
0
  6
PHANTOM
 62
     7
 10
345
 20
373.19983
 11
324.19995
 21
373.19983
  0
LINE
  8
0
  6
PHANTOM
 62
     7
 10
324.19995
 20
374.79984
 11
317.80005
 21
374.79984
  0
LINE
  8
0
  6
PHANTOM
 62
     7
 10
350
 20
370.39984
 11
353
 21
370.39984
  0
LINE
  8
0
  6
PHANTOM
 62
     7
 10
350
 20
373.39984
 11
353
 21
373.39984
  0
LINE
  8
0
  6
PHANTOM
 62
     7
 10
142.99976
 20
375.19983
 11
178.39905
 21
375.19983
  0
LINE
  8
0
  6
PHANTOM
 62
     7
 10
142.99976
 20
375.19983
 11
142.99976
 21
380.19983
  0
LINE
  8
0
  6
PHANTOM
 62
     7
 10
353.49988
 20
380.19983
 11
353.99976
 21
380.19983
  0
LINE
  8
0
  6
PHANTOM
 62
     7
 10
147.99988
 20
380.19983
 11
149
 21
380.19983
  0
LINE
  8
0
  6
PHANTOM
 62
     7
 10
354
 20
375.19983
 11
354
 21
380.19983
  0
LINE
  8
0
  6
PHANTOM
 62
     7
 10
348.99988
 20
380.19983
 11
349.49976
 21
380.19983
  0
LINE
  8
0
  6
PHANTOM
 62
     7
 10
154.79968
 20
367.59982
 11
158.39978
 21
367.59982
  0
LINE
  8
0
  6
PHANTOM
 62
     7
 10
166.79968
 20
367.69983
 11
178.39978
 21
367.69983
  0
LINE
  8
0
  6
PHANTOM
 62
     7
 10
146.59973
 20
374.79984
 11
151.59973
 21
374.79984
  0
LINE
  8
0
  6
PHANTOM
 62
     7
 10
172.39978
 20
375.19983
 11
172.39978
 21
373.19983
  0
LINE
  8
0
  6
PHANTOM
 62
     7
 10
151.59973
 20
375.19983
 11
151.59973
 21
373.19983
  0
LINE
  8
0
  6
PHANTOM
 62
     7
 10
178.39978
 20
368.59982
 11
178.39978
 21
367.69983
  0
LINE
  8
0
  6
PHANTOM
 62
     7
 10
166.79968
 20
368.59982
 11
166.79968
 21
367.69983
  0
LINE
  8
0
  6
PHANTOM
 62
     7
 10
178.79968
 20
374
 11
178.79968
 21
368.59982
  0
LINE
  8
0
  6
PHANTOM
 62
     7
 10
146.59973
 20
368.59982
 11
178.79968
 21
368.59982
  0
LINE
  8
0
  6
PHANTOM
 62
     7
 10
151.39978
 20
374.79984
 11
151.39978
 21
368.59982
  0
LINE
  8
0
  6
PHANTOM
 62
     7
 10
146.59973
 20
374.79984
 11
146.59973
 21
368.59982
  0
LINE
  8
0
  6
PHANTOM
 62
     7
 10
151.59973
 20
373.19983
 11
172.39978
 21
373.19983
  0
LINE
  8
0
  6
PHANTOM
 62
     7
 10
172.39978
 20
374.79984
 11
178.39905
 21
374.79984
  0
LINE
  8
0
  6
PHANTOM
 62
     7
 10
146.59973
 20
370.39984
 11
143.59973
 21
370.39984
  0
LINE
  8
0
  6
PHANTOM
 62
     7
 10
146.59973
 20
373.39984
 11
143.59973
 21
373.39984
  0
LINE
  8
0
  6
PHANTOM
 62
     7
 10
199.99957
 20
365.89999
 11
189.99957
 21
365.89999
  0
LINE
  8
0
  6
PHANTOM
 62
     7
 10
199.99957
 20
374
 11
199.99957
 21
365.89999
  0
LINE
  8
0
  6
PHANTOM
 62
     7
 10
189.99957
 20
374
 11
189.99957
 21
365.89999
  0
LINE
  8
0
  6
PHANTOM
 62
     7
 10
199.99957
 20
373.20001
 11
189.99957
 21
373.20001
  0
LINE
  8
0
  6
PHANTOM
 62
     7
 10
196.9989
 20
371.60004
 11
198.9989
 21
371.60004
  0
LINE
  8
0
  6
PHANTOM
 62
     7
 10
195.9989
 20
373.20001
 11
195.9989
 21
372.60004
  0
LINE
  8
0
  6
PHANTOM
 62
     7
 10
194.00024
 20
373.20001
 11
194.00024
 21
372.60004
  0
LINE
  8
0
  6
PHANTOM
 62
     7
 10
193.00024
 20
371.60004
 11
191.00024
 21
371.60004
  0
LINE
  8
0
  6
PHANTOM
 62
     7
 10
142.99976
 20
424.80017
 11
178.39905
 21
424.80017
  0
LINE
  8
0
  6
PHANTOM
 62
     7
 10
142.99976
 20
424.80017
 11
142.99976
 21
419.80017
  0
LINE
  8
0
  6
PHANTOM
 62
     7
 10
353.49988
 20
419.80017
 11
353.99976
 21
419.80017
  0
LINE
  8
0
  6
PHANTOM
 62
     7
 10
147.99988
 20
419.80017
 11
149
 21
419.80017
  0
LINE
  8
0
  6
PHANTOM
 62
     7
 10
354
 20
424.80017
 11
354
 21
419.80017
  0
LINE
  8
0
  6
PHANTOM
 62
     7
 10
348.99988
 20
419.80017
 11
349.49976
 21
419.80017
  0
LINE
  8
0
  6
PHANTOM
 62
     7
 10
211.6001
 20
375.19983
 11
354
 21
375.19983
  0
LINE
  8
0
  6
PHANTOM
 62
     7
 10
211.6001
 20
424.80017
 11
354
 21
424.80017
  0
LINE
  8
0
  6
CENTER
 62
     7
 10
-19.820251
 20
100.30029
 11
-13.780273
 21
100.30029
  0
LINE
  8
0
  6
CENTER
 62
     7
 10
-16.800293
 20
103.32031
 11
-16.800293
 21
97.280273
  0
LINE
  8
0
  6
CENTER
 62
     7
 10
-21.069946
 20
97
 11
-12.740845
 21
97
  0
LINE
  8
0
  6
CENTER
 62
     7
 10
16.799927
 20
103.32031
 11
16.799927
 21
97.280273
  0
LINE
  8
0
  6
DASHED
 62
     7
 10
14.299726
 20
98.065788
 11
13.683759
 21
96.998901
  0
LINE
  8
0
  6
DASHED
 62
     7
 10
14.300317
 20
95.933746
 11
13.684716
 21
96.999992
  0
LINE
  8
0
  6
DASHED
 62
     7
 10
15.800197
 20
98.300232
 11
15.395515
 21
98.066589
  0
LINE
  8
0
  6
DASHED
 62
     7
 10
15.799696
 20
95.699455
 11
15.395332
 21
95.932915
  0
LINE
  8
0
  6
DASHED
 62
     7
 10
14.299805
 20
95.933594
 11
14.299805
 21
98.066406
  0
LINE
  8
0
  6
DASHED
 62
     7
 10
19.800293
 20
98.066406
 11
14.299805
 21
98.066406
  0
LINE
  8
0
  6
DASHED
 62
     7
 10
19.800293
 20
95.933594
 11
14.299805
 21
95.933594
  0
LINE
  8
0
  6
DASHED
 62
     7
 10
19.800293
 20
98.300049
 11
15.799805
 21
98.300049
  0
LINE
  8
0
  6
DASHED
 62
     7
 10
19.800293
 20
95.699951
 11
15.799805
 21
95.699951
  0
LINE
  8
0
  6
DASHED
 62
     7
 10
15.799805
 20
95.699951
 11
15.799805
 21
98.300049
  0
LINE
  8
0
  6
CENTER
 62
     7
 10
21.070313
 20
97
 11
12.740479
 21
97
  0
LINE
  8
0
  6
CONTINUOUS
 62
     7
 10
-19.800613
 20
91.600609
 11
-20.000782
 21
91.400436
  0
LINE
  8
0
  6
CONTINUOUS
 62
     7
 10
19.799099
 20
91.600494
 11
19.999008
 21
91.400581
  0
LINE
  8
0
  6
CENTER
 62
     7
 10
-10.158024
 20
94.134338
 11
-14.955786
 21
91.364349
  0
LINE
  8
0
  6
CENTER
 62
     7
 10
10.158645
 20
94.134827
 11
14.956459
 21
91.364807
  0
LINE
  8
0
  6
CENTER
 62
     7
 10
-10.158594
 20
105.86499
 11
-14.956409
 21
108.63501
  0
LINE
  8
0
  6
CENTER
 62
     7
 10
10.159267
 20
105.86453
 11
14.957059
 21
108.63454
  0
LINE
  8
0
  6
CONTINUOUS
 62
     7
 10
20.000244
 20
88.090088
 11
20.000244
 21
91.399902
  0
LINE
  8
0
  6
CONTINUOUS
 62
     7
 10
-20.000244
 20
88.090088
 11
-20.000244
 21
91.399902
  0
LINE
  8
0
  6
CENTER
 62
     7
 10
13.779968
 20
90.800049
 11
19.819946
 21
90.800049
  0
LINE
  8
0
  6
CENTER
 62
     7
 10
-19.820251
 20
90.800049
 11
-13.780273
 21
90.800049
  0
LINE
  8
0
  6
CENTER
 62
     7
 10
-16.800293
 20
93.820068
 11
-16.800293
 21
87.780029
  0
LINE
  8
0
  6
CENTER
 62
     7
 10
13.779968
 20
100.30029
 11
19.819946
 21
100.30029
  0
LINE
  8
0
  6
CENTER
 62
     7
 10
16.799927
 20
93.820068
 11
16.799927
 21
87.780029
  0
LINE
  8
0
  6
CONTINUOUS
 62
     7
 10
4.7929688
 20
87.350342
 11
-4.7929688
 21
87.350342
  0
LINE
  8
0
  6
CONTINUOUS
 62
     7
 10
5.1453643
 20
87.204292
 11
5.3488994
 21
87.000755
  0
LINE
  8
0
  6
CONTINUOUS
 62
     7
 10
5.3496094
 20
87.000244
 11
18.909668
 21
87.000244
  0
LINE
  8
0
  6
CONTINUOUS
 62
     7
 10
-5.1473956
 20
87.204407
 11
-5.3509307
 21
87.000877
  0
LINE
  8
0
  6
CONTINUOUS
 62
     7
 10
-5.3503418
 20
87.000244
 11
-18.909668
 21
87.000244
  0
LINE
  8
0
  6
CONTINUOUS
 62
     7
 10
1.1213193
 20
106.65665
 11
6.655086
 21
101.12289
  0
LINE
  8
0
  6
CONTINUOUS
 62
     7
 10
-6.6570282
 20
101.12289
 11
-1.1232613
 21
106.65665
  0
LINE
  8
0
  6
CONTINUOUS
 62
     7
 10
-6.6567688
 20
98.878563
 11
-1.1230024
 21
93.344795
  0
LINE
  8
0
  6
CONTINUOUS
 62
     7
 10
1.1213193
 20
93.344536
 11
6.655086
 21
98.878304
  0
LINE
  8
0
  6
CENTER
 62
     7
 10
11.27002
 20
100
 11
-11.269958
 21
100
  0
LINE
  8
0
  6
CONTINUOUS
 62
     7
 10
-18.050404
 20
90.0784
 11
-16.800205
 21
89.356598
  0
LINE
  8
0
  6
CONTINUOUS
 62
     7
 10
-16.800312
 20
92.243622
 11
-15.550115
 21
91.52182
  0
LINE
  8
0
  6
CONTINUOUS
 62
     7
 10
-16.799997
 20
89.355736
 11
-15.549799
 21
90.077538
  0
LINE
  8
0
  6
CONTINUOUS
 62
     7
 10
-18.050056
 20
91.520905
 11
-16.79986
 21
92.242706
  0
LINE
  8
0
  6
CONTINUOUS
 62
     7
 10
-18.049805
 20
91.521484
 11
-18.049805
 21
90.078613
  0
LINE
  8
0
  6
CONTINUOUS
 62
     7
 10
-15.550049
 20
91.521484
 11
-15.550049
 21
90.078613
  0
LINE
  8
0
  6
CONTINUOUS
 62
     7
 10
18.799805
 20
117.00024
 11
-18.799805
 21
117.00024
  0
LINE
  8
0
  6
CONTINUOUS
 62
     7
 10
19.799927
 20
90.500122
 11
19.799927
 21
116.00012
  0
LINE
  8
0
  6
CONTINUOUS
 62
     7
 10
-19.800293
 20
90.500122
 11
-19.800293
 21
116.00012
  0
LINE
  8
0
  6
CONTINUOUS
 62
     7
 10
16.799927
 20
87.500122
 11
-16.800293
 21
87.500122
  0
LINE
  8
0
  6
CENTER
 62
     7
 10
0
 20
85.730225
 11
0
 21
118.27026
  0
LINE
  8
0
  6
CENTER
 62
     7
 10
9
 20
17.000244
 11
9
 21
19.270504
  0
LINE
  8
0
  6
CENTER
 62
     7
 10
-9
 20
17.000244
 11
-9
 21
19.270504
  0
LINE
  8
0
  6
CONTINUOUS
 62
     7
 10
-12.25
 20
17.500488
 11
-5.75
 21
17.500488
  0
LINE
  8
0
  6
CONTINUOUS
 62
     7
 10
10.5
 20
18.000504
 11
7.5
 21
18.000504
  0
LINE
  8
0
  6
CONTINUOUS
 62
     7
 10
-10.5
 20
18.000504
 11
-7.5
 21
18.000504
  0
LINE
  8
0
  6
CONTINUOUS
 62
     7
 10
-7.5001278
 20
17.700464
 11
-5.7500453
 21
17.500456
  0
LINE
  8
0
  6
CONTINUOUS
 62
     7
 10
12.25
 20
17.500488
 11
5.75
 21
17.500488
  0
LINE
  8
0
  6
CONTINUOUS
 62
     7
 10
7.4998913
 20
17.70052
 11
5.7500505
 21
17.500538
  0
LINE
  8
0
  6
CONTINUOUS
 62
     7
 10
5.75
 20
17.000496
 11
5.75
 21
17.500488
  0
LINE
  8
0
  6
CONTINUOUS
 62
     7
 10
12.25
 20
17.000496
 11
12.25
 21
17.500488
  0
LINE
  8
0
  6
CONTINUOUS
 62
     7
 10
10.499829
 20
17.70047
 11
12.249912
 21
17.500462
  0
LINE
  8
0
  6
CONTINUOUS
 62
     7
 10
7.5
 20
17.700485
 11
7.5
 21
18.000504
  0
LINE
  8
0
  6
CONTINUOUS
 62
     7
 10
10.5
 20
17.700485
 11
7.5
 21
17.700485
  0
LINE
  8
0
  6
CONTINUOUS
 62
     7
 10
-7.5
 20
17.700485
 11
-7.5
 21
18.000504
  0
LINE
  8
0
  6
CONTINUOUS
 62
     7
 10
-12.25
 20
17.000496
 11
-12.25
 21
17.500488
  0
LINE
  8
0
  6
CONTINUOUS
 62
     7
 10
-10.5
 20
17.700485
 11
-10.5
 21
18.000504
  0
LINE
  8
0
  6
CONTINUOUS
 62
     7
 10
-5.75
 20
17.000496
 11
-5.75
 21
17.500488
  0
LINE
  8
0
  6
CONTINUOUS
 62
     7
 10
-10.5
 20
17.700485
 11
-7.5
 21
17.700485
  0
LINE
  8
0
  6
CONTINUOUS
 62
     7
 10
-19.800293
 20
4.5005035
 11
-25
 21
4.5005035
  0
LINE
  8
0
  6
CONTINUOUS
 62
     7
 10
24.999756
 20
4.5005035
 11
19.799927
 21
4.5005035
  0
LINE
  8
0
  6
CENTER
 62
     7
 10
22.5
 20
3.2305036
 11
22.5
 21
20.270489
  0
LINE
  8
0
  6
CENTER
 62
     7
 10
-22.5
 20
3.2305036
 11
-22.5
 21
20.270489
  0
LINE
  8
0
  6
CONTINUOUS
 62
     7
 10
-18.5
 20
19.000488
 11
-26
 21
19.000488
  0
LINE
  8
0
  6
CONTINUOUS
 62
     7
 10
26
 20
19.000488
 11
18.5
 21
19.000488
  0
LINE
  8
0
  6
CONTINUOUS
 62
     7
 10
-25.000092
 20
4.5003843
 11
-26.000156
 21
5.5004501
  0
LINE
  8
0
  6
CONTINUOUS
 62
     7
 10
24.999876
 20
4.5004258
 11
25.999899
 21
5.5004487
  0
LINE
  8
0
  6
CONTINUOUS
 62
     7
 10
26
 20
5.5004883
 11
26
 21
19.000488
  0
LINE
  8
0
  6
CONTINUOUS
 62
     7
 10
-26
 20
5.5004883
 11
-26
 21
19.000488
  0
LINE
  8
0
  6
CONTINUOUS
 62
     7
 10
10.5
 20
17.700485
 11
10.5
 21
18.000504
  0
LINE
  8
0
  6
CONTINUOUS
 62
     7
 10
-10.500064
 20
17.70051
 11
-12.250147
 21
17.5005
  0
LINE
  8
0
  6
CONTINUOUS
 62
     7
 10
18.5
 20
17.000244
 11
18.5
 21
19.000488
  0
LINE
  8
0
  6
CONTINUOUS
 62
     7
 10
-18.5
 20
17.000244
 11
-18.5
 21
19.000488
  0
LINE
  8
0
  6
CONTINUOUS
 62
     7
 10
198.21724
 20
-1.9662271
 11
198.55446
 21
-1.3821462
  0
LINE
  8
0
  6
CONTINUOUS
 62
     7
 10
201.76074
 20
-1.9662565
 11
201.43176
 21
-1.3964473
  0
LINE
  8
0
  6
CONTINUOUS
 62
     7
 10
218.79999
 20
15.000244
 11
181.20001
 21
15.000244
  0
LINE
  8
0
  6
CONTINUOUS
 62
     7
 10
218.79999
 20
17.000244
 11
181.20001
 21
17.000244
  0
LINE
  8
0
  6
DASHED
 62
     7
 10
185.70029
 20
-1.9333558
 11
186.31607
 21
-2.9999244
  0
LINE
  8
0
  6
DASHED
 62
     7
 10
185.69951
 20
-4.0673556
 11
186.31548
 21
-3.0004697
  0
LINE
  8
0
  6
DASHED
 62
     7
 10
184.19946
 20
-1.7005559
 11
184.60399
 21
-1.9341069
  0
LINE
  8
0
  6
DASHED
 62
     7
 10
184.20032
 20
-4.2996855
 11
184.6048
 21
-4.066165
  0
LINE
  8
0
  6
DASHED
 62
     7
 10
185.70007
 20
-4.0664063
 11
185.70007
 21
-1.9335938
  0
LINE
  8
0
  6
DASHED
 62
     7
 10
180.20001
 20
-1.9335938
 11
185.70007
 21
-1.9335938
  0
LINE
  8
0
  6
DASHED
 62
     7
 10
180.20001
 20
-4.0664063
 11
185.70007
 21
-4.0664063
  0
LINE
  8
0
  6
DASHED
 62
     7
 10
180.20001
 20
-1.6999512
 11
184.20007
 21
-1.6999512
  0
LINE
  8
0
  6
DASHED
 62
     7
 10
180.20001
 20
-4.3000488
 11
184.20007
 21
-4.3000488
  0
LINE
  8
0
  6
CENTER
 62
     7
 10
178.93005
 20
-3
 11
187.2594
 21
-3
  0
LINE
  8
0
  6
DASHED
 62
     7
 10
184.20007
 20
-4.3000488
 11
184.20007
 21
-1.6999512
  0
LINE
  8
0
  6
CENTER
 62
     7
 10
220.81995
 20
0.29992676
 11
212.77997
 21
0.29992676
  0
LINE
  8
0
  6
CONTINUOUS
 62
     7
 10
180.2002
 20
-6.9998965
 11
179.99977
 21
-7.2003241
  0
LINE
  8
0
  6
CONTINUOUS
 62
     7
 10
219.79993
 20
-6.9999661
 11
219.99983
 21
-7.1998754
  0
LINE
  8
0
  6
CENTER
 62
     7
 10
221.07001
 20
-3
 11
212.74066
 21
-3
  0
LINE
  8
0
  6
CONTINUOUS
 62
     7
 10
220.00006
 20
-11.909912
 11
220.00006
 21
-7.2000732
  0
LINE
  8
0
  6
CONTINUOUS
 62
     7
 10
180.00006
 20
-11.909912
 11
180.00006
 21
-7.199707
  0
LINE
  8
0
  6
CONTINUOUS
 62
     7
 10
213
 20
15
 11
213
 21
-12.499878
  0
LINE
  8
0
  6
CONTINUOUS
 62
     7
 10
187
 20
15
 11
187
 21
-12.499878
  0
LINE
  8
0
  6
CONTINUOUS
 62
     7
 10
181.19975
 20
-12.5
 11
180.19968
 21
-11.499933
  0
LINE
  8
0
  6
CONTINUOUS
 62
     7
 10
218.79987
 20
-12.499551
 11
219.79967
 21
-11.499744
  0
LINE
  8
0
  6
CONTINUOUS
 62
     7
 10
218.79959
 20
15.000179
 11
219.79991
 21
13.999855
  0
LINE
  8
0
  6
CONTINUOUS
 62
     7
 10
181.19994
 20
15.000207
 11
180.19987
 21
14.000141
  0
LINE
  8
0
  6
CENTER
 62
     7
 10
183.20001
 20
-3.7200928
 11
183.20001
 21
4.3199463
  0
LINE
  8
0
  6
CENTER
 62
     7
 10
187.22003
 20
0.29992676
 11
179.17999
 21
0.29992676
  0
LINE
  8
0
  6
CENTER
 62
     7
 10
216.79999
 20
-13.219971
 11
216.79999
 21
-5.1799316
  0
LINE
  8
0
  6
CENTER
 62
     7
 10
187.22003
 20
-9.1999512
 11
179.17999
 21
-9.1999512
  0
LINE
  8
0
  6
CENTER
 62
     7
 10
183.20001
 20
-13.219971
 11
183.20001
 21
-5.1799316
  0
LINE
  8
0
  6
CONTINUOUS
 62
     7
 10
205.34998
 20
-12.999756
 11
218.90997
 21
-12.999756
  0
LINE
  8
0
  6
CONTINUOUS
 62
     7
 10
194.65009
 20
-12.999756
 11
181.09009
 21
-12.999756
  0
LINE
  8
0
  6
CONTINUOUS
 62
     7
 10
205.14636
 20
-12.796223
 11
205.3499
 21
-12.999757
  0
LINE
  8
0
  6
CONTINUOUS
 62
     7
 10
194.85368
 20
-12.796239
 11
194.65015
 21
-12.999774
  0
LINE
  8
0
  6
CONTINUOUS
 62
     7
 10
204.79285
 20
-12.649658
 11
195.20721
 21
-12.649658
  0
LINE
  8
0
  6
CONTINUOUS
 62
     7
 10
180.20001
 20
-11.499756
 11
180.20001
 21
16.000244
  0
LINE
  8
0
  6
CENTER
 62
     7
 10
204.77002
 20
0
 11
195.22998
 21
0
  0
LINE
  8
0
  6
CENTER
 62
     7
 10
200
 20
-14.269775
 11
200
 21
18.270264
  0
LINE
  8
0
  6
CONTINUOUS
 62
     7
 10
219.79999
 20
-11.499756
 11
219.79999
 21
16.000244
  0
LINE
  8
0
  6
CONTINUOUS
 62
     7
 10
181.95021
 20
-9.9217386
 11
183.20009
 21
-10.643357
  0
LINE
  8
0
  6
CONTINUOUS
 62
     7
 10
183.20027
 20
-7.7565699
 11
184.45015
 21
-8.4781885
  0
LINE
  8
0
  6
CONTINUOUS
 62
     7
 10
183.20024
 20
-10.643786
 11
184.45024
 21
-9.9221067
  0
LINE
  8
0
  6
CONTINUOUS
 62
     7
 10
181.95036
 20
-8.4789343
 11
183.20036
 21
-7.7572541
  0
LINE
  8
0
  6
CONTINUOUS
 62
     7
 10
181.95001
 20
-8.4785156
 11
181.95001
 21
-9.9217529
  0
LINE
  8
0
  6
CONTINUOUS
 62
     7
 10
184.45001
 20
-8.4785156
 11
184.45001
 21
-9.9217529
  0
LINE
  8
0
  6
CONTINUOUS
 62
     7
 10
218.80005
 20
-12.499878
 11
181.20001
 21
-12.499878
  0
LINE
  8
0
  6
CENTER
 62
     7
 10
216.79999
 20
-3.7200928
 11
216.79999
 21
4.3199463
  0
LINE
  8
0
  6
CENTER
 62
     7
 10
220.82001
 20
-9.1999512
 11
212.78003
 21
-9.1999512
  0
LINE
  8
0
  6
CENTER
 62
     7
 10
209
 20
10
 11
209
 21
19.270504
  0
LINE
  8
0
  6
CENTER
 62
     7
 10
191
 20
10
 11
191
 21
19.270504
  0
LINE
  8
0
  6
CONTINUOUS
 62
     7
 10
187.75
 20
17.500488
 11
194.25
 21
17.500488
  0
LINE
  8
0
  6
CONTINUOUS
 62
     7
 10
210.5
 20
18.000504
 11
207.5
 21
18.000504
  0
LINE
  8
0
  6
CONTINUOUS
 62
     7
 10
189.5
 20
18.000504
 11
192.5
 21
18.000504
  0
LINE
  8
0
  6
CONTINUOUS
 62
     7
 10
215.5
 20
15.000504
 11
215.5
 21
15.800491
  0
LINE
  8
0
  6
CONTINUOUS
 62
     7
 10
212.5
 20
15.000504
 11
212.5
 21
15.800491
  0
LINE
  8
0
  6
CONTINUOUS
 62
     7
 10
212.5
 20
15.800491
 11
215.5
 21
15.800491
  0
LINE
  8
0
  6
CONTINUOUS
 62
     7
 10
204.5
 20
15.000504
 11
204.5
 21
15.800491
  0
LINE
  8
0
  6
CONTINUOUS
 62
     7
 10
187.5
 20
15.000504
 11
187.5
 21
15.800491
  0
LINE
  8
0
  6
CONTINUOUS
 62
     7
 10
195.5
 20
15.000504
 11
195.5
 21
15.800491
  0
LINE
  8
0
  6
CONTINUOUS
 62
     7
 10
187.5
 20
15.800491
 11
184.5
 21
15.800491
  0
LINE
  8
0
  6
CONTINUOUS
 62
     7
 10
204.5
 20
15.800491
 11
195.5
 21
15.800491
  0
LINE
  8
0
  6
CONTINUOUS
 62
     7
 10
184.5
 20
15.000504
 11
184.5
 21
15.800491
  0
LINE
  8
0
  6
CONTINUOUS
 62
     7
 10
192.49988
 20
17.700466
 11
194.24995
 21
17.500456
  0
LINE
  8
0
  6
CONTINUOUS
 62
     7
 10
212.25
 20
17.500488
 11
205.75
 21
17.500488
  0
LINE
  8
0
  6
CONTINUOUS
 62
     7
 10
217.5
 20
15.500496
 11
217.5
 21
16.500504
  0
LINE
  8
0
  6
CONTINUOUS
 62
     7
 10
182.5
 20
15.500496
 11
182.5
 21
16.500504
  0
LINE
  8
0
  6
CONTINUOUS
 62
     7
 10
211.99988
 20
16.700432
 11
211.69984
 21
17.000477
  0
LINE
  8
0
  6
CONTINUOUS
 62
     7
 10
211.9998
 20
16.700392
 11
212.29984
 21
17.000429
  0
LINE
  8
0
  6
CONTINUOUS
 62
     7
 10
208.9998
 20
16.700466
 11
208.69995
 21
17.000338
  0
LINE
  8
0
  6
CONTINUOUS
 62
     7
 10
208.99982
 20
16.700434
 11
209.29985
 21
17.000471
  0
LINE
  8
0
  6
CONTINUOUS
 62
     7
 10
207.49989
 20
17.70052
 11
205.75005
 21
17.500538
  0
LINE
  8
0
  6
CONTINUOUS
 62
     7
 10
205.99995
 20
16.700369
 11
205.69992
 21
17.000414
  0
LINE
  8
0
  6
CONTINUOUS
 62
     7
 10
205.99997
 20
16.700262
 11
206.3
 21
17.000299
  0
LINE
  8
0
  6
CONTINUOUS
 62
     7
 10
202.99989
 20
16.700403
 11
202.69986
 21
17.000448
  0
LINE
  8
0
  6
CONTINUOUS
 62
     7
 10
202.9998
 20
16.700478
 11
203.2998
 21
17.000471
  0
LINE
  8
0
  6
CONTINUOUS
 62
     7
 10
205.75
 20
17.000496
 11
205.75
 21
17.500488
  0
LINE
  8
0
  6
CONTINUOUS
 62
     7
 10
188.00005
 20
16.700253
 11
188.30003
 21
17.000254
  0
LINE
  8
0
  6
CONTINUOUS
 62
     7
 10
187.99994
 20
16.700392
 11
187.69991
 21
17.000429
  0
LINE
  8
0
  6
CONTINUOUS
 62
     7
 10
191.00003
 20
16.700285
 11
191.3
 21
17.000286
  0
LINE
  8
0
  6
CONTINUOUS
 62
     7
 10
190.99997
 20
16.700392
 11
190.69994
 21
17.000429
  0
LINE
  8
0
  6
CONTINUOUS
 62
     7
 10
193.99997
 20
16.700275
 11
194.29994
 21
17.000277
  0
LINE
  8
0
  6
CONTINUOUS
 62
     7
 10
193.99995
 20
16.700348
 11
193.69992
 21
17.000385
  0
LINE
  8
0
  6
CONTINUOUS
 62
     7
 10
212.25
 20
17.000496
 11
212.25
 21
17.500488
  0
LINE
  8
0
  6
CONTINUOUS
 62
     7
 10
196.99994
 20
16.700308
 11
197.29993
 21
17.000309
  0
LINE
  8
0
  6
CONTINUOUS
 62
     7
 10
196.99997
 20
16.700348
 11
196.69994
 21
17.000385
  0
LINE
  8
0
  6
CONTINUOUS
 62
     7
 10
210.49983
 20
17.70047
 11
212.24991
 21
17.500462
  0
LINE
  8
0
  6
CONTINUOUS
 62
     7
 10
199.99992
 20
16.700346
 11
200.29991
 21
17.000349
  0
LINE
  8
0
  6
CONTINUOUS
 62
     7
 10
200
 20
16.700348
 11
199.69997
 21
17.000385
  0
LINE
  8
0
  6
CONTINUOUS
 62
     7
 10
207.5
 20
17.700485
 11
207.5
 21
18.000504
  0
LINE
  8
0
  6
CONTINUOUS
 62
     7
 10
210.5
 20
17.700485
 11
207.5
 21
17.700485
  0
LINE
  8
0
  6
CONTINUOUS
 62
     7
 10
192.5
 20
17.700485
 11
192.5
 21
18.000504
  0
LINE
  8
0
  6
CONTINUOUS
 62
     7
 10
187.75
 20
17.000496
 11
187.75
 21
17.500488
  0
LINE
  8
0
  6
CONTINUOUS
 62
     7
 10
189.5
 20
17.700485
 11
189.5
 21
18.000504
  0
LINE
  8
0
  6
CONTINUOUS
 62
     7
 10
194.25
 20
17.000496
 11
194.25
 21
17.500488
  0
LINE
  8
0
  6
CONTINUOUS
 62
     7
 10
189.5
 20
17.700485
 11
192.5
 21
17.700485
  0
LINE
  8
0
  6
CONTINUOUS
 62
     7
 10
180.20001
 20
4.5005035
 11
175
 21
4.5005035
  0
LINE
  8
0
  6
CONTINUOUS
 62
     7
 10
224.99976
 20
4.5005035
 11
219.79999
 21
4.5005035
  0
LINE
  8
0
  6
CENTER
 62
     7
 10
222.5
 20
3.2305036
 11
222.5
 21
20.270489
  0
LINE
  8
0
  6
CENTER
 62
     7
 10
177.5
 20
3.2305036
 11
177.5
 21
20.270489
  0
LINE
  8
0
  6
CONTINUOUS
 62
     7
 10
181.5
 20
19.000488
 11
174
 21
19.000488
  0
LINE
  8
0
  6
CONTINUOUS
 62
     7
 10
226
 20
19.000488
 11
218.5
 21
19.000488
  0
LINE
  8
0
  6
CONTINUOUS
 62
     7
 10
174.99991
 20
4.5003858
 11
173.99985
 21
5.5004516
  0
LINE
  8
0
  6
CONTINUOUS
 62
     7
 10
224.99988
 20
4.5004354
 11
225.99989
 21
5.5004578
  0
LINE
  8
0
  6
CONTINUOUS
 62
     7
 10
226
 20
5.5004883
 11
226
 21
19.000488
  0
LINE
  8
0
  6
CONTINUOUS
 62
     7
 10
174
 20
5.5004883
 11
174
 21
19.000488
  0
LINE
  8
0
  6
CONTINUOUS
 62
     7
 10
218.5
 20
17.000496
 11
218.5
 21
19.000488
  0
LINE
  8
0
  6
CONTINUOUS
 62
     7
 10
181.5
 20
17.000496
 11
181.5
 21
19.000488
  0
LINE
  8
0
  6
CONTINUOUS
 62
     7
 10
210.5
 20
17.700485
 11
210.5
 21
18.000504
  0
LINE
  8
0
  6
CONTINUOUS
 62
     7
 10
189.49994
 20
17.700508
 11
187.74985
 21
17.5005
  0
LINE
  8
0
  6
CENTER
 62
     7
 10
145.49976
 20
293.57001
 11
145.49976
 21
288.42999
  0
LINE
  8
0
  6
CENTER
 62
     7
 10
142.92975
 20
291
 11
148.06976
 21
291
  0
LINE
  8
0
  6
CENTER
 62
     7
 10
142.92975
 20
309
 11
148.06976
 21
309
  0
LINE
  8
0
  6
CENTER
 62
     7
 10
145.49976
 20
306.42999
 11
145.49976
 21
311.57001
  0
LINE
  8
0
  6
CONTINUOUS
 62
     7
 10
131.99951
 20
206.65701
 11
136.49951
 21
206.65701
  0
LINE
  8
0
  6
CONTINUOUS
 62
     7
 10
136.49954
 20
206.65707
 11
131.9995
 21
201.12207
  0
LINE
  8
0
  6
CONTINUOUS
 62
     7
 10
136.49954
 20
201.12204
 11
131.99954
 21
206.657
  0
LINE
  8
0
  6
PHANTOM
 62
     7
 10
241.80005
 20
367.59982
 11
238.19995
 21
367.59982
  0
LINE
  8
0
  6
PHANTOM
 62
     7
 10
229.80005
 20
367.69983
 11
218.19995
 21
367.69983
  0
LINE
  8
0
  6
PHANTOM
 62
     7
 10
250
 20
374.79984
 11
245
 21
374.79984
  0
LINE
  8
0
  6
PHANTOM
 62
     7
 10
224.19995
 20
375.19983
 11
224.19995
 21
373.19983
  0
LINE
  8
0
  6
PHANTOM
 62
     7
 10
245
 20
375.19983
 11
245
 21
373.19983
  0
LINE
  8
0
  6
PHANTOM
 62
     7
 10
218.19995
 20
368.59982
 11
218.19995
 21
367.69983
  0
LINE
  8
0
  6
PHANTOM
 62
     7
 10
229.80005
 20
368.59982
 11
229.80005
 21
367.69983
  0
LINE
  8
0
  6
PHANTOM
 62
     7
 10
217.80005
 20
374.79984
 11
217.80005
 21
368.59982
  0
LINE
  8
0
  6
PHANTOM
 62
     7
 10
250
 20
368.59982
 11
217.80005
 21
368.59982
  0
LINE
  8
0
  6
PHANTOM
 62
     7
 10
245.19995
 20
374.79984
 11
245.19995
 21
368.59982
  0
LINE
  8
0
  6
PHANTOM
 62
     7
 10
250
 20
374.79984
 11
250
 21
368.59982
  0
LINE
  8
0
  6
PHANTOM
 62
     7
 10
245
 20
373.19983
 11
224.19995
 21
373.19983
  0
LINE
  8
0
  6
PHANTOM
 62
     7
 10
224.19995
 20
374.79984
 11
217.80005
 21
374.79984
  0
LINE
  8
0
  6
PHANTOM
 62
     7
 10
250
 20
370.39984
 11
253
 21
370.39984
  0
LINE
  8
0
  6
PHANTOM
 62
     7
 10
250
 20
373.39984
 11
253
 21
373.39984
  0
LINE
  8
0
  6
PHANTOM
 62
     7
 10
263.00061
 20
297.24976
 11
263.00061
 21
311.6001
  0
LINE
  8
0
  6
PHANTOM
 62
     7
 10
262.60071
 20
297.24976
 11
264.10059
 21
297.24976
  0
LINE
  8
0
  6
PHANTOM
 62
     7
 10
264.10059
 20
296.74988
 11
265.85083
 21
296.74988
  0
LINE
  8
0
  6
CENTER
 62
     7
 10
260.69617
 20
294.99976
 11
269.36279
 21
294.99976
  0
LINE
  8
0
  6
PHANTOM
 62
     7
 10
264.10059
 20
293.25
 11
265.85083
 21
293.25
  0
LINE
  8
0
  6
PHANTOM
 62
     7
 10
264.10059
 20
297.24976
 11
264.10059
 21
292.74976
  0
LINE
  8
0
  6
PHANTOM
 62
     7
 10
262.60071
 20
292.74976
 11
264.10059
 21
292.74976
  0
LINE
  8
0
  6
PHANTOM
 62
     7
 10
262.00037
 20
293.39978
 11
262.60071
 21
293.39978
  0
LINE
  8
0
  6
PHANTOM
 62
     7
 10
262.00037
 20
296.6001
 11
262.60071
 21
296.6001
  0
LINE
  8
0
  6
PHANTOM
 62
     7
 10
236
 20
294.39972
 11
224.3999
 21
294.39972
  0
LINE
  8
0
  6
PHANTOM
 62
     7
 10
246.00049
 20
305.59979
 11
246.00049
 21
311.55029
  0
LINE
  8
0
  6
PHANTOM
 62
     7
 10
236
 20
305.59979
 11
236
 21
311.55029
  0
LINE
  8
0
  6
CENTER
 62
     7
 10
237.43018
 20
309
 11
244.57019
 21
309
  0
LINE
  8
0
  6
CENTER
 62
     7
 10
241.00012
 20
312.57001
 11
241.00012
 21
305.42999
  0
LINE
  8
0
  6
CENTER
 62
     7
 10
231.00024
 20
311.76996
 11
231.00024
 21
306.22998
  0
LINE
  8
0
  6
CENTER
 62
     7
 10
228.23022
 20
309
 11
233.77026
 21
309
  0
LINE
  8
0
  6
PHANTOM
 62
     7
 10
264.00085
 20
287.40015
 11
264.00085
 21
286.75012
  0
LINE
  8
0
  6
PHANTOM
 62
     7
 10
219.00024
 20
311.6001
 11
219.00024
 21
288.3999
  0
LINE
  8
0
  6
PHANTOM
 62
     7
 10
263.00061
 20
288.3999
 11
263.00061
 21
292.74976
  0
LINE
  8
0
  6
PHANTOM
 62
     7
 10
263.00058
 20
288.40085
 11
264.00064
 21
287.40079
  0
LINE
  8
0
  6
PHANTOM
 62
     7
 10
218.00027
 20
312.60019
 11
219.00035
 21
311.60013
  0
LINE
  8
0
  6
CONTINUOUS
 62
     7
 10
219.00043
 20
288.40018
 11
218.00037
 21
287.40012
  0
LINE
  8
0
  6
PHANTOM
 62
     7
 10
262.60071
 20
315.76245
 11
262.60071
 21
284.2384
  0
LINE
  8
0
  6
PHANTOM
 62
     7
 10
264.00064
 20
312.6008
 11
263.00058
 21
311.60074
  0
LINE
  8
0
  6
PHANTOM
 62
     7
 10
220.00012
 20
311.55029
 11
220.00012
 21
288.44971
  0
LINE
  8
0
  6
PHANTOM
 62
     7
 10
262.00037
 20
311.55029
 11
262.00037
 21
288.44971
  0
LINE
  8
0
  6
PHANTOM
 62
     7
 10
219.40015
 20
315.76245
 11
219.40015
 21
284.2384
  0
LINE
  8
0
  6
PHANTOM
 62
     7
 10
219.40015
 20
284.2384
 11
262.60071
 21
284.2384
  0
LINE
  8
0
  6
PHANTOM
 62
     7
 10
219.40015
 20
288.44971
 11
262.60071
 21
288.44971
  0
LINE
  8
0
  6
PHANTOM
 62
     7
 10
219.40015
 20
311.55029
 11
262.60071
 21
311.55029
  0
LINE
  8
0
  6
PHANTOM
 62
     7
 10
219.40015
 20
315.76245
 11
262.60071
 21
315.76245
  0
LINE
  8
0
  6
PHANTOM
 62
     7
 10
220.00037
 20
288.60022
 11
224.3999
 21
288.60022
  0
LINE
  8
0
  6
PHANTOM
 62
     7
 10
264.00085
 20
313.25024
 11
264.00085
 21
312.60022
  0
LINE
  8
0
  6
PHANTOM
 62
     7
 10
262.00037
 20
311.40015
 11
257.60095
 21
311.40015
  0
LINE
  8
0
  6
PHANTOM
 62
     7
 10
262.00037
 20
288.60022
 11
257.60095
 21
288.60022
  0
LINE
  8
0
  6
PHANTOM
 62
     7
 10
220.00037
 20
311.40015
 11
224.3999
 21
311.40015
  0
LINE
  8
0
  6
CENTER
 62
     7
 10
228.23022
 20
291
 11
233.77026
 21
291
  0
LINE
  8
0
  6
CENTER
 62
     7
 10
231.00024
 20
293.76996
 11
231.00024
 21
288.22998
  0
LINE
  8
0
  6
PHANTOM
 62
     7
 10
257.60095
 20
288.50024
 11
246.00049
 21
288.50024
  0
LINE
  8
0
  6
CENTER
 62
     7
 10
251.00061
 20
293.76996
 11
251.00061
 21
288.22998
  0
LINE
  8
0
  6
CENTER
 62
     7
 10
248.23059
 20
291
 11
253.77063
 21
291
  0
LINE
  8
0
  6
PHANTOM
 62
     7
 10
236
 20
288.50024
 11
224.3999
 21
288.50024
  0
LINE
  8
0
  6
PHANTOM
 62
     7
 10
236
 20
305.59979
 11
224.3999
 21
305.59979
  0
LINE
  8
0
  6
PHANTOM
 62
     7
 10
224.3999
 20
288.44971
 11
224.3999
 21
311.55029
  0
LINE
  8
0
  6
PHANTOM
 62
     7
 10
257.60095
 20
288.44971
 11
257.60095
 21
311.55029
  0
LINE
  8
0
  6
CENTER
 62
     7
 10
251.00061
 20
311.76996
 11
251.00061
 21
306.22998
  0
LINE
  8
0
  6
CENTER
 62
     7
 10
248.23059
 20
309
 11
253.77063
 21
309
  0
LINE
  8
0
  6
PHANTOM
 62
     7
 10
236
 20
311.50012
 11
224.3999
 21
311.50012
  0
LINE
  8
0
  6
PHANTOM
 62
     7
 10
236
 20
288.44971
 11
236
 21
294.39972
  0
LINE
  8
0
  6
PHANTOM
 62
     7
 10
246.00049
 20
288.44971
 11
246.00049
 21
294.39972
  0
LINE
  8
0
  6
PHANTOM
 62
     7
 10
257.60095
 20
311.50012
 11
246.00049
 21
311.50012
  0
LINE
  8
0
  6
PHANTOM
 62
     7
 10
257.60095
 20
294.39972
 11
246.00049
 21
294.39972
  0
LINE
  8
0
  6
PHANTOM
 62
     7
 10
257.60095
 20
305.59979
 11
246.00049
 21
305.59979
  0
LINE
  8
0
  6
CONTINUOUS
 62
     7
 10
216.99976
 20
303
 11
342.99988
 21
303
  0
LINE
  8
0
  6
CONTINUOUS
 62
     7
 10
216.99976
 20
302.6001
 11
342.99988
 21
302.6001
  0
LINE
  8
0
  6
CONTINUOUS
 62
     7
 10
216.99976
 20
297.3999
 11
342.99988
 21
297.3999
  0
LINE
  8
0
  6
CONTINUOUS
 62
     7
 10
216.99976
 20
297
 11
342.99988
 21
297
  0
LINE
  8
0
  6
PHANTOM
 62
     7
 10
219
 20
205.39941
 11
219
 21
203.09961
  0
LINE
  8
0
  6
PHANTOM
 62
     7
 10
264.1001
 20
205.14966
 11
265.85034
 21
205.14966
  0
LINE
  8
0
  6
PHANTOM
 62
     7
 10
262.6001
 20
205.6499
 11
264.1001
 21
205.6499
  0
LINE
  8
0
  6
PHANTOM
 62
     7
 10
264.1001
 20
205.6499
 11
264.1001
 21
203
  0
LINE
  8
0
  6
CENTER
 62
     7
 10
262.6001
 20
203.3999
 11
269.3623
 21
203.3999
  0
LINE
  8
0
  6
PHANTOM
 62
     7
 10
246.00024
 20
206.09973
 11
246.00024
 21
206.99976
  0
LINE
  8
0
  6
PHANTOM
 62
     7
 10
236
 20
206.09973
 11
236
 21
206.99976
  0
LINE
  8
0
  6
PHANTOM
 62
     7
 10
257.60034
 20
205.69971
 11
261.5
 21
205.69971
  0
LINE
  8
0
  6
PHANTOM
 62
     7
 10
262.00012
 20
203.90002
 11
262.00012
 21
205.39941
  0
LINE
  8
0
  6
PHANTOM
 62
     7
 10
262.6001
 20
203.09961
 11
264.00024
 21
203.09961
  0
LINE
  8
0
  6
PHANTOM
 62
     7
 10
262.00012
 20
205.39941
 11
263
 21
205.39941
  0
LINE
  8
0
  6
PHANTOM
 62
     7
 10
218
 20
203.09961
 11
219.40015
 21
203.09961
  0
LINE
  8
0
  6
PHANTOM
 62
     7
 10
219.40015
 20
205.39941
 11
219.40015
 21
202.80005
  0
LINE
  8
0
  6
PHANTOM
 62
     7
 10
262.6001
 20
205.6499
 11
262.6001
 21
202.80005
  0
LINE
  8
0
  6
PHANTOM
 62
     7
 10
263
 20
205.39941
 11
263
 21
203.09961
  0
LINE
  8
0
  6
PHANTOM
 62
     7
 10
264.00024
 20
203.09961
 11
264.00024
 21
202.80005
  0
LINE
  8
0
  6
PHANTOM
 62
     7
 10
219
 20
205.39941
 11
220
 21
205.39941
  0
LINE
  8
0
  6
PHANTOM
 62
     7
 10
225.00026
 20
207.00041
 11
224.40028
 21
206.40042
  0
LINE
  8
0
  6
PHANTOM
 62
     7
 10
224.40015
 20
205.69971
 11
220.5
 21
205.69971
  0
LINE
  8
0
  6
PHANTOM
 62
     7
 10
220
 20
203.90002
 11
220
 21
205.39941
  0
LINE
  8
0
  6
PHANTOM
 62
     7
 10
257.60019
 20
206.40018
 11
257.00012
 21
207.00024
  0
LINE
  8
0
  6
PHANTOM
 62
     7
 10
236
 20
206.99976
 11
225
 21
206.99976
  0
LINE
  8
0
  6
PHANTOM
 62
     7
 10
257
 20
206.99976
 11
246.00024
 21
206.99976
  0
LINE
  8
0
  6
PHANTOM
 62
     7
 10
219.40015
 20
203.90002
 11
262.60059
 21
203.90002
  0
LINE
  8
0
  6
PHANTOM
 62
     7
 10
257.60034
 20
206.09973
 11
224.40015
 21
206.09973
  0
LINE
  8
0
  6
PHANTOM
 62
     7
 10
257.60034
 20
218.99951
 11
257.60034
 21
203.90002
  0
LINE
  8
0
  6
PHANTOM
 62
     7
 10
224.40015
 20
218.99951
 11
257.60034
 21
218.99951
  0
LINE
  8
0
  6
PHANTOM
 62
     7
 10
224.40015
 20
204.49951
 11
257.60034
 21
204.49951
  0
LINE
  8
0
  6
PHANTOM
 62
     7
 10
224.40015
 20
218.99951
 11
224.40015
 21
203.90002
  0
LINE
  8
0
  6
PHANTOM
 62
     7
 10
224.3999
 20
418.5
 11
257.60095
 21
418.5
  0
LINE
  8
0
  6
PHANTOM
 62
     7
 10
257.60095
 20
415.7616
 11
262.60071
 21
415.7616
  0
LINE
  8
0
  6
PHANTOM
 62
     7
 10
257.60095
 20
384.23755
 11
262.60071
 21
384.23755
  0
LINE
  8
0
  6
PHANTOM
 62
     7
 10
257.60095
 20
411.55029
 11
262.60071
 21
411.55029
  0
LINE
  8
0
  6
PHANTOM
 62
     7
 10
257.60095
 20
388.44971
 11
262.60071
 21
388.44971
  0
LINE
  8
0
  6
PHANTOM
 62
     7
 10
224.3999
 20
381.5
 11
257.60095
 21
381.5
  0
LINE
  8
0
  6
PHANTOM
 62
     7
 10
263.00061
 20
397.24976
 11
263.00061
 21
411.6001
  0
LINE
  8
0
  6
PHANTOM
 62
     7
 10
262.60071
 20
397.24976
 11
264.10059
 21
397.24976
  0
LINE
  8
0
  6
PHANTOM
 62
     7
 10
264.10059
 20
396.74988
 11
265.85083
 21
396.74988
  0
LINE
  8
0
  6
CENTER
 62
     7
 10
260.69617
 20
394.99976
 11
269.36279
 21
394.99976
  0
LINE
  8
0
  6
PHANTOM
 62
     7
 10
264.10059
 20
393.25
 11
265.85083
 21
393.25
  0
LINE
  8
0
  6
PHANTOM
 62
     7
 10
264.10059
 20
397.24976
 11
264.10059
 21
392.74976
  0
LINE
  8
0
  6
PHANTOM
 62
     7
 10
262.60071
 20
392.74976
 11
264.10059
 21
392.74976
  0
LINE
  8
0
  6
PHANTOM
 62
     7
 10
262.00037
 20
393.39978
 11
262.60071
 21
393.39978
  0
LINE
  8
0
  6
PHANTOM
 62
     7
 10
262.00037
 20
396.6001
 11
262.60071
 21
396.6001
  0
LINE
  8
0
  6
PHANTOM
 62
     7
 10
257.60095
 20
426
 11
257.60095
 21
374
  0
LINE
  8
0
  6
PHANTOM
 62
     7
 10
224.3999
 20
374
 11
224.3999
 21
426
  0
LINE
  8
0
  6
PHANTOM
 62
     7
 10
264.00085
 20
412.59985
 11
264.00085
 21
413.24988
  0
LINE
  8
0
  6
PHANTOM
 62
     7
 10
219.00024
 20
388.3999
 11
219.00024
 21
411.6001
  0
LINE
  8
0
  6
PHANTOM
 62
     7
 10
263.00061
 20
388.3999
 11
263.00061
 21
392.74976
  0
LINE
  8
0
  6
PHANTOM
 62
     7
 10
263.00055
 20
411.59912
 11
264.00061
 21
412.59921
  0
LINE
  8
0
  6
PHANTOM
 62
     7
 10
218.00026
 20
387.39981
 11
219.00032
 21
388.39987
  0
LINE
  8
0
  6
PHANTOM
 62
     7
 10
219.00041
 20
411.59982
 11
218.00034
 21
412.59988
  0
LINE
  8
0
  6
PHANTOM
 62
     7
 10
262.60071
 20
384.23755
 11
262.60071
 21
415.7616
  0
LINE
  8
0
  6
PHANTOM
 62
     7
 10
264.00061
 20
387.3992
 11
263.00055
 21
388.39926
  0
LINE
  8
0
  6
PHANTOM
 62
     7
 10
220.00012
 20
388.44971
 11
220.00012
 21
411.55029
  0
LINE
  8
0
  6
PHANTOM
 62
     7
 10
262.00037
 20
388.44971
 11
262.00037
 21
411.55029
  0
LINE
  8
0
  6
PHANTOM
 62
     7
 10
219.40015
 20
384.23755
 11
219.40015
 21
415.7616
  0
LINE
  8
0
  6
PHANTOM
 62
     7
 10
219.40015
 20
415.7616
 11
224.3999
 21
415.7616
  0
LINE
  8
0
  6
PHANTOM
 62
     7
 10
219.40015
 20
411.55029
 11
224.3999
 21
411.55029
  0
LINE
  8
0
  6
PHANTOM
 62
     7
 10
219.40015
 20
388.44971
 11
224.3999
 21
388.44971
  0
LINE
  8
0
  6
PHANTOM
 62
     7
 10
219.40015
 20
384.23755
 11
224.3999
 21
384.23755
  0
LINE
  8
0
  6
PHANTOM
 62
     7
 10
220.00037
 20
411.39978
 11
224.3999
 21
411.39978
  0
LINE
  8
0
  6
PHANTOM
 62
     7
 10
264.00085
 20
386.74976
 11
264.00085
 21
387.39978
  0
LINE
  8
0
  6
PHANTOM
 62
     7
 10
262.00037
 20
388.59985
 11
257.60095
 21
388.59985
  0
LINE
  8
0
  6
PHANTOM
 62
     7
 10
262.00037
 20
411.39978
 11
257.60095
 21
411.39978
  0
LINE
  8
0
  6
PHANTOM
 62
     7
 10
220.00037
 20
388.59985
 11
224.3999
 21
388.59985
  0
LINE
  8
0
  6
PHANTOM
 62
     7
 10
224.3999
 20
374
 11
257.60095
 21
374
  0
LINE
  8
0
  6
PHANTOM
 62
     7
 10
224.3999
 20
426
 11
257.60095
 21
426
  0
LINE
  8
0
  6
CENTER
 62
     7
 10
247.73096
 20
377.5
 11
254.271
 21
377.5
  0
LINE
  8
0
  6
CENTER
 62
     7
 10
251.00098
 20
380.76999
 11
251.00098
 21
374.23001
  0
LINE
  8
0
  6
CENTER
 62
     7
 10
230.99927
 20
380.76999
 11
230.99927
 21
374.23001
  0
LINE
  8
0
  6
CENTER
 62
     7
 10
234.26929
 20
377.5
 11
227.72925
 21
377.5
  0
LINE
  8
0
  6
CENTER
 62
     7
 10
247.73096
 20
422.5
 11
254.271
 21
422.5
  0
LINE
  8
0
  6
CENTER
 62
     7
 10
251.00098
 20
419.23001
 11
251.00098
 21
425.76999
  0
LINE
  8
0
  6
CENTER
 62
     7
 10
234.26929
 20
422.5
 11
227.72925
 21
422.5
  0
LINE
  8
0
  6
CENTER
 62
     7
 10
230.99927
 20
419.23001
 11
230.99927
 21
425.76999
  0
LINE
  8
0
  6
CENTER
 62
     7
 10
248.99927
 20
313.51996
 11
248.99927
 21
304.47998
  0
LINE
  8
0
  6
CENTER
 62
     7
 10
253.51929
 20
309
 11
244.47925
 21
309
  0
LINE
  8
0
  6
CENTER
 62
     7
 10
248.99927
 20
295.51996
 11
248.99927
 21
286.47998
  0
LINE
  8
0
  6
CENTER
 62
     7
 10
253.51929
 20
291
 11
244.47925
 21
291
  0
LINE
  8
0
  6
CENTER
 62
     7
 10
248.99976
 20
185.72949
 11
248.99976
 21
193.26978
  0
LINE
  8
0
  6
CENTER
 62
     7
 10
248.99927
 20
413.51996
 11
248.99927
 21
404.47998
  0
LINE
  8
0
  6
CENTER
 62
     7
 10
253.51929
 20
409
 11
244.47925
 21
409
  0
LINE
  8
0
  6
CENTER
 62
     7
 10
248.99927
 20
395.51996
 11
248.99927
 21
386.47998
  0
LINE
  8
0
  6
CENTER
 62
     7
 10
253.51929
 20
391
 11
244.47925
 21
391
  0
LINE
  8
0
  6
CENTER
 62
     7
 10
250.99976
 20
406.23004
 11
250.99976
 21
411.77002
  0
LINE
  8
0
  6
CENTER
 62
     7
 10
253.76978
 20
391
 11
248.22974
 21
391
  0
LINE
  8
0
  6
CENTER
 62
     7
 10
250.99976
 20
393.76996
 11
250.99976
 21
388.22998
  0
LINE
  8
0
  6
CENTER
 62
     7
 10
230.99939
 20
393.76996
 11
230.99939
 21
388.22998
  0
LINE
  8
0
  6
CENTER
 62
     7
 10
233.76941
 20
391
 11
228.22937
 21
391
  0
LINE
  8
0
  6
CENTER
 62
     7
 10
230.99939
 20
411.76996
 11
230.99939
 21
406.22998
  0
LINE
  8
0
  6
CENTER
 62
     7
 10
233.76941
 20
409
 11
228.22937
 21
409
  0
LINE
  8
0
  6
CENTER
 62
     7
 10
253.76978
 20
409
 11
248.22974
 21
409
  0
LINE
  8
0
  6
CENTER
 62
     7
 10
237.43018
 20
291
 11
244.57019
 21
291
  0
LINE
  8
0
  6
CENTER
 62
     7
 10
241.00012
 20
287.42999
 11
241.00012
 21
294.57001
  0
LINE
  8
0
  6
CONTINUOUS
 62
     7
 10
173.3999
 20
315.76245
 11
173.3999
 21
284.2384
  0
LINE
  8
0
  6
CONTINUOUS
 62
     7
 10
178.40005
 20
288.44971
 11
178.40005
 21
311.55029
  0
LINE
  8
0
  6
CONTINUOUS
 62
     7
 10
172.00015
 20
313.25024
 11
172.00015
 21
312.60022
  0
LINE
  8
0
  6
CONTINUOUS
 62
     7
 10
172.00015
 20
287.40155
 11
172.00015
 21
286.75012
  0
ARC
  8
0
  6
CONTINUOUS
 62
     7
 10
202.59949
 20
302.50012
 40
3
 50
90.000003
 51
180.00001
  0
ARC
  8
0
  6
CONTINUOUS
 62
     7
 10
202.59949
 20
297.50024
 40
3
 50
179.99999
 51
270
  0
ARC
  8
0
  6
CONTINUOUS
 62
     7
 10
18.799805
 20
16.000122
 40
1
 50
360
 51
89.999982
  0
ARC
  8
0
  6
CONTINUOUS
 62
     7
 10
-18.799805
 20
16.000122
 40
1
 50
89.999982
 51
179.99996
  0
ARC
  8
0
  6
CONTINUOUS
 62
     7
 10
147.99988
 20
281.20032
 40
1
 50
270.00002
 51
0
  0
ARC
  8
0
  6
CONTINUOUS
 62
     7
 10
147.99988
 20
318.7998
 40
1
 50
0
 51
89.999982
  0
CIRCLE
  8
0
  6
CONTINUOUS
 62
     7
 10
308.99988
 20
291
 40
1.6999984
  0
CIRCLE
  8
0
  6
CONTINUOUS
 62
     7
 10
308.99988
 20
291
 40
3.2500005
  0
ARC
  8
0
  6
CONTINUOUS
 62
     7
 10
147.99951
 20
213.99951
 40
1
 50
0
 51
89.999982
  0
ARC
  8
0
  6
CONTINUOUS
 62
     7
 10
140.49963
 20
215.99976
 40
1
 50
0
 51
89.999982
  0
ARC
  8
0
  6
CONTINUOUS
 62
     7
 10
147.99951
 20
188.49951
 40
1
 50
270.00002
 51
0
  0
ARC
  8
0
  6
CONTINUOUS
 62
     7
 10
101.00012
 20
215.99976
 40
1
 50
89.999982
 51
179.99996
  0
ARC
  8
0
  6
CONTINUOUS
 62
     7
 10
101.00012
 20
188.49951
 40
1
 50
179.99996
 51
270
  0
ARC
  8
0
  6
CONTINUOUS
 62
     7
 10
110.99951
 20
188.49951
 40
1
 50
270.00002
 51
0
  0
ARC
  8
0
  6
CONTINUOUS
 62
     7
 10
137.99951
 20
188.49951
 40
1
 50
179.99996
 51
270
  0
ARC
  8
0
  6
CONTINUOUS
 62
     7
 10
112.99976
 20
209
 40
1
 50
89.999982
 51
179.99996
  0
ARC
  8
0
  6
CONTINUOUS
 62
     7
 10
101.00012
 20
318.7998
 40
1
 50
89.999982
 51
179.99996
  0
ARC
  8
0
  6
CONTINUOUS
 62
     7
 10
101.00012
 20
281.20032
 40
1
 50
179.99996
 51
270
  0
ARC
  8
0
  6
CONTINUOUS
 62
     7
 10
113.99988
 20
310.5
 40
1.9999995
 50
89.999982
 51
179.99996
  0
ARC
  8
0
  6
CONTINUOUS
 62
     7
 10
113.99988
 20
289.5
 40
1.9999995
 50
179.99996
 51
270
  0
ARC
  8
0
  6
CONTINUOUS
 62
     7
 10
134.99988
 20
289.5
 40
1.9999995
 50
270.00002
 51
0
  0
ARC
  8
0
  6
CONTINUOUS
 62
     7
 10
134.99988
 20
310.5
 40
1.9999995
 50
0
 51
89.999982
  0
ARC
  8
0
  6
CONTINUOUS
 62
     7
 10
113.99988
 20
303
 40
1.9999995
 50
89.999982
 51
179.99996
  0
ARC
  8
0
  6
CONTINUOUS
 62
     7
 10
113.99988
 20
297
 40
1.9999995
 50
179.99996
 51
270
  0
ARC
  8
0
  6
DASHED
 62
     7
 10
113.00012
 20
286.5
 40
1
 50
89.999982
 51
179.99996
  0
ARC
  8
0
  6
DASHED
 62
     7
 10
113.00012
 20
313.5
 40
1
 50
179.99996
 51
270
  0
CIRCLE
  8
0
  6
CONTINUOUS
 62
     7
 10
0
 20
0
 40
10
  0
ARC
  8
0
  6
CONTINUOUS
 62
     7
 10
0
 20
0
 40
6.75
 50
260.43098
 51
279.56906
  0
ARC
  8
0
  6
CONTINUOUS
 62
     7
 10
0
 20
0
 40
6.75
 50
170.43092
 51
189.56906
  0
ARC
  8
0
  6
CONTINUOUS
 62
     7
 10
0
 20
0
 40
6.75
 50
80.430942
 51
99.569022
  0
ARC
  8
0
  6
CONTINUOUS
 62
     7
 10
0
 20
0
 40
6.75
 50
350.43094
 51
9.5690515
  0
CIRCLE
  8
0
  6
CONTINUOUS
 62
     7
 10
0
 20
0
 40
1.6999984
  0
CIRCLE
  8
0
  6
CONTINUOUS
 62
     7
 10
0
 20
0
 40
1.9999995
  0
CIRCLE
  8
0
  6
CONTINUOUS
 62
     7
 10
0
 20
0
 40
2.5000005
  0
ARC
  8
0
  6
CONTINUOUS
 62
     7
 10
-16.800293
 20
-9.4998779
 40
3
 50
179.99996
 51
270
  0
ARC
  8
0
  6
CONTINUOUS
 62
     7
 10
16.799927
 20
-9.4998779
 40
3
 50
270.00002
 51
360
  0
ARC
  8
0
  6
CONTINUOUS
 62
     7
 10
-18.150146
 20
-11.149658
 40
1.9999995
 50
202.33164
 51
247.66836
  0
ARC
  8
0
  6
CONTINUOUS
 62
     7
 10
18.150146
 20
-11.149658
 40
1.9999995
 50
292.33168
 51
337.66845
  0
ARC
  8
0
  6
CONTINUOUS
 62
     7
 10
-4.7929688
 20
-13.149902
 40
0.49999997
 50
89.999982
 51
135
  0
ARC
  8
0
  6
CONTINUOUS
 62
     7
 10
4.7929688
 20
-13.149902
 40
0.49999997
 50
45.000001
 51
89.999982
  0
ARC
  8
0
  6
CONTINUOUS
 62
     7
 10
215.5
 20
205.19946
 40
0.49999997
 50
0
 51
89.999982
  0
ARC
  8
0
  6
CONTINUOUS
 62
     7
 10
174.5
 20
205.19946
 40
0.49999997
 50
89.999982
 51
179.99996
  0
ARC
  8
0
  6
DASHED
 62
     7
 10
140.99988
 20
313.5
 40
1
 50
270.00002
 51
0
  0
ARC
  8
0
  6
DASHED
 62
     7
 10
140.99988
 20
286.5
 40
1
 50
0
 51
89.999982
  0
ARC
  8
0
  6
CONTINUOUS
 62
     7
 10
353.49988
 20
280.70007
 40
0.49999997
 50
270.00002
 51
0
  0
ARC
  8
0
  6
CONTINUOUS
 62
     7
 10
357.99988
 20
288
 40
1
 50
270.00002
 51
0
  0
ARC
  8
0
  6
CONTINUOUS
 62
     7
 10
353.49988
 20
319.30005
 40
0.49999997
 50
0
 51
89.999982
  0
ARC
  8
0
  6
CONTINUOUS
 62
     7
 10
357.99988
 20
312
 40
1
 50
0
 51
89.999982
  0
ARC
  8
0
  6
CONTINUOUS
 62
     7
 10
354.5
 20
286.5
 40
0.49999997
 50
89.999982
 51
179.99996
  0
ARC
  8
0
  6
CONTINUOUS
 62
     7
 10
354.5
 20
313.5
 40
0.49999997
 50
179.99996
 51
270
  0
CIRCLE
  8
0
  6
CONTINUOUS
 62
     7
 10
184.99939
 20
291
 40
1.1999931
  0
CIRCLE
  8
0
  6
CONTINUOUS
 62
     7
 10
184.99939
 20
291
 40
1.5
  0
ARC
  8
0
  6
CONTINUOUS
 62
     7
 10
83.199829
 20
99.950195
 40
3
 50
108.19484
 51
179.99996
  0
ARC
  8
0
  6
CONTINUOUS
 62
     7
 10
88.75
 20
94
 40
1.9999995
 50
179.99996
 51
270
  0
ARC
  8
0
  6
CONTINUOUS
 62
     7
 10
116.79993
 20
99.950195
 40
3
 50
360
 51
71.805123
  0
ARC
  8
0
  6
CONTINUOUS
 62
     7
 10
111.25
 20
94
 40
1.9999995
 50
270.00002
 51
4.3257105E-006
  0
ARC
  8
0
  6
CONTINUOUS
 62
     7
 10
79.89978
 20
93.850586
 40
0.49999997
 50
306.8699
 51
53.130102
  0
CIRCLE
  8
0
  6
CONTINUOUS
 62
     7
 10
100
 20
100
 40
3.5028234
  0
ARC
  8
0
  6
CONTINUOUS
 62
     7
 10
100
 20
100
 40
3.6999993
 50
198.92469
 51
341.07536
  0
ARC
  8
0
  6
CONTINUOUS
 62
     7
 10
110.8999
 20
105.2002
 40
0.49999997
 50
359.99999
 51
89.999982
  0
ARC
  8
0
  6
CONTINUOUS
 62
     7
 10
112.55005
 20
93.900391
 40
0.49999997
 50
270.00002
 51
331.43141
  0
ARC
  8
0
  6
CONTINUOUS
 62
     7
 10
89.099731
 20
105.2002
 40
0.49999997
 50
89.999982
 51
179.99996
  0
ARC
  8
0
  6
CONTINUOUS
 62
     7
 10
87.449951
 20
93.900391
 40
0.49999997
 50
208.56864
 51
270.00002
  0
ARC
  8
0
  6
CONTINUOUS
 62
     7
 10
100
 20
100
 40
4.099999
 50
211.38814
 51
328.61185
  0
ARC
  8
0
  6
CONTINUOUS
 62
     7
 10
90.599731
 20
104.90063
 40
0.49999997
 50
89.999982
 51
179.99996
  0
ARC
  8
0
  6
CONTINUOUS
 62
     7
 10
89.599731
 20
103.60059
 40
0.49999997
 50
270.00002
 51
0
  0
ARC
  8
0
  6
CONTINUOUS
 62
     7
 10
87.25
 20
94.100342
 40
0.49999997
 50
179.99996
 51
270
  0
ARC
  8
0
  6
CONTINUOUS
 62
     7
 10
90.499878
 20
97.900146
 40
2.25
 50
302.23135
 51
237.76867
  0
ARC
  8
0
  6
CONTINUOUS
 62
     7
 10
109.3999
 20
104.90063
 40
0.49999997
 50
0
 51
89.999982
  0
ARC
  8
0
  6
CONTINUOUS
 62
     7
 10
110.39978
 20
103.60059
 40
0.49999997
 50
179.99996
 51
270
  0
ARC
  8
0
  6
CONTINUOUS
 62
     7
 10
112.75
 20
94.100342
 40
0.49999997
 50
270.00002
 51
0
  0
ARC
  8
0
  6
CONTINUOUS
 62
     7
 10
109.49988
 20
97.900146
 40
2.25
 50
302.23135
 51
237.76867
  0
ARC
  8
0
  6
CONTINUOUS
 62
     7
 10
81.849854
 20
88.850342
 40
1.9999995
 50
202.33164
 51
247.66836
  0
ARC
  8
0
  6
CONTINUOUS
 62
     7
 10
118.14978
 20
88.850342
 40
1.9999995
 50
292.33168
 51
337.66845
  0
ARC
  8
0
  6
CONTINUOUS
 62
     7
 10
95.207031
 20
86.850098
 40
0.49999997
 50
89.999982
 51
135
  0
ARC
  8
0
  6
CONTINUOUS
 62
     7
 10
104.7926
 20
86.850098
 40
0.49999997
 50
45.000001
 51
89.999982
  0
CIRCLE
  8
0
  6
CONTINUOUS
 62
     7
 10
90.499878
 20
97.900146
 40
1.5
  0
CIRCLE
  8
0
  6
CONTINUOUS
 62
     7
 10
109.49988
 20
97.900146
 40
1.5
  0
ARC
  8
0
  6
CONTINUOUS
 62
     7
 10
345.99988
 20
305.00024
 40
1.9999995
 50
270.00002
 51
0
  0
ARC
  8
0
  6
CONTINUOUS
 62
     7
 10
345.99988
 20
295.00012
 40
1.9999995
 50
0
 51
89.999982
  0
CIRCLE
  8
0
  6
CONTINUOUS
 62
     7
 10
194.99988
 20
291
 40
1.2999991
  0
CIRCLE
  8
0
  6
CONTINUOUS
 62
     7
 10
194.99988
 20
291
 40
1
  0
CIRCLE
  8
0
  6
CONTINUOUS
 62
     7
 10
194.99988
 20
291
 40
2.2999992
  0
ARC
  8
0
  6
CONTINUOUS
 62
     7
 10
91.89978
 20
93.000244
 40
0.49999997
 50
36.869897
 51
53.128937
  0
ARC
  8
0
  6
CONTINUOUS
 62
     7
 10
91.89978
 20
93.000244
 40
0.49999997
 50
126.87104
 51
143.13006
  0
ARC
  8
0
  6
CONTINUOUS
 62
     7
 10
85.75
 20
101.95044
 40
1
 50
0
 51
58.212336
  0
ARC
  8
0
  6
CONTINUOUS
 62
     7
 10
114.25
 20
101.95044
 40
1
 50
121.78763
 51
179.99996
  0
ARC
  8
0
  6
CONTINUOUS
 62
     7
 10
85.89978
 20
95.560059
 40
0.29999998
 50
179.99996
 51
268.05542
  0
ARC
  8
0
  6
CONTINUOUS
 62
     7
 10
85.89978
 20
100.24023
 40
0.29999998
 50
91.940849
 51
179.99996
  0
ARC
  8
0
  6
CONTINUOUS
 62
     7
 10
112.9574
 20
100.45776
 40
1.0599993
 50
16.671255
 51
73.506113
  0
ARC
  8
0
  6
CONTINUOUS
 62
     7
 10
114.45178
 20
100.90527
 40
0.49999997
 50
196.67127
 51
225
  0
ARC
  8
0
  6
CONTINUOUS
 62
     7
 10
114.45178
 20
94.89502
 40
0.49999997
 50
135
 51
163.32873
  0
ARC
  8
0
  6
CONTINUOUS
 62
     7
 10
112.9574
 20
95.342529
 40
1.0599993
 50
286.47755
 51
343.32874
  0
ARC
  8
0
  6
CONTINUOUS
 62
     7
 10
114.25
 20
94.198486
 40
1
 50
172.64347
 51
179.99996
  0
ARC
  8
0
  6
CONTINUOUS
 62
     7
 10
85.75
 20
94.198486
 40
1
 50
0
 51
7.3565099
  0
ARC
  8
0
  6
CONTINUOUS
 62
     7
 10
87.042114
 20
95.342529
 40
1.0599993
 50
196.67127
 51
253.52254
  0
ARC
  8
0
  6
CONTINUOUS
 62
     7
 10
85.547852
 20
94.89502
 40
0.49999997
 50
16.671252
 51
45.000001
  0
ARC
  8
0
  6
CONTINUOUS
 62
     7
 10
85.547852
 20
100.90527
 40
0.49999997
 50
315
 51
343.32875
  0
ARC
  8
0
  6
CONTINUOUS
 62
     7
 10
87.042114
 20
100.45776
 40
1.0599993
 50
106.49385
 51
163.32873
  0
ARC
  8
0
  6
CONTINUOUS
 62
     7
 10
85.75
 20
101.60474
 40
1
 50
352.51534
 51
0
  0
ARC
  8
0
  6
CONTINUOUS
 62
     7
 10
114.25
 20
101.60474
 40
1
 50
179.99996
 51
187.48465
  0
ARC
  8
0
  6
CONTINUOUS
 62
     7
 10
114.09985
 20
95.560059
 40
0.29999998
 50
271.94427
 51
0
  0
ARC
  8
0
  6
CONTINUOUS
 62
     7
 10
114.09985
 20
100.24023
 40
0.29999998
 50
0
 51
88.058296
  0
ARC
  8
0
  6
CONTINUOUS
 62
     7
 10
170.14966
 20
203.3999
 40
1.7500005
 50
89.999982
 51
193.20969
  0
ARC
  8
0
  6
CONTINUOUS
 62
     7
 10
170.14917
 20
305.00024
 40
1.7500005
 50
89.999982
 51
270
  0
ARC
  8
0
  6
CENTER
 62
     7
 10
0
 20
0
 40
14.5
 50
139.03704
 51
160.9613
  0
CIRCLE
  8
0
  6
CONTINUOUS
 62
     7
 10
-12.557373
 20
-7.2498779
 40
1.2294998
  0
CIRCLE
  8
0
  6
CONTINUOUS
 62
     7
 10
-12.557373
 20
-7.2498779
 40
1.5
  0
ARC
  8
0
  6
CONTINUOUS
 62
     7
 10
349.49976
 20
319.30005
 40
0.49999997
 50
89.999982
 51
179.99996
  0
ARC
  8
0
  6
CONTINUOUS
 62
     7
 10
349.49976
 20
280.70007
 40
0.49999997
 50
180.00004
 51
270.00002
  0
ARC
  8
0
  6
CENTER
 62
     7
 10
0
 20
0
 40
14.5
 50
319.03907
 51
340.96324
  0
ARC
  8
0
  6
CONTINUOUS
 62
     7
 10
200
 20
100
 40
12
 50
141.31782
 51
144.31463
  0
ARC
  8
0
  6
CONTINUOUS
 62
     7
 10
200
 20
100
 40
12
 50
35.685331
 51
38.682186
  0
CIRCLE
  8
0
  6
CONTINUOUS
 62
     7
 10
183.20001
 20
90.800049
 40
2.7499995
  0
ARC
  8
0
  6
CONTINUOUS
 62
     7
 10
195.20721
 20
86.850098
 40
0.50000006
 50
89.999975
 51
135
  0
ARC
  8
0
  6
CONTINUOUS
 62
     7
 10
204.79285
 20
86.850098
 40
0.50000006
 50
45.000001
 51
89.999975
  0
ARC
  8
0
  6
CONTINUOUS
 62
     7
 10
181.85004
 20
88.850342
 40
1.9999995
 50
202.33164
 51
247.66836
  0
ARC
  8
0
  6
CONTINUOUS
 62
     7
 10
218.15002
 20
88.850342
 40
1.9999995
 50
292.33168
 51
337.66845
  0
ARC
  8
0
  6
CONTINUOUS
 62
     7
 10
140.99988
 20
208.99963
 40
1
 50
0
 51
89.999982
  0
CIRCLE
  8
0
  6
CONTINUOUS
 62
     7
 10
145.49976
 20
197
 40
1.0565003
  0
CIRCLE
  8
0
  6
CONTINUOUS
 62
     7
 10
145.49976
 20
197
 40
1.2999991
  0
ARC
  8
0
  6
CONTINUOUS
 62
     7
 10
218.79999
 20
116.00024
 40
1
 50
2.5044785E-006
 51
90.000003
  0
ARC
  8
0
  6
CONTINUOUS
 62
     7
 10
181.20001
 20
114.00024
 40
1
 50
90.000009
 51
180.00001
  0
ARC
  8
0
  6
CONTINUOUS
 62
     7
 10
181.20001
 20
116.00024
 40
1
 50
90.000009
 51
180.00001
  0
ARC
  8
0
  6
CONTINUOUS
 62
     7
 10
218.79999
 20
114.00024
 40
1
 50
2.5044785E-006
 51
90.000003
  0
ARC
  8
0
  6
CONTINUOUS
 62
     7
 10
202.02057
 20
98.183716
 40
0.30000001
 50
210
 51
318.80208
  0
ARC
  8
0
  6
CONTINUOUS
 62
     7
 10
200.76434
 20
101.69666
 40
0.30000001
 50
65.91528
 51
132.14859
  0
ARC
  8
0
  6
CONTINUOUS
 62
     7
 10
201.86517
 20
100.26208
 40
0.30000001
 50
296.70876
 51
9.0847211
  0
ARC
  8
0
  6
CONTINUOUS
 62
     7
 10
199.98895
 20
99.962158
 40
3
 50
318.80208
 51
90.000003
  0
ARC
  8
0
  6
CONTINUOUS
 62
     7
 10
197.9574
 20
98.183716
 40
0.30000001
 50
221.19792
 51
330
  0
ARC
  8
0
  6
CONTINUOUS
 62
     7
 10
199.21362
 20
101.69666
 40
0.30000001
 50
46.455979
 51
114.08471
  0
ARC
  8
0
  6
CONTINUOUS
 62
     7
 10
198.11279
 20
100.26208
 40
0.30000001
 50
170.91528
 51
247.92237
  0
ARC
  8
0
  6
CONTINUOUS
 62
     7
 10
199.98895
 20
99.962158
 40
3
 50
90.000009
 51
221.19792
  0
CIRCLE
  8
0
  6
CONTINUOUS
 62
     7
 10
200
 20
100
 40
2
  0
CIRCLE
  8
0
  6
CONTINUOUS
 62
     7
 10
200
 20
100
 40
3.5
  0
ARC
  8
0
  6
CONTINUOUS
 62
     7
 10
199.98895
 20
99.962158
 40
2.2
 50
114.08472
 51
170.91528
  0
ARC
  8
0
  6
CONTINUOUS
 62
     7
 10
199.98895
 20
99.962158
 40
2.2
 50
9.0847211
 51
65.91528
  0
CIRCLE
  8
0
  6
CONTINUOUS
 62
     7
 10
200
 20
100
 40
1.7
  0
CIRCLE
  8
0
  6
CONTINUOUS
 62
     7
 10
94.999878
 20
103.3999
 40
2.25
  0
CIRCLE
  8
0
  6
CONTINUOUS
 62
     7
 10
94.999878
 20
103.3999
 40
1.75
  0
CIRCLE
  8
0
  6
CONTINUOUS
 62
     7
 10
203.09985
 20
302.00024
 40
1.2
  0
CIRCLE
  8
0
  6
CONTINUOUS
 62
     7
 10
209.09985
 20
298.00012
 40
1.2
  0
ARC
  8
0
  6
CENTER
 62
     7
 10
0
 20
0
 40
14.5
 50
19.036767
 51
40.960924
  0
ARC
  8
0
  6
CENTER
 62
     7
 10
0
 20
0
 40
14.5
 50
199.0387
 51
220.96296
  0
ARC
  8
0
  6
CONTINUOUS
 62
     7
 10
314.09985
 20
100.24023
 40
0.29999998
 50
0
 51
88.058296
  0
ARC
  8
0
  6
CONTINUOUS
 62
     7
 10
314.09985
 20
95.560059
 40
0.29999998
 50
271.94427
 51
0
  0
ARC
  8
0
  6
CONTINUOUS
 62
     7
 10
314.25
 20
101.60474
 40
1
 50
179.99996
 51
187.48465
  0
ARC
  8
0
  6
CONTINUOUS
 62
     7
 10
314.25
 20
94.198486
 40
1
 50
172.64347
 51
179.99996
  0
ARC
  8
0
  6
CONTINUOUS
 62
     7
 10
312.9574
 20
95.342529
 40
1.0599993
 50
286.47755
 51
343.32874
  0
ARC
  8
0
  6
CONTINUOUS
 62
     7
 10
314.45178
 20
94.89502
 40
0.49999997
 50
135
 51
163.32873
  0
ARC
  8
0
  6
CONTINUOUS
 62
     7
 10
314.45178
 20
100.90527
 40
0.49999997
 50
196.67127
 51
225
  0
ARC
  8
0
  6
CONTINUOUS
 62
     7
 10
312.9574
 20
100.45776
 40
1.0599993
 50
16.671255
 51
73.506113
  0
ARC
  8
0
  6
CONTINUOUS
 62
     7
 10
314.25
 20
101.95044
 40
1
 50
121.78763
 51
179.99996
  0
CIRCLE
  8
0
  6
CONTINUOUS
 62
     7
 10
309.49988
 20
97.900146
 40
1.5
  0
ARC
  8
0
  6
CONTINUOUS
 62
     7
 10
304.7926
 20
86.850098
 40
0.49999997
 50
45.000001
 51
89.999982
  0
ARC
  8
0
  6
CONTINUOUS
 62
     7
 10
318.14978
 20
88.850342
 40
1.9999995
 50
292.33168
 51
337.66845
  0
ARC
  8
0
  6
CONTINUOUS
 62
     7
 10
309.49988
 20
97.900146
 40
2.25
 50
302.23135
 51
237.76867
  0
ARC
  8
0
  6
CONTINUOUS
 62
     7
 10
312.75
 20
94.100342
 40
0.49999997
 50
270.00002
 51
0
  0
ARC
  8
0
  6
CONTINUOUS
 62
     7
 10
310.39978
 20
103.60059
 40
0.49999997
 50
179.99996
 51
270
  0
ARC
  8
0
  6
CONTINUOUS
 62
     7
 10
309.3999
 20
104.90063
 40
0.49999997
 50
0
 51
89.999982
  0
ARC
  8
0
  6
CONTINUOUS
 62
     7
 10
300
 20
100
 40
4.099999
 50
270
 51
328.61185
  0
ARC
  8
0
  6
CONTINUOUS
 62
     7
 10
312.55005
 20
93.900391
 40
0.49999997
 50
270.00002
 51
331.43141
  0
ARC
  8
0
  6
CONTINUOUS
 62
     7
 10
310.8999
 20
105.2002
 40
0.49999997
 50
359.99999
 51
89.999982
  0
ARC
  8
0
  6
CONTINUOUS
 62
     7
 10
300
 20
100
 40
3.6999993
 50
270
 51
341.07536
  0
ARC
  8
0
  6
CONTINUOUS
 62
     7
 10
300
 20
100
 40
3.5028234
 50
270
 51
90.000003
  0
ARC
  8
0
  6
CONTINUOUS
 62
     7
 10
311.25
 20
94
 40
1.9999995
 50
270.00002
 51
4.3257105E-006
  0
ARC
  8
0
  6
CONTINUOUS
 62
     7
 10
316.79993
 20
99.950195
 40
3
 50
360
 51
71.805123
  0
ARC
  8
0
  6
PHANTOM
 62
     7
 10
324.5
 20
93.300247
 40
0.30000001
 50
269.99999
 51
6.8324622E-007
  0
ARC
  8
0
  6
CONTINUOUS
 62
     7
 10
320.09998
 20
93.300247
 40
0.30000001
 50
179.99999
 51
270
  0
ARC
  8
0
  6
PHANTOM
 62
     7
 10
320.09998
 20
100.70024
 40
0.30000001
 50
90.000003
 51
180.00001
  0
ARC
  8
0
  6
PHANTOM
 62
     7
 10
321.29993
 20
99.450241
 40
0.30000001
 50
269.99999
 51
6.8324622E-007
  0
ARC
  8
0
  6
PHANTOM
 62
     7
 10
321.8999
 20
94.400253
 40
0.30000001
 50
179.99999
 51
270
  0
ARC
  8
0
  6
PHANTOM
 62
     7
 10
323.69995
 20
99.60025
 40
0.30000001
 50
360
 51
90.000003
  0
ARC
  8
0
  6
PHANTOM
 62
     7
 10
320.8999
 20
98.85025
 40
0.30000001
 50
90.000003
 51
180.00001
  0
ARC
  8
0
  6
PHANTOM
 62
     7
 10
324.5
 20
99.450241
 40
0.30000001
 50
269.99999
 51
6.8324622E-007
  0
ARC
  8
0
  6
PHANTOM
 62
     7
 10
320.8999
 20
95.150253
 40
0.30000001
 50
179.99999
 51
270
  0
ARC
  8
0
  6
PHANTOM
 62
     7
 10
324.29993
 20
99.450241
 40
0.30000001
 50
179.99999
 51
270
  0
ARC
  8
0
  6
PHANTOM
 62
     7
 10
321.8999
 20
99.60025
 40
0.30000001
 50
90.000003
 51
180.00001
  0
ARC
  8
0
  6
PHANTOM
 62
     7
 10
324.5
 20
94.550247
 40
0.30000001
 50
360
 51
90.000003
  0
ARC
  8
0
  6
PHANTOM
 62
     7
 10
321.29993
 20
94.550247
 40
0.30000001
 50
360
 51
90.000003
  0
ARC
  8
0
  6
PHANTOM
 62
     7
 10
323.69995
 20
94.400253
 40
0.30000001
 50
269.99999
 51
6.8324622E-007
  0
ARC
  8
0
  6
PHANTOM
 62
     7
 10
324.29993
 20
94.550247
 40
0.30000001
 50
90.000003
 51
180.00001
  0
ARC
  8
0
  6
PHANTOM
 62
     7
 10
324.5
 20
100.70024
 40
0.30000001
 50
360
 51
90.000003
  0
ARC
  8
0
  6
CONTINUOUS
 62
     7
 10
416.79993
 20
99.950195
 40
3
 50
360
 51
71.805123
  0
ARC
  8
0
  6
CONTINUOUS
 62
     7
 10
411.25
 20
94
 40
1.9999995
 50
270.00002
 51
4.3257105E-006
  0
ARC
  8
0
  6
CONTINUOUS
 62
     7
 10
400
 20
100
 40
3.5028234
 50
270
 51
90.000003
  0
ARC
  8
0
  6
CONTINUOUS
 62
     7
 10
400
 20
100
 40
3.6999993
 50
270
 51
341.07536
  0
ARC
  8
0
  6
CONTINUOUS
 62
     7
 10
410.8999
 20
105.2002
 40
0.49999997
 50
359.99999
 51
89.999982
  0
ARC
  8
0
  6
CONTINUOUS
 62
     7
 10
412.55005
 20
93.900391
 40
0.49999997
 50
270.00002
 51
331.43141
  0
ARC
  8
0
  6
CONTINUOUS
 62
     7
 10
400
 20
100
 40
4.099999
 50
270
 51
328.61185
  0
ARC
  8
0
  6
CONTINUOUS
 62
     7
 10
409.3999
 20
104.90063
 40
0.49999997
 50
0
 51
89.999982
  0
ARC
  8
0
  6
CONTINUOUS
 62
     7
 10
410.39978
 20
103.60059
 40
0.49999997
 50
179.99996
 51
270
  0
ARC
  8
0
  6
CONTINUOUS
 62
     7
 10
412.75
 20
94.100342
 40
0.49999997
 50
270.00002
 51
0
  0
ARC
  8
0
  6
CONTINUOUS
 62
     7
 10
409.49988
 20
97.900146
 40
2.25
 50
302.23135
 51
237.76867
  0
ARC
  8
0
  6
CONTINUOUS
 62
     7
 10
418.14978
 20
88.850342
 40
1.9999995
 50
292.33168
 51
337.66845
  0
ARC
  8
0
  6
CONTINUOUS
 62
     7
 10
404.7926
 20
86.850098
 40
0.49999997
 50
45.000001
 51
89.999982
  0
CIRCLE
  8
0
  6
CONTINUOUS
 62
     7
 10
409.49988
 20
97.900146
 40
1.5
  0
ARC
  8
0
  6
CONTINUOUS
 62
     7
 10
414.25
 20
101.95044
 40
1
 50
121.78763
 51
179.99996
  0
ARC
  8
0
  6
CONTINUOUS
 62
     7
 10
412.9574
 20
100.45776
 40
1.0599993
 50
16.671255
 51
73.506113
  0
ARC
  8
0
  6
CONTINUOUS
 62
     7
 10
414.45178
 20
100.90527
 40
0.49999997
 50
196.67127
 51
225
  0
ARC
  8
0
  6
CONTINUOUS
 62
     7
 10
414.45178
 20
94.89502
 40
0.49999997
 50
135
 51
163.32873
  0
ARC
  8
0
  6
CONTINUOUS
 62
     7
 10
412.9574
 20
95.342529
 40
1.0599993
 50
286.47755
 51
343.32874
  0
ARC
  8
0
  6
CONTINUOUS
 62
     7
 10
414.25
 20
94.198486
 40
1
 50
172.64347
 51
179.99996
  0
ARC
  8
0
  6
CONTINUOUS
 62
     7
 10
414.25
 20
101.60474
 40
1
 50
179.99996
 51
187.48465
  0
ARC
  8
0
  6
CONTINUOUS
 62
     7
 10
414.09985
 20
95.560059
 40
0.29999998
 50
271.94427
 51
0
  0
ARC
  8
0
  6
CONTINUOUS
 62
     7
 10
414.09985
 20
100.24023
 40
0.29999998
 50
0
 51
88.058296
  0
ARC
  8
0
  6
PHANTOM
 62
     7
 10
424.5
 20
100.70024
 40
0.30000001
 50
360
 51
90.000003
  0
ARC
  8
0
  6
PHANTOM
 62
     7
 10
421.8999
 20
99.60025
 40
0.30000001
 50
90.000003
 51
180.00001
  0
ARC
  8
0
  6
PHANTOM
 62
     7
 10
424.29993
 20
94.550247
 40
0.30000001
 50
90.000003
 51
180.00001
  0
ARC
  8
0
  6
PHANTOM
 62
     7
 10
423.69995
 20
94.400253
 40
0.30000001
 50
269.99999
 51
6.8324622E-007
  0
ARC
  8
0
  6
PHANTOM
 62
     7
 10
421.29993
 20
94.550247
 40
0.30000001
 50
360
 51
90.000003
  0
ARC
  8
0
  6
PHANTOM
 62
     7
 10
424.5
 20
94.550247
 40
0.30000001
 50
360
 51
90.000003
  0
ARC
  8
0
  6
PHANTOM
 62
     7
 10
424.29993
 20
99.450241
 40
0.30000001
 50
179.99999
 51
270
  0
ARC
  8
0
  6
PHANTOM
 62
     7
 10
421.8999
 20
94.400253
 40
0.30000001
 50
179.99999
 51
270
  0
ARC
  8
0
  6
PHANTOM
 62
     7
 10
420.8999
 20
95.150253
 40
0.30000001
 50
179.99999
 51
270
  0
ARC
  8
0
  6
PHANTOM
 62
     7
 10
424.5
 20
99.450241
 40
0.30000001
 50
269.99999
 51
6.8324622E-007
  0
ARC
  8
0
  6
PHANTOM
 62
     7
 10
420.8999
 20
98.85025
 40
0.30000001
 50
90.000003
 51
180.00001
  0
ARC
  8
0
  6
PHANTOM
 62
     7
 10
423.69995
 20
99.60025
 40
0.30000001
 50
360
 51
90.000003
  0
ARC
  8
0
  6
PHANTOM
 62
     7
 10
421.29993
 20
99.450241
 40
0.30000001
 50
269.99999
 51
6.8324622E-007
  0
ARC
  8
0
  6
PHANTOM
 62
     7
 10
420.09998
 20
100.70024
 40
0.30000001
 50
90.000003
 51
180.00001
  0
ARC
  8
0
  6
CONTINUOUS
 62
     7
 10
420.09998
 20
93.300247
 40
0.30000001
 50
179.99999
 51
270
  0
ARC
  8
0
  6
PHANTOM
 62
     7
 10
424.5
 20
93.300247
 40
0.30000001
 50
269.99999
 51
6.8324622E-007
  0
ARC
  8
0
  6
PHANTOM
 62
     7
 10
431.69995
 20
106.10046
 40
0.80000001
 50
0
 51
90.000003
  0
ARC
  8
0
  6
PHANTOM
 62
     7
 10
333.19995
 20
106.10046
 40
0.80000001
 50
0
 51
90.000003
  0
CIRCLE
  8
0
  6
CONTINUOUS
 62
     7
 10
94.999878
 20
3.3999023
 40
1.75
  0
CIRCLE
  8
0
  6
CONTINUOUS
 62
     7
 10
94.999878
 20
3.3999023
 40
2.25
  0
ARC
  8
0
  6
CONTINUOUS
 62
     7
 10
114.09985
 20
0.24023438
 40
0.29999998
 50
0
 51
88.058296
  0
ARC
  8
0
  6
CONTINUOUS
 62
     7
 10
114.09985
 20
-4.4399414
 40
0.29999998
 50
271.94427
 51
0
  0
ARC
  8
0
  6
CONTINUOUS
 62
     7
 10
114.25
 20
1.6047363
 40
1
 50
179.99996
 51
187.48465
  0
ARC
  8
0
  6
CONTINUOUS
 62
     7
 10
85.75
 20
1.6047363
 40
1
 50
352.51534
 51
360
  0
ARC
  8
0
  6
CONTINUOUS
 62
     7
 10
87.042114
 20
0.45776367
 40
1.0599993
 50
106.49385
 51
163.32873
  0
ARC
  8
0
  6
CONTINUOUS
 62
     7
 10
85.547852
 20
0.90527344
 40
0.49999997
 50
315
 51
343.32875
  0
ARC
  8
0
  6
CONTINUOUS
 62
     7
 10
85.547852
 20
-5.1049805
 40
0.49999997
 50
16.671252
 51
45.000001
  0
ARC
  8
0
  6
CONTINUOUS
 62
     7
 10
87.042114
 20
-4.6574707
 40
1.0599993
 50
196.67127
 51
253.52254
  0
ARC
  8
0
  6
CONTINUOUS
 62
     7
 10
85.75
 20
-5.8015137
 40
1
 50
0
 51
7.3565099
  0
ARC
  8
0
  6
CONTINUOUS
 62
     7
 10
114.25
 20
-5.8015137
 40
1
 50
172.64347
 51
179.99996
  0
ARC
  8
0
  6
CONTINUOUS
 62
     7
 10
112.9574
 20
-4.6574707
 40
1.0599993
 50
286.47755
 51
343.32874
  0
ARC
  8
0
  6
CONTINUOUS
 62
     7
 10
114.45178
 20
-5.1049805
 40
0.49999997
 50
135
 51
163.32873
  0
ARC
  8
0
  6
CONTINUOUS
 62
     7
 10
114.45178
 20
0.90527344
 40
0.49999997
 50
196.67127
 51
225
  0
ARC
  8
0
  6
CONTINUOUS
 62
     7
 10
112.9574
 20
0.45776367
 40
1.0599993
 50
16.671255
 51
73.506113
  0
ARC
  8
0
  6
CONTINUOUS
 62
     7
 10
85.89978
 20
0.24023438
 40
0.29999998
 50
91.940849
 51
179.99996
  0
ARC
  8
0
  6
CONTINUOUS
 62
     7
 10
85.89978
 20
-4.4399414
 40
0.29999998
 50
179.99996
 51
268.05542
  0
ARC
  8
0
  6
CONTINUOUS
 62
     7
 10
114.25
 20
1.9504395
 40
1
 50
121.78763
 51
179.99996
  0
ARC
  8
0
  6
CONTINUOUS
 62
     7
 10
85.75
 20
1.9504395
 40
1
 50
0
 51
58.212336
  0
ARC
  8
0
  6
CONTINUOUS
 62
     7
 10
91.89978
 20
-6.9997559
 40
0.49999997
 50
126.87104
 51
143.13006
  0
ARC
  8
0
  6
CONTINUOUS
 62
     7
 10
91.89978
 20
-6.9997559
 40
0.49999997
 50
36.869897
 51
53.128937
  0
CIRCLE
  8
0
  6
CONTINUOUS
 62
     7
 10
109.49988
 20
-2.0998535
 40
1.5
  0
CIRCLE
  8
0
  6
CONTINUOUS
 62
     7
 10
90.499878
 20
-2.0998535
 40
1.5
  0
ARC
  8
0
  6
CONTINUOUS
 62
     7
 10
104.7926
 20
-13.149902
 40
0.49999997
 50
45.000001
 51
89.999982
  0
ARC
  8
0
  6
CONTINUOUS
 62
     7
 10
95.207031
 20
-13.149902
 40
0.49999997
 50
89.999982
 51
135
  0
ARC
  8
0
  6
CONTINUOUS
 62
     7
 10
118.14978
 20
-11.149658
 40
1.9999995
 50
292.33168
 51
337.66845
  0
ARC
  8
0
  6
CONTINUOUS
 62
     7
 10
81.849854
 20
-11.149658
 40
1.9999995
 50
202.33164
 51
247.66836
  0
ARC
  8
0
  6
CONTINUOUS
 62
     7
 10
109.49988
 20
-2.0998535
 40
2.25
 50
302.23135
 51
237.76867
  0
ARC
  8
0
  6
CONTINUOUS
 62
     7
 10
112.75
 20
-5.8996582
 40
0.49999997
 50
270.00002
 51
0
  0
ARC
  8
0
  6
CONTINUOUS
 62
     7
 10
110.39978
 20
3.6005859
 40
0.49999997
 50
179.99996
 51
270
  0
ARC
  8
0
  6
CONTINUOUS
 62
     7
 10
109.3999
 20
4.9006348
 40
0.49999997
 50
0
 51
89.999982
  0
ARC
  8
0
  6
CONTINUOUS
 62
     7
 10
90.499878
 20
-2.0998535
 40
2.25
 50
302.23135
 51
237.76867
  0
ARC
  8
0
  6
CONTINUOUS
 62
     7
 10
87.25
 20
-5.8996582
 40
0.49999997
 50
179.99996
 51
270
  0
ARC
  8
0
  6
CONTINUOUS
 62
     7
 10
89.599731
 20
3.6005859
 40
0.49999997
 50
270.00002
 51
0
  0
ARC
  8
0
  6
CONTINUOUS
 62
     7
 10
90.599731
 20
4.9006348
 40
0.49999997
 50
89.999982
 51
179.99996
  0
ARC
  8
0
  6
CONTINUOUS
 62
     7
 10
100
 20
0
 40
4.099999
 50
211.38814
 51
328.61185
  0
ARC
  8
0
  6
CONTINUOUS
 62
     7
 10
87.449951
 20
-6.0996094
 40
0.49999997
 50
208.56864
 51
270.00002
  0
ARC
  8
0
  6
CONTINUOUS
 62
     7
 10
89.099731
 20
5.2001953
 40
0.49999997
 50
89.999982
 51
179.99996
  0
ARC
  8
0
  6
CONTINUOUS
 62
     7
 10
112.55005
 20
-6.0996094
 40
0.49999997
 50
270.00002
 51
331.43141
  0
ARC
  8
0
  6
CONTINUOUS
 62
     7
 10
110.8999
 20
5.2001953
 40
0.49999997
 50
359.99999
 51
89.999982
  0
ARC
  8
0
  6
CONTINUOUS
 62
     7
 10
100
 20
0
 40
3.6999993
 50
198.92469
 51
341.07536
  0
CIRCLE
  8
0
  6
CONTINUOUS
 62
     7
 10
100
 20
0
 40
3.5028234
  0
ARC
  8
0
  6
CONTINUOUS
 62
     7
 10
79.89978
 20
-6.1494141
 40
0.49999997
 50
306.8699
 51
53.130102
  0
ARC
  8
0
  6
CONTINUOUS
 62
     7
 10
111.25
 20
-6
 40
1.9999995
 50
270.00002
 51
4.3257107E-006
  0
ARC
  8
0
  6
CONTINUOUS
 62
     7
 10
116.79993
 20
-0.049804688
 40
3
 50
360
 51
71.805123
  0
ARC
  8
0
  6
CONTINUOUS
 62
     7
 10
88.75
 20
-6
 40
1.9999995
 50
179.99996
 51
270
  0
ARC
  8
0
  6
CONTINUOUS
 62
     7
 10
83.199829
 20
-0.049804688
 40
3
 50
108.19484
 51
179.99996
  0
ARC
  8
0
  6
CONTINUOUS
 62
     7
 10
83
 20
16.500504
 40
0.50000006
 50
89.999982
 51
179.99996
  0
ARC
  8
0
  6
CONTINUOUS
 62
     7
 10
117
 20
16.500504
 40
0.50000006
 50
0
 51
89.999982
  0
ARC
  8
0
  6
CONTINUOUS
 62
     7
 10
117
 20
15.500496
 40
0.50000006
 50
270.00002
 51
0
  0
ARC
  8
0
  6
CONTINUOUS
 62
     7
 10
83
 20
15.500496
 40
0.50000006
 50
179.99996
 51
270
  0
ARC
  8
0
  6
CONTINUOUS
 62
     7
 10
88.999878
 20
6.5004883
 40
0.5
 50
90.000003
 51
180.00001
  0
ARC
  8
0
  6
CONTINUOUS
 62
     7
 10
110.99988
 20
6.5004883
 40
0.5
 50
0
 51
90.000003
  0
ARC
  8
0
  6
CONTINUOUS
 62
     7
 10
314.25
 20
1.6047363
 40
1
 50
179.99996
 51
187.48465
  0
ARC
  8
0
  6
CONTINUOUS
 62
     7
 10
314.09985
 20
0.24023438
 40
0.29999998
 50
0
 51
88.058296
  0
ARC
  8
0
  6
CONTINUOUS
 62
     7
 10
314.09985
 20
-4.4399414
 40
0.29999998
 50
271.94427
 51
0
  0
ARC
  8
0
  6
CONTINUOUS
 62
     7
 10
300
 20
0
 40
3.6999993
 50
270
 51
341.07536
  0
ARC
  8
0
  6
CONTINUOUS
 62
     7
 10
311.25
 20
-6
 40
1.9999995
 50
270.00002
 51
4.3257107E-006
  0
ARC
  8
0
  6
CONTINUOUS
 62
     7
 10
316.79993
 20
-0.049804688
 40
3
 50
360
 51
71.805123
  0
ARC
  8
0
  6
CONTINUOUS
 62
     7
 10
300
 20
0
 40
3.5028234
 50
270
 51
90.000003
  0
ARC
  8
0
  6
CONTINUOUS
 62
     7
 10
310.99988
 20
6.5004883
 40
0.5
 50
0
 51
90.000003
  0
ARC
  8
0
  6
CONTINUOUS
 62
     7
 10
310.39978
 20
3.6005859
 40
0.49999997
 50
179.99996
 51
270
  0
ARC
  8
0
  6
CONTINUOUS
 62
     7
 10
309.3999
 20
4.9006348
 40
0.49999997
 50
0
 51
89.999982
  0
ARC
  8
0
  6
CONTINUOUS
 62
     7
 10
312.55005
 20
-6.0996094
 40
0.49999997
 50
270.00002
 51
331.43141
  0
ARC
  8
0
  6
CONTINUOUS
 62
     7
 10
310.8999
 20
5.2001953
 40
0.49999997
 50
359.99999
 51
89.999982
  0
ARC
  8
0
  6
CONTINUOUS
 62
     7
 10
300
 20
0
 40
4.099999
 50
270
 51
328.61185
  0
ARC
  8
0
  6
CONTINUOUS
 62
     7
 10
314.25
 20
1.9504395
 40
1
 50
121.78763
 51
179.99996
  0
CIRCLE
  8
0
  6
CONTINUOUS
 62
     7
 10
309.49988
 20
-2.0998535
 40
1.5
  0
ARC
  8
0
  6
CONTINUOUS
 62
     7
 10
312.9574
 20
-4.6574707
 40
1.0599993
 50
286.47755
 51
343.32874
  0
ARC
  8
0
  6
CONTINUOUS
 62
     7
 10
314.45178
 20
0.90527344
 40
0.49999997
 50
196.67127
 51
225
  0
ARC
  8
0
  6
CONTINUOUS
 62
     7
 10
312.9574
 20
0.45776367
 40
1.0599993
 50
16.671255
 51
73.506113
  0
ARC
  8
0
  6
CONTINUOUS
 62
     7
 10
314.45178
 20
-5.1049805
 40
0.49999997
 50
135
 51
163.32873
  0
ARC
  8
0
  6
CONTINUOUS
 62
     7
 10
314.25
 20
-5.8015137
 40
1
 50
172.64347
 51
179.99996
  0
ARC
  8
0
  6
CONTINUOUS
 62
     7
 10
304.7926
 20
-13.149902
 40
0.49999997
 50
45.000001
 51
89.999982
  0
ARC
  8
0
  6
CONTINUOUS
 62
     7
 10
318.14978
 20
-11.149658
 40
1.9999995
 50
292.33168
 51
337.66845
  0
ARC
  8
0
  6
CONTINUOUS
 62
     7
 10
309.49988
 20
-2.0998535
 40
2.25
 50
302.23135
 51
237.76867
  0
ARC
  8
0
  6
CONTINUOUS
 62
     7
 10
312.75
 20
-5.8996582
 40
0.49999997
 50
270.00002
 51
0
  0
ARC
  8
0
  6
CONTINUOUS
 62
     7
 10
317
 20
16.500504
 40
0.50000006
 50
0
 51
89.999982
  0
ARC
  8
0
  6
CONTINUOUS
 62
     7
 10
317
 20
15.500496
 40
0.50000006
 50
270.00002
 51
0
  0
ARC
  8
0
  6
PHANTOM
 62
     7
 10
324.5
 20
0.70024097
 40
0.30000001
 50
360
 51
90.000003
  0
ARC
  8
0
  6
PHANTOM
 62
     7
 10
321.8999
 20
-0.39974985
 40
0.30000001
 50
90.000003
 51
180.00001
  0
ARC
  8
0
  6
PHANTOM
 62
     7
 10
324.29993
 20
-5.4497509
 40
0.30000001
 50
90.000003
 51
180.00001
  0
ARC
  8
0
  6
PHANTOM
 62
     7
 10
323.69995
 20
-5.5997448
 40
0.30000001
 50
269.99999
 51
6.8324537E-007
  0
ARC
  8
0
  6
PHANTOM
 62
     7
 10
321.29993
 20
-5.4497509
 40
0.30000001
 50
360
 51
90.000003
  0
ARC
  8
0
  6
PHANTOM
 62
     7
 10
324.5
 20
-5.4497509
 40
0.30000001
 50
360
 51
90.000003
  0
ARC
  8
0
  6
PHANTOM
 62
     7
 10
324.29993
 20
-0.54975897
 40
0.30000001
 50
179.99999
 51
270
  0
ARC
  8
0
  6
PHANTOM
 62
     7
 10
321.8999
 20
-5.5997448
 40
0.30000001
 50
179.99999
 51
270
  0
ARC
  8
0
  6
PHANTOM
 62
     7
 10
320.8999
 20
-4.8497448
 40
0.30000001
 50
179.99999
 51
270
  0
ARC
  8
0
  6
PHANTOM
 62
     7
 10
324.5
 20
-0.54975897
 40
0.30000001
 50
269.99999
 51
6.8324531E-007
  0
ARC
  8
0
  6
PHANTOM
 62
     7
 10
320.8999
 20
-1.1497498
 40
0.30000001
 50
90.000003
 51
180.00001
  0
ARC
  8
0
  6
PHANTOM
 62
     7
 10
323.69995
 20
-0.39974985
 40
0.30000001
 50
360
 51
90.000003
  0
ARC
  8
0
  6
PHANTOM
 62
     7
 10
321.29993
 20
-0.54975897
 40
0.30000001
 50
269.99999
 51
6.8324531E-007
  0
ARC
  8
0
  6
PHANTOM
 62
     7
 10
320.09998
 20
0.70024097
 40
0.30000001
 50
90.000003
 51
180.00001
  0
ARC
  8
0
  6
CONTINUOUS
 62
     7
 10
320.09998
 20
-6.6997509
 40
0.30000001
 50
179.99999
 51
270
  0
ARC
  8
0
  6
PHANTOM
 62
     7
 10
324.5
 20
-6.6997509
 40
0.30000001
 50
269.99999
 51
6.8324537E-007
  0
ARC
  8
0
  6
PHANTOM
 62
     7
 10
333.30005
 20
6.4004884
 40
0.80000001
 50
0
 51
90.000003
  0
ARC
  8
0
  6
PHANTOM
 62
     7
 10
326.80005
 20
7.2004881
 40
0.80000001
 50
179.99999
 51
270
  0
ARC
  8
0
  6
PHANTOM
 62
     7
 10
327.40002
 20
11.500488
 40
1
 50
0
 51
90.000003
  0
ARC
  8
0
  6
PHANTOM
 62
     7
 10
327.40002
 20
9.5004883
 40
1
 50
270
 51
0
  0
ARC
  8
0
  6
CONTINUOUS
 62
     7
 10
414.25
 20
1.6047363
 40
1
 50
179.99996
 51
187.48465
  0
ARC
  8
0
  6
CONTINUOUS
 62
     7
 10
414.09985
 20
0.24023438
 40
0.29999998
 50
0
 51
88.058296
  0
ARC
  8
0
  6
CONTINUOUS
 62
     7
 10
414.09985
 20
-4.4399414
 40
0.29999998
 50
271.94427
 51
0
  0
ARC
  8
0
  6
CONTINUOUS
 62
     7
 10
400
 20
0
 40
3.6999993
 50
270
 51
341.07536
  0
ARC
  8
0
  6
CONTINUOUS
 62
     7
 10
411.25
 20
-6
 40
1.9999995
 50
270.00002
 51
4.3257107E-006
  0
ARC
  8
0
  6
CONTINUOUS
 62
     7
 10
416.79993
 20
-0.049804688
 40
3
 50
360
 51
71.805123
  0
ARC
  8
0
  6
CONTINUOUS
 62
     7
 10
400
 20
0
 40
3.5028234
 50
270
 51
90.000003
  0
ARC
  8
0
  6
CONTINUOUS
 62
     7
 10
410.99988
 20
6.5004883
 40
0.5
 50
0
 51
90.000003
  0
ARC
  8
0
  6
CONTINUOUS
 62
     7
 10
410.39978
 20
3.6005859
 40
0.49999997
 50
179.99996
 51
270
  0
ARC
  8
0
  6
CONTINUOUS
 62
     7
 10
409.3999
 20
4.9006348
 40
0.49999997
 50
0
 51
89.999982
  0
ARC
  8
0
  6
CONTINUOUS
 62
     7
 10
412.55005
 20
-6.0996094
 40
0.49999997
 50
270.00002
 51
331.43141
  0
ARC
  8
0
  6
CONTINUOUS
 62
     7
 10
410.8999
 20
5.2001953
 40
0.49999997
 50
359.99999
 51
89.999982
  0
ARC
  8
0
  6
CONTINUOUS
 62
     7
 10
400
 20
0
 40
4.099999
 50
270
 51
328.61185
  0
ARC
  8
0
  6
CONTINUOUS
 62
     7
 10
414.25
 20
1.9504395
 40
1
 50
121.78763
 51
179.99996
  0
CIRCLE
  8
0
  6
CONTINUOUS
 62
     7
 10
409.49988
 20
-2.0998535
 40
1.5
  0
ARC
  8
0
  6
CONTINUOUS
 62
     7
 10
412.9574
 20
-4.6574707
 40
1.0599993
 50
286.47755
 51
343.32874
  0
ARC
  8
0
  6
CONTINUOUS
 62
     7
 10
414.45178
 20
0.90527344
 40
0.49999997
 50
196.67127
 51
225
  0
ARC
  8
0
  6
CONTINUOUS
 62
     7
 10
412.9574
 20
0.45776367
 40
1.0599993
 50
16.671255
 51
73.506113
  0
ARC
  8
0
  6
CONTINUOUS
 62
     7
 10
414.45178
 20
-5.1049805
 40
0.49999997
 50
135
 51
163.32873
  0
ARC
  8
0
  6
CONTINUOUS
 62
     7
 10
414.25
 20
-5.8015137
 40
1
 50
172.64347
 51
179.99996
  0
ARC
  8
0
  6
CONTINUOUS
 62
     7
 10
404.7926
 20
-13.149902
 40
0.49999997
 50
45.000001
 51
89.999982
  0
ARC
  8
0
  6
CONTINUOUS
 62
     7
 10
418.14978
 20
-11.149658
 40
1.9999995
 50
292.33168
 51
337.66845
  0
ARC
  8
0
  6
CONTINUOUS
 62
     7
 10
409.49988
 20
-2.0998535
 40
2.25
 50
302.23135
 51
237.76867
  0
ARC
  8
0
  6
CONTINUOUS
 62
     7
 10
412.75
 20
-5.8996582
 40
0.49999997
 50
270.00002
 51
0
  0
ARC
  8
0
  6
CONTINUOUS
 62
     7
 10
417
 20
16.500504
 40
0.50000006
 50
0
 51
89.999982
  0
ARC
  8
0
  6
CONTINUOUS
 62
     7
 10
417
 20
15.500496
 40
0.50000006
 50
270.00002
 51
0
  0
ARC
  8
0
  6
PHANTOM
 62
     7
 10
424.5
 20
0.70024097
 40
0.30000001
 50
360
 51
90.000003
  0
ARC
  8
0
  6
PHANTOM
 62
     7
 10
421.8999
 20
-0.39974985
 40
0.30000001
 50
90.000003
 51
180.00001
  0
ARC
  8
0
  6
PHANTOM
 62
     7
 10
424.29993
 20
-5.4497509
 40
0.30000001
 50
90.000003
 51
180.00001
  0
ARC
  8
0
  6
PHANTOM
 62
     7
 10
423.69995
 20
-5.5997448
 40
0.30000001
 50
269.99999
 51
6.8324537E-007
  0
ARC
  8
0
  6
PHANTOM
 62
     7
 10
421.29993
 20
-5.4497509
 40
0.30000001
 50
360
 51
90.000003
  0
ARC
  8
0
  6
PHANTOM
 62
     7
 10
424.5
 20
-5.4497509
 40
0.30000001
 50
360
 51
90.000003
  0
ARC
  8
0
  6
PHANTOM
 62
     7
 10
424.29993
 20
-0.54975897
 40
0.30000001
 50
179.99999
 51
270
  0
ARC
  8
0
  6
PHANTOM
 62
     7
 10
421.8999
 20
-5.5997448
 40
0.30000001
 50
179.99999
 51
270
  0
ARC
  8
0
  6
PHANTOM
 62
     7
 10
420.8999
 20
-4.8497448
 40
0.30000001
 50
179.99999
 51
270
  0
ARC
  8
0
  6
PHANTOM
 62
     7
 10
424.5
 20
-0.54975897
 40
0.30000001
 50
269.99999
 51
6.8324531E-007
  0
ARC
  8
0
  6
PHANTOM
 62
     7
 10
420.8999
 20
-1.1497498
 40
0.30000001
 50
90.000003
 51
180.00001
  0
ARC
  8
0
  6
PHANTOM
 62
     7
 10
423.69995
 20
-0.39974985
 40
0.30000001
 50
360
 51
90.000003
  0
ARC
  8
0
  6
PHANTOM
 62
     7
 10
421.29993
 20
-0.54975897
 40
0.30000001
 50
269.99999
 51
6.8324531E-007
  0
ARC
  8
0
  6
PHANTOM
 62
     7
 10
420.09998
 20
0.70024097
 40
0.30000001
 50
90.000003
 51
180.00001
  0
ARC
  8
0
  6
CONTINUOUS
 62
     7
 10
420.09998
 20
-6.6997509
 40
0.30000001
 50
179.99999
 51
270
  0
ARC
  8
0
  6
PHANTOM
 62
     7
 10
424.5
 20
-6.6997509
 40
0.30000001
 50
269.99999
 51
6.8324537E-007
  0
ARC
  8
0
  6
PHANTOM
 62
     7
 10
431.80005
 20
6.4004884
 40
0.80000001
 50
0
 51
90.000003
  0
ARC
  8
0
  6
PHANTOM
 62
     7
 10
426.80005
 20
7.2004881
 40
0.80000001
 50
179.99999
 51
270
  0
ARC
  8
0
  6
PHANTOM
 62
     7
 10
427.40002
 20
9.5004883
 40
1
 50
270
 51
0
  0
ARC
  8
0
  6
PHANTOM
 62
     7
 10
427.40002
 20
11.500488
 40
1
 50
0
 51
90.000003
  0
ARC
  8
0
  6
CONTINUOUS
 62
     7
 10
349.49976
 20
380.70007
 40
0.49999997
 50
180.00004
 51
270.00002
  0
ARC
  8
0
  6
CONTINUOUS
 62
     7
 10
349.49976
 20
419.30005
 40
0.49999997
 50
89.999982
 51
179.99996
  0
ARC
  8
0
  6
DASHED
 62
     7
 10
170.14917
 20
405.00024
 40
1.7500005
 50
89.999982
 51
270
  0
ARC
  8
0
  6
DASHED
 62
     7
 10
345.99988
 20
395.00012
 40
1.9999995
 50
0
 51
89.999982
  0
ARC
  8
0
  6
DASHED
 62
     7
 10
345.99988
 20
405.00024
 40
1.9999995
 50
270.00002
 51
0
  0
ARC
  8
0
  6
DASHED
 62
     7
 10
354.5
 20
413.5
 40
0.49999997
 50
179.99996
 51
270
  0
ARC
  8
0
  6
DASHED
 62
     7
 10
354.5
 20
386.5
 40
0.49999997
 50
89.999982
 51
179.99996
  0
ARC
  8
0
  6
CONTINUOUS
 62
     7
 10
357.99988
 20
412
 40
1
 50
0
 51
89.999982
  0
ARC
  8
0
  6
CONTINUOUS
 62
     7
 10
353.49988
 20
419.30005
 40
0.49999997
 50
0
 51
89.999982
  0
ARC
  8
0
  6
CONTINUOUS
 62
     7
 10
357.99988
 20
388
 40
1
 50
270.00002
 51
0
  0
ARC
  8
0
  6
CONTINUOUS
 62
     7
 10
353.49988
 20
380.70007
 40
0.49999997
 50
270.00002
 51
0
  0
ARC
  8
0
  6
DASHED
 62
     7
 10
140.99988
 20
386.5
 40
1
 50
0
 51
89.999982
  0
ARC
  8
0
  6
DASHED
 62
     7
 10
140.99988
 20
413.5
 40
1
 50
270.00002
 51
0
  0
ARC
  8
0
  6
DASHED
 62
     7
 10
113.00012
 20
413.5
 40
1
 50
179.99996
 51
270
  0
ARC
  8
0
  6
DASHED
 62
     7
 10
113.00012
 20
386.5
 40
1
 50
89.999982
 51
179.99996
  0
ARC
  8
0
  6
CONTINUOUS
 62
     7
 10
113.99988
 20
397
 40
1.9999995
 50
179.99996
 51
270
  0
ARC
  8
0
  6
CONTINUOUS
 62
     7
 10
113.99988
 20
403
 40
1.9999995
 50
89.999982
 51
179.99996
  0
ARC
  8
0
  6
CONTINUOUS
 62
     7
 10
134.99988
 20
410.5
 40
1.9999995
 50
0
 51
89.999982
  0
ARC
  8
0
  6
CONTINUOUS
 62
     7
 10
134.99988
 20
389.5
 40
1.9999995
 50
270.00002
 51
0
  0
ARC
  8
0
  6
CONTINUOUS
 62
     7
 10
113.99988
 20
389.5
 40
1.9999995
 50
179.99996
 51
270
  0
ARC
  8
0
  6
CONTINUOUS
 62
     7
 10
113.99988
 20
410.5
 40
1.9999995
 50
89.999982
 51
179.99996
  0
ARC
  8
0
  6
CONTINUOUS
 62
     7
 10
101.00012
 20
381.20032
 40
1
 50
179.99996
 51
270
  0
ARC
  8
0
  6
CONTINUOUS
 62
     7
 10
101.00012
 20
418.7998
 40
1
 50
89.999982
 51
179.99996
  0
CIRCLE
  8
0
  6
DASHED
 62
     7
 10
308.99988
 20
391
 40
3.2500005
  0
CIRCLE
  8
0
  6
DASHED
 62
     7
 10
308.99988
 20
391
 40
1.6999984
  0
ARC
  8
0
  6
CONTINUOUS
 62
     7
 10
147.99988
 20
418.7998
 40
1
 50
0
 51
89.999982
  0
ARC
  8
0
  6
CONTINUOUS
 62
     7
 10
147.99988
 20
381.20032
 40
1
 50
270.00002
 51
0
  0
ARC
  8
0
  6
DASHED
 62
     7
 10
202.59949
 20
397.50024
 40
3
 50
179.99999
 51
270
  0
ARC
  8
0
  6
DASHED
 62
     7
 10
202.59949
 20
402.50012
 40
3
 50
90.000003
 51
180.00001
  0
CIRCLE
  8
0
  6
DASHED
 62
     7
 10
209.09985
 20
398.00012
 40
1.2
  0
CIRCLE
  8
0
  6
DASHED
 62
     7
 10
203.09985
 20
402.00024
 40
1.2
  0
CIRCLE
  8
0
  6
CONTINUOUS
 62
     7
 10
184.99902
 20
377.5
 40
2
  0
CIRCLE
  8
0
  6
CONTINUOUS
 62
     7
 10
184.99902
 20
377.5
 40
1.6209993
  0
CIRCLE
  8
0
  6
CONTINUOUS
 62
     7
 10
145.49976
 20
391
 40
3.2500005
  0
CIRCLE
  8
0
  6
CONTINUOUS
 62
     7
 10
145.49976
 20
391
 40
1.5
  0
ARC
  8
0
  6
PHANTOM
 62
     7
 10
338.19995
 20
368.59982
 40
1
 50
179.99999
 51
270
  0
ARC
  8
0
  6
PHANTOM
 62
     7
 10
341.80005
 20
368.59982
 40
1
 50
270
 51
0
  0
ARC
  8
0
  6
PHANTOM
 62
     7
 10
158.39978
 20
368.59982
 40
1
 50
270
 51
5.0089569E-006
  0
ARC
  8
0
  6
PHANTOM
 62
     7
 10
154.79968
 20
368.59982
 40
1
 50
179.99999
 51
270
  0
ARC
  8
0
  6
PHANTOM
 62
     7
 10
196.9989
 20
372.60004
 40
1
 50
179.99999
 51
270
  0
ARC
  8
0
  6
PHANTOM
 62
     7
 10
198.9989
 20
372.60004
 40
1
 50
270
 51
2.5044785E-006
  0
ARC
  8
0
  6
PHANTOM
 62
     7
 10
193.00024
 20
372.60004
 40
1
 50
270
 51
2.5044785E-006
  0
ARC
  8
0
  6
PHANTOM
 62
     7
 10
191.00024
 20
372.60004
 40
1
 50
179.99999
 51
270
  0
ARC
  8
0
  6
CENTER
 62
     7
 10
0
 20
100
 40
14.5
 50
19.036767
 51
40.960924
  0
ARC
  8
0
  6
CENTER
 62
     7
 10
0
 20
100
 40
14.5
 50
319.03907
 51
340.96324
  0
CIRCLE
  8
0
  6
CONTINUOUS
 62
     7
 10
-12.557373
 20
92.750122
 40
1.5
  0
CIRCLE
  8
0
  6
CONTINUOUS
 62
     7
 10
-12.557373
 20
92.750122
 40
1.2294998
  0
ARC
  8
0
  6
CENTER
 62
     7
 10
0
 20
100
 40
14.5
 50
139.03704
 51
160.9613
  0
ARC
  8
0
  6
CENTER
 62
     7
 10
0
 20
100
 40
14.5
 50
199.0387
 51
220.96296
  0
ARC
  8
0
  6
CONTINUOUS
 62
     7
 10
4.7929688
 20
86.850098
 40
0.49999997
 50
45.000001
 51
89.999982
  0
ARC
  8
0
  6
CONTINUOUS
 62
     7
 10
-4.7929688
 20
86.850098
 40
0.49999997
 50
89.999982
 51
135
  0
ARC
  8
0
  6
CONTINUOUS
 62
     7
 10
16.799927
 20
90.500122
 40
3
 50
270.00002
 51
360
  0
ARC
  8
0
  6
CONTINUOUS
 62
     7
 10
18.150146
 20
88.850342
 40
1.9999995
 50
292.33168
 51
337.66845
  0
ARC
  8
0
  6
CONTINUOUS
 62
     7
 10
-18.150146
 20
88.850342
 40
1.9999995
 50
202.33164
 51
247.66836
  0
ARC
  8
0
  6
CONTINUOUS
 62
     7
 10
-16.800293
 20
90.500122
 40
3
 50
179.99996
 51
270
  0
CIRCLE
  8
0
  6
CONTINUOUS
 62
     7
 10
0
 20
100
 40
2.5000005
  0
CIRCLE
  8
0
  6
CONTINUOUS
 62
     7
 10
0
 20
100
 40
1.9999995
  0
CIRCLE
  8
0
  6
CONTINUOUS
 62
     7
 10
0
 20
100
 40
1.6999984
  0
ARC
  8
0
  6
CONTINUOUS
 62
     7
 10
0
 20
100
 40
6.75
 50
350.43094
 51
9.5690515
  0
ARC
  8
0
  6
CONTINUOUS
 62
     7
 10
0
 20
100
 40
6.75
 50
80.430942
 51
99.569022
  0
ARC
  8
0
  6
CONTINUOUS
 62
     7
 10
0
 20
100
 40
6.75
 50
170.43092
 51
189.56906
  0
ARC
  8
0
  6
CONTINUOUS
 62
     7
 10
0
 20
100
 40
6.75
 50
260.43098
 51
279.56906
  0
CIRCLE
  8
0
  6
CONTINUOUS
 62
     7
 10
0
 20
100
 40
10
  0
ARC
  8
0
  6
CONTINUOUS
 62
     7
 10
-18.799805
 20
116.00012
 40
1
 50
89.999982
 51
179.99996
  0
ARC
  8
0
  6
CONTINUOUS
 62
     7
 10
18.799805
 20
116.00012
 40
1
 50
360
 51
89.999982
  0
CIRCLE
  8
0
  6
CONTINUOUS
 62
     7
 10
200
 20
0
 40
1.7
  0
ARC
  8
0
  6
CONTINUOUS
 62
     7
 10
199.98895
 20
-0.037841797
 40
2.2
 50
9.0847211
 51
65.91528
  0
ARC
  8
0
  6
CONTINUOUS
 62
     7
 10
199.98895
 20
-0.037841797
 40
2.2
 50
114.08472
 51
170.91528
  0
CIRCLE
  8
0
  6
CONTINUOUS
 62
     7
 10
200
 20
0
 40
3.5
  0
CIRCLE
  8
0
  6
CONTINUOUS
 62
     7
 10
200
 20
0
 40
2
  0
ARC
  8
0
  6
CONTINUOUS
 62
     7
 10
199.98895
 20
-0.037841797
 40
3
 50
90.000009
 51
221.19792
  0
ARC
  8
0
  6
CONTINUOUS
 62
     7
 10
198.11279
 20
0.26208496
 40
0.30000001
 50
170.91528
 51
247.92237
  0
ARC
  8
0
  6
CONTINUOUS
 62
     7
 10
199.21362
 20
1.6966553
 40
0.30000001
 50
46.455979
 51
114.08471
  0
ARC
  8
0
  6
CONTINUOUS
 62
     7
 10
197.9574
 20
-1.8162842
 40
0.30000001
 50
221.19792
 51
330
  0
ARC
  8
0
  6
CONTINUOUS
 62
     7
 10
199.98895
 20
-0.037841797
 40
3
 50
318.80208
 51
90.000003
  0
ARC
  8
0
  6
CONTINUOUS
 62
     7
 10
201.86517
 20
0.26208496
 40
0.30000001
 50
296.70876
 51
9.0847211
  0
ARC
  8
0
  6
CONTINUOUS
 62
     7
 10
200.76434
 20
1.6966553
 40
0.30000001
 50
65.91528
 51
132.14859
  0
ARC
  8
0
  6
CONTINUOUS
 62
     7
 10
202.02057
 20
-1.8162842
 40
0.30000001
 50
210
 51
318.80208
  0
ARC
  8
0
  6
CONTINUOUS
 62
     7
 10
218.79999
 20
14.000244
 40
1
 50
2.5044783E-006
 51
90.000003
  0
ARC
  8
0
  6
CONTINUOUS
 62
     7
 10
181.20001
 20
16.000244
 40
1
 50
90.000009
 51
180.00001
  0
ARC
  8
0
  6
CONTINUOUS
 62
     7
 10
181.20001
 20
14.000244
 40
1
 50
90.000009
 51
180.00001
  0
ARC
  8
0
  6
CONTINUOUS
 62
     7
 10
218.79999
 20
16.000244
 40
1
 50
2.5044783E-006
 51
90.000003
  0
ARC
  8
0
  6
CONTINUOUS
 62
     7
 10
218.15002
 20
-11.149658
 40
1.9999995
 50
292.33168
 51
337.66845
  0
ARC
  8
0
  6
CONTINUOUS
 62
     7
 10
181.85004
 20
-11.149658
 40
1.9999995
 50
202.33164
 51
247.66836
  0
ARC
  8
0
  6
CONTINUOUS
 62
     7
 10
204.79285
 20
-13.149902
 40
0.50000006
 50
45.000001
 51
89.999975
  0
ARC
  8
0
  6
CONTINUOUS
 62
     7
 10
195.20721
 20
-13.149902
 40
0.50000006
 50
89.999975
 51
135
  0
CIRCLE
  8
0
  6
CONTINUOUS
 62
     7
 10
183.20001
 20
-9.1999512
 40
2.7499995
  0
ARC
  8
0
  6
CONTINUOUS
 62
     7
 10
183
 20
16.500504
 40
0.50000006
 50
89.999982
 51
179.99996
  0
ARC
  8
0
  6
CONTINUOUS
 62
     7
 10
217
 20
16.500504
 40
0.50000006
 50
0
 51
89.999982
  0
ARC
  8
0
  6
CONTINUOUS
 62
     7
 10
217
 20
15.500496
 40
0.50000006
 50
270.00002
 51
0
  0
ARC
  8
0
  6
CONTINUOUS
 62
     7
 10
183
 20
15.500496
 40
0.50000006
 50
179.99996
 51
270
  0
ARC
  8
0
  6
PHANTOM
 62
     7
 10
238.19995
 20
368.59982
 40
1
 50
179.99999
 51
270
  0
ARC
  8
0
  6
PHANTOM
 62
     7
 10
241.80005
 20
368.59982
 40
1
 50
270
 51
0
  0
ARC
  8
0
  6
PHANTOM
 62
     7
 10
265.85083
 20
294.99976
 40
1.7500005
 50
269.99998
 51
90.000003
  0
ARC
  8
0
  6
PHANTOM
 62
     7
 10
265.85034
 20
203.3999
 40
1.7500005
 50
346.79031
 51
90.000016
  0
ARC
  8
0
  6
PHANTOM
 62
     7
 10
261.5
 20
205.19946
 40
0.49999997
 50
3.5972177E-005
 51
90.000016
  0
ARC
  8
0
  6
PHANTOM
 62
     7
 10
220.5
 20
205.19946
 40
0.49999997
 50
90.000016
 51
180.00001
  0
ARC
  8
0
  6
PHANTOM
 62
     7
 10
265.85083
 20
394.99976
 40
1.7500005
 50
269.99998
 51
90.000003
  0
CIRCLE
  8
0
  6
CONTINUOUS
 62
     7
 10
-16.800293
 20
-9.1999512
 40
1.7000005
  0
CIRCLE
  8
0
  6
CONTINUOUS
 62
     7
 10
-16.800293
 20
90.800049
 40
1.7000005
  0
ARC
  8
0
  6
CONTINUOUS
 62
     7
 10
400
 20
0
 40
2.5999999
 50
270
 51
90.000003
  0
ARC
  8
0
  6
CONTINUOUS
 62
     7
 10
400
 20
0
 40
3
 50
270
 51
90.000003
  0
ARC
  8
0
  6
CONTINUOUS
 62
     7
 10
400
 20
100
 40
2.5999999
 50
270
 51
90.000003
  0
ARC
  8
0
  6
CONTINUOUS
 62
     7
 10
400
 20
100
 40
3
 50
270
 51
90.000003
  0
ARC
  8
0
  6
CONTINUOUS
 62
     7
 10
300
 20
100
 40
2.5999999
 50
270
 51
90.000003
  0
ARC
  8
0
  6
CONTINUOUS
 62
     7
 10
300
 20
100
 40
3
 50
270
 51
90.000003
  0
ARC
  8
0
  6
CONTINUOUS
 62
     7
 10
300
 20
0
 40
2.5999999
 50
270
 51
90.000003
  0
ARC
  8
0
  6
CONTINUOUS
 62
     7
 10
300
 20
0
 40
3
 50
270
 51
90.000003
  0
CIRCLE
  8
0
  6
CONTINUOUS
 62
     7
 10
100
 20
100
 40
2.5999999
  0
CIRCLE
  8
0
  6
CONTINUOUS
 62
     7
 10
100
 20
100
 40
3
  0
CIRCLE
  8
0
  6
CONTINUOUS
 62
     7
 10
100
 20
0
 40
2.5999999
  0
CIRCLE
  8
0
  6
CONTINUOUS
 62
     7
 10
100
 20
0
 40
3
  0
POLYLINE
  8
0
  6
PHANTOM
 62
     7
 66
     1
 10
0
 20
0
  0
VERTEX
  8
0
  6
PHANTOM
 62
     7
 10
348.10046
 20
270.6998
 42
0.099924533
  0
VERTEX
  8
0
  6
PHANTOM
 62
     7
 10
348.50965
 20
271.07872
 42
0.37894811
  0
VERTEX
  8
0
  6
PHANTOM
 62
     7
 10
348.49586
 20
271.5947
 42
0.06296025
  0
VERTEX
  8
0
  6
PHANTOM
 62
     7
 10
348.0775
 20
271.96701
 42
-0.086708456
  0
VERTEX
  8
0
  6
PHANTOM
 62
     7
 10
347.66765
 20
272.34761
 42
-0.2836702
  0
VERTEX
  8
0
  6
PHANTOM
 62
     7
 10
347.68833
 20
272.88062
 42
-0.265566
  0
VERTEX
  8
0
  6
PHANTOM
 62
     7
 10
348.11887
 20
273.19942
 42
-0.24994438
  0
VERTEX
  8
0
  6
PHANTOM
 62
     7
 10
348.5323
 20
272.85555
 42
-0.28174248
  0
VERTEX
  8
0
  6
PHANTOM
 62
     7
 10
348.51815
 20
272.3204
 42
-0.10687965
  0
VERTEX
  8
0
  6
PHANTOM
 62
     7
 10
348.10046
 20
271.9498
 42
0
  0
SEQEND
  8
0
  0
POLYLINE
  8
0
  6
PHANTOM
 62
     7
 66
     1
 10
0
 20
0
  0
VERTEX
  8
0
  6
PHANTOM
 62
     7
 10
148.49927
 20
270.6998
 42
-0.099924533
  0
VERTEX
  8
0
  6
PHANTOM
 62
     7
 10
148.09008
 20
271.07872
 42
-0.37894811
  0
VERTEX
  8
0
  6
PHANTOM
 62
     7
 10
148.10387
 20
271.5947
 42
-0.06296025
  0
VERTEX
  8
0
  6
PHANTOM
 62
     7
 10
148.52223
 20
271.96701
 42
0.086708456
  0
VERTEX
  8
0
  6
PHANTOM
 62
     7
 10
148.93208
 20
272.34761
 42
0.2836702
  0
VERTEX
  8
0
  6
PHANTOM
 62
     7
 10
148.9114
 20
272.88062
 42
0.265566
  0
VERTEX
  8
0
  6
PHANTOM
 62
     7
 10
148.48086
 20
273.19942
 42
0.24994438
  0
VERTEX
  8
0
  6
PHANTOM
 62
     7
 10
148.06743
 20
272.85555
 42
0.28174248
  0
VERTEX
  8
0
  6
PHANTOM
 62
     7
 10
148.08158
 20
272.3204
 42
0.10687965
  0
VERTEX
  8
0
  6
PHANTOM
 62
     7
 10
148.49927
 20
271.9498
 42
0
  0
SEQEND
  8
0
  0
POLYLINE
  8
0
  6
PHANTOM
 62
     7
 66
     1
 10
0
 20
0
  0
VERTEX
  8
0
  6
PHANTOM
 62
     7
 10
212.70032
 20
270.6998
 42
0.099924533
  0
VERTEX
  8
0
  6
PHANTOM
 62
     7
 10
213.10951
 20
271.07872
 42
0.37894811
  0
VERTEX
  8
0
  6
PHANTOM
 62
     7
 10
213.09571
 20
271.5947
 42
0.06296025
  0
VERTEX
  8
0
  6
PHANTOM
 62
     7
 10
212.67736
 20
271.96701
 42
-0.086708456
  0
VERTEX
  8
0
  6
PHANTOM
 62
     7
 10
212.2675
 20
272.34761
 42
-0.2836702
  0
VERTEX
  8
0
  6
PHANTOM
 62
     7
 10
212.28818
 20
272.88062
 42
-0.265566
  0
VERTEX
  8
0
  6
PHANTOM
 62
     7
 10
212.71873
 20
273.19942
 42
-0.24994438
  0
VERTEX
  8
0
  6
PHANTOM
 62
     7
 10
213.13216
 20
272.85555
 42
-0.28174248
  0
VERTEX
  8
0
  6
PHANTOM
 62
     7
 10
213.118
 20
272.3204
 42
-0.10687965
  0
VERTEX
  8
0
  6
PHANTOM
 62
     7
 10
212.70032
 20
271.9498
 42
0
  0
SEQEND
  8
0
  0
POLYLINE
  8
0
  6
PHANTOM
 62
     7
 66
     1
 10
0
 20
0
  0
VERTEX
  8
0
  6
PHANTOM
 62
     7
 10
353
 20
370.39984
 42
0.10401402
  0
VERTEX
  8
0
  6
PHANTOM
 62
     7
 10
353.41791
 20
370.8651
 42
0.30364234
  0
VERTEX
  8
0
  6
PHANTOM
 62
     7
 10
353.40119
 20
371.46007
 42
0.066453008
  0
VERTEX
  8
0
  6
PHANTOM
 62
     7
 10
352.97603
 20
371.92154
 42
-0.091147952
  0
VERTEX
  8
0
  6
PHANTOM
 62
     7
 10
352.56079
 20
372.39056
 42
-0.22580213
  0
VERTEX
  8
0
  6
PHANTOM
 62
     7
 10
352.57989
 20
372.99856
 42
-0.27695201
  0
VERTEX
  8
0
  6
PHANTOM
 62
     7
 10
353.02025
 20
373.3992
 42
-0.25105624
  0
VERTEX
  8
0
  6
PHANTOM
 62
     7
 10
353.43753
 20
372.9662
 42
-0.22299976
  0
VERTEX
  8
0
  6
PHANTOM
 62
     7
 10
353.4264
 20
372.35576
 42
-0.11234023
  0
VERTEX
  8
0
  6
PHANTOM
 62
     7
 10
353
 20
371.89984
 42
0
  0
SEQEND
  8
0
  0
POLYLINE
  8
0
  6
PHANTOM
 62
     7
 66
     1
 10
0
 20
0
  0
VERTEX
  8
0
  6
PHANTOM
 62
     7
 10
143.59973
 20
370.39984
 42
-0.10401402
  0
VERTEX
  8
0
  6
PHANTOM
 62
     7
 10
143.18182
 20
370.8651
 42
-0.30364234
  0
VERTEX
  8
0
  6
PHANTOM
 62
     7
 10
143.19854
 20
371.46007
 42
-0.066453008
  0
VERTEX
  8
0
  6
PHANTOM
 62
     7
 10
143.6237
 20
371.92154
 42
0.091147952
  0
VERTEX
  8
0
  6
PHANTOM
 62
     7
 10
144.03894
 20
372.39056
 42
0.22580213
  0
VERTEX
  8
0
  6
PHANTOM
 62
     7
 10
144.01984
 20
372.99856
 42
0.27695201
  0
VERTEX
  8
0
  6
PHANTOM
 62
     7
 10
143.57949
 20
373.3992
 42
0.25105624
  0
VERTEX
  8
0
  6
PHANTOM
 62
     7
 10
143.16221
 20
372.9662
 42
0.22299976
  0
VERTEX
  8
0
  6
PHANTOM
 62
     7
 10
143.17333
 20
372.35576
 42
0.11234023
  0
VERTEX
  8
0
  6
PHANTOM
 62
     7
 10
143.59973
 20
371.89984
 42
0
  0
SEQEND
  8
0
  0
POLYLINE
  8
0
  6
PHANTOM
 62
     7
 66
     1
 10
0
 20
0
  0
VERTEX
  8
0
  6
PHANTOM
 62
     7
 10
253
 20
370.39984
 42
0.10401402
  0
VERTEX
  8
0
  6
PHANTOM
 62
     7
 10
253.41791
 20
370.8651
 42
0.30364234
  0
VERTEX
  8
0
  6
PHANTOM
 62
     7
 10
253.40119
 20
371.46007
 42
0.066453008
  0
VERTEX
  8
0
  6
PHANTOM
 62
     7
 10
252.97603
 20
371.92154
 42
-0.091147952
  0
VERTEX
  8
0
  6
PHANTOM
 62
     7
 10
252.56079
 20
372.39056
 42
-0.22580213
  0
VERTEX
  8
0
  6
PHANTOM
 62
     7
 10
252.57989
 20
372.99856
 42
-0.27695201
  0
VERTEX
  8
0
  6
PHANTOM
 62
     7
 10
253.02025
 20
373.3992
 42
-0.25105624
  0
VERTEX
  8
0
  6
PHANTOM
 62
     7
 10
253.43753
 20
372.9662
 42
-0.22299976
  0
VERTEX
  8
0
  6
PHANTOM
 62
     7
 10
253.4264
 20
372.35576
 42
-0.11234023
  0
VERTEX
  8
0
  6
PHANTOM
 62
     7
 10
253
 20
371.89984
 42
0
  0
SEQEND
  8
0
  0
TEXT
  8
0
  6
CONTINUOUS
 62
     7
 10
280.4
 20
65.200244
 40
3.5999999
 41
1.0208334
  1
OPTION 0400
  0
TEXT
  8
0
  6
CONTINUOUS
 62
     7
 10
380.4
 20
65.200244
 40
3.5999999
 41
1.0208334
  1
OPTION 0700
  0
TEXT
  8
0
  6
CONTINUOUS
 62
     7
 10
280.4
 20
-34.799756
 40
3.5999999
 41
1.0208334
  1
OPTION 1400
  0
TEXT
  8
0
  6
CONTINUOUS
 62
     7
 10
380.4
 20
-34.799756
 40
3.5999999
 41
1.0208334
  1
OPTION 1700
  0
TEXT
  8
0
  6
CONTINUOUS
 62
     7
 10
65.999999
 20
65.200244
 40
3.5999999
 41
1.0119048
  1
VIEW ON ARROW "B-B"
  0
TEXT
  8
0
  6
CONTINUOUS
 62
     7
 10
65.999999
 20
-34.799756
 40
3.5999999
 41
1.0119048
  1
VIEW ON ARROW "B-B"
  0
TEXT
  8
0
  6
CONTINUOUS
 62
     7
 10
-30.4
 20
-34.799756
 40
3.5999999
 41
1.0133334
  1
VIEW ON ARROW "A"
  0
TEXT
  8
0
  6
CONTINUOUS
 62
     7
 10
-30.4
 20
65.200244
 40
3.5999999
 41
1.0133334
  1
VIEW ON ARROW "A"
  0
TEXT
  8
0
  6
CONTINUOUS
 62
     7
 10
169.6
 20
-34.799756
 40
3.5999999
 41
1.0133334
  1
VIEW ON ARROW "C"
  0
TEXT
  8
0
  6
CONTINUOUS
 62
     7
 10
169.6
 20
65.200244
 40
3.5999999
 41
1.0133334
  1
VIEW ON ARROW "C"
  0
TEXT
  8
0
  6
CONTINUOUS
 62
     7
 10
-1.6
 20
308.99999
 40
3.5999999
 41
1.0125787
  1
KR2001A-200L0-0000
  0
TEXT
  8
0
  6
CONTINUOUS
 62
     7
 10
-51.6
 20
98.2
 40
3.5999999
 41
1.0606061
  1
0000
  0
TEXT
  8
0
  6
CONTINUOUS
 62
     7
 10
-51.6
 20
-1.8
 40
3.5999999
 41
1.0606061
  1
1000
  0
TEXT
  8
0
  6
CONTINUOUS
 62
     7
 10
-1.6
 20
408.99999
 40
3.5999999
 41
1.0125787
  1
KR2001A-200L0-1000
  0
TEXT
  8
0
  6
CONTINUOUS
 62
     7
 10
-1.6
 20
303.59999
 40
3.5999999
 41
1.0141845
  1
 STROKE:141.5MAX
  0
TEXT
  8
0
  6
CONTINUOUS
 62
     7
 10
-1.6
 20
403.59999
 40
3.5999999
 41
1.0141845
  1
 STROKE:141.5MAX
  0
TEXT
  8
0
  6
CONTINUOUS
 62
     7
 10
-1.6
 20
398.2
 40
3.5999999
 41
1.0125787
  1
KR2001B-200L0-1000
  0
TEXT
  8
0
  6
CONTINUOUS
 62
     7
 10
-1.6
 20
392.80001
 40
3.5999999
 41
1.0151516
  1
 STROKE:95.5MAX
  0
TEXT
  8
0
  6
CONTINUOUS
 62
     7
 10
-1.6
 20
298.2
 40
3.5999999
 41
1.0125787
  1
KR2001B-200L0-0000
  0
TEXT
  8
0
  6
CONTINUOUS
 62
     7
 10
-1.6
 20
292.80001
 40
3.5999999
 41
1.0151516
  1
 STROKE:95.5MAX
  0
LINE
  8
0
  6
CONTINUOUS
 62
     7
 10
168
 20
178.99951
 11
160
 21
178.99951
  0
LINE
  8
0
  6
CONTINUOUS
 62
     7
 10
160
 20
178.99951
 11
164.00098
 21
178.99951
  0
LINE
  8
0
  6
CONTINUOUS
 62
     7
 10
168
 20
178.99951
 11
165
 21
177.99951
  0
LINE
  8
0
  6
CONTINUOUS
 62
     7
 10
168
 20
178.99951
 11
165
 21
179.99951
  0
TEXT
  8
0
  6
CONTINUOUS
 62
     7
 10
160.20098
 20
179.89951
 40
3.5999999
 41
1.3333334
  1
B
  0
LINE
  8
0
  6
CONTINUOUS
 62
     7
 10
168
 20
206.99951
 11
160
 21
206.99951
  0
LINE
  8
0
  6
CONTINUOUS
 62
     7
 10
160
 20
206.99951
 11
164.00098
 21
206.99951
  0
LINE
  8
0
  6
CONTINUOUS
 62
     7
 10
168
 20
206.99951
 11
165
 21
205.99951
  0
LINE
  8
0
  6
CONTINUOUS
 62
     7
 10
168
 20
206.99951
 11
165
 21
207.99951
  0
TEXT
  8
0
  6
CONTINUOUS
 62
     7
 10
160.20098
 20
207.89951
 40
3.5999999
 41
1.3333334
  1
B
  0
LINE
  8
0
  6
CONTINUOUS
 62
     7
 10
95
 20
200
 11
87
 21
200
  0
LINE
  8
0
  6
CONTINUOUS
 62
     7
 10
87
 20
200
 11
91.000977
 21
200
  0
LINE
  8
0
  6
CONTINUOUS
 62
     7
 10
95
 20
200
 11
92
 21
199
  0
LINE
  8
0
  6
CONTINUOUS
 62
     7
 10
95
 20
200
 11
92
 21
201
  0
TEXT
  8
0
  6
CONTINUOUS
 62
     7
 10
87.200977
 20
200.9
 40
3.5999999
 41
1.3333334
  1
A
  0
LINE
  8
0
  6
CONTINUOUS
 62
     7
 10
363.99976
 20
200
 11
371.99976
 21
200
  0
LINE
  8
0
  6
CONTINUOUS
 62
     7
 10
371.99976
 20
200
 11
367.99878
 21
200
  0
LINE
  8
0
  6
CONTINUOUS
 62
     7
 10
363.99976
 20
200
 11
366.99976
 21
201
  0
LINE
  8
0
  6
CONTINUOUS
 62
     7
 10
363.99976
 20
200
 11
366.99976
 21
199
  0
TEXT
  8
0
  6
CONTINUOUS
 62
     7
 10
368.39878
 20
200.9
 40
3.5999999
 41
1.3333334
  1
C
  0
ENDSEC
  0
EOF
