  0
SECTION
  2
HEADER
  0
ENDSEC
  0
SECTION
  2
TABLES
  0
TABLE
  2
LTYPE
 70
    22
  0
LTYPE
  2
CONTINUOUS
 70
    64
  3
Solid line
 72
    65
 73
     0
 40
0.000000
  0
LTYPE
  2
DASHED
 70
    64
  3
__ __ __ __ __ __ __ __ __ __ __ __ __ __ __
 72
    65
 73
     2
 40
3.500000
 49
2.000000
 49
-1.500000
  0
LTYPE
  2
CENTER
 70
    64
  3
____ _ ____ _ ____ _ ____ _ ____ _ ____ _ ____
 72
    65
 73
     4
 40
17.500000
 49
13.000000
 49
-1.500000
 49
1.500000
 49
-1.500000
  0
LTYPE
  2
PHANTOM
 70
    64
  3
_____ _ _ _____ _ _ _____ _ _ _____ _ _ ____  
 72
    65
 73
     6
 40
15.500000
 49
8.000000
 49
-1.500000
 49
1.500000
 49
-1.500000
 49
1.500000
 49
-1.500000
  0
LTYPE
  2
DOT
 70
    64
  3
. . . . . . . . . . . . . . . . . . . . . . . .
 72
    65
 73
     2
 40
0.25
 49
0.0
 49
-0.25
  0
ENDTAB
  0
TABLE
  2
LAYER
 70
     1
  0
LAYER
  2
0
 70
     0
 62
     7
  6
CONTINUOUS
  0
ENDTAB
  0
TABLE
  2
STYLE
 70
     1
  0
STYLE
  2
STANDARD
 70
     0
 40
0.000000
 41
1.000000
 50
0.000000
 71
     0
 42
0.200000
  3
txt
  0
ENDTAB
  0
TABLE
  2
VIEW
 70
     0
  0
ENDTAB
  0
ENDSEC
  0
SECTION
  2
BLOCKS
  0
ENDSEC
  0
SECTION
  2
ENTITIES
  0
LINE
  8
0
  6
DASHED
 62
     7
 10
160.00012
 20
190.00002
 11
309.99976
 21
190.00002
  0
LINE
  8
0
  6
CONTINUOUS
 62
     7
 10
160.00012
 20
205.0002
 11
309.99976
 21
205.0002
  0
LINE
  8
0
  6
CONTINUOUS
 62
     7
 10
160.00012
 20
190.2002
 11
309.99976
 21
190.2002
  0
LINE
  8
0
  6
CONTINUOUS
 62
     7
 10
309.99976
 20
324.99997
 11
309.99976
 21
275
  0
LINE
  8
0
  6
CONTINUOUS
 62
     7
 10
202.99963
 20
303.23999
 11
163
 21
303.23999
  0
LINE
  8
0
  6
CONTINUOUS
 62
     7
 10
202.99963
 20
304
 11
169
 21
304
  0
LINE
  8
0
  6
CONTINUOUS
 62
     7
 10
202.99963
 20
296.76001
 11
163
 21
296.76001
  0
LINE
  8
0
  6
CONTINUOUS
 62
     7
 10
202.99963
 20
296
 11
169
 21
296
  0
LINE
  8
0
  6
CONTINUOUS
 62
     7
 10
309.99976
 20
207.49986
 11
309.99976
 21
184.00002
  0
LINE
  8
0
  6
CONTINUOUS
 62
     7
 10
309.99976
 20
308.00009
 11
303.99976
 21
308.00009
  0
LINE
  8
0
  6
CONTINUOUS
 62
     7
 10
309.99976
 20
292
 11
303.99976
 21
292
  0
LINE
  8
0
  6
CONTINUOUS
 62
     7
 10
-22.700317
 20
-15.5
 11
22.699951
 21
-15.5
  0
LINE
  8
0
  6
CONTINUOUS
 62
     7
 10
24.699829
 20
20.5
 11
24.699829
 21
-13.5
  0
LINE
  8
0
  6
CONTINUOUS
 62
     7
 10
-24.700195
 20
20.5
 11
-24.700195
 21
-13.5
  0
LINE
  8
0
  6
CENTER
 62
     7
 10
0
 20
23.77002
 11
0
 21
-17.269958
  0
LINE
  8
0
  6
CONTINUOUS
 62
     7
 10
-22.700317
 20
22.5
 11
22.699951
 21
22.5
  0
LINE
  8
0
  6
CONTINUOUS
 62
     7
 10
-5.0004029
 20
-15.500068
 11
-5.500371
 21
-16.000036
  0
LINE
  8
0
  6
CONTINUOUS
 62
     7
 10
-5.5008545
 20
-16
 11
-23.087036
 21
-16
  0
LINE
  8
0
  6
CONTINUOUS
 62
     7
 10
4.9996262
 20
-15.500487
 11
5.4996591
 21
-16.000521
  0
LINE
  8
0
  6
CONTINUOUS
 62
     7
 10
23.08667
 20
-16
 11
5.4993896
 21
-16
  0
LINE
  8
0
  6
CONTINUOUS
 62
     7
 10
-7.1203547
 20
1.364247
 11
-1.3649267
 21
7.1196752
  0
LINE
  8
0
  6
CONTINUOUS
 62
     7
 10
1.3649267
 20
-7.1210346
 11
7.1203547
 21
-1.3656064
  0
LINE
  8
0
  6
CONTINUOUS
 62
     7
 10
1.3649267
 20
7.1196752
 11
7.1203547
 21
1.364247
  0
LINE
  8
0
  6
CONTINUOUS
 62
     7
 10
-7.1203547
 20
-1.3656064
 11
-1.3649267
 21
-7.1210346
  0
LINE
  8
0
  6
CONTINUOUS
 62
     7
 10
139.99988
 20
203
 11
140.50012
 21
203
  0
LINE
  8
0
  6
CONTINUOUS
 62
     7
 10
145.79993
 20
204
 11
145.5
 21
204
  0
LINE
  8
0
  6
CONTINUOUS
 62
     7
 10
145.5
 20
204.69995
 11
145.5
 21
200
  0
LINE
  8
0
  6
CONTINUOUS
 62
     7
 10
145.00012
 20
204.99998
 11
145.20007
 21
204.99998
  0
LINE
  8
0
  6
CONTINUOUS
 62
     7
 10
140.50012
 20
207.25008
 11
145.00012
 21
207.25008
  0
LINE
  8
0
  6
CONTINUOUS
 62
     7
 10
145.00012
 20
200
 11
145.00012
 21
207.25008
  0
LINE
  8
0
  6
CONTINUOUS
 62
     7
 10
139.5
 20
202.5
 11
139.5
 21
200
  0
LINE
  8
0
  6
CONTINUOUS
 62
     7
 10
139.99965
 20
203.00011
 11
139.49966
 21
202.50012
  0
LINE
  8
0
  6
CONTINUOUS
 62
     7
 10
139.99988
 20
203
 11
139.99988
 21
200
  0
LINE
  8
0
  6
CONTINUOUS
 62
     7
 10
140.50012
 20
207.25008
 11
140.50012
 21
200
  0
LINE
  8
0
  6
CONTINUOUS
 62
     7
 10
129.80017
 20
202.5
 11
139.5
 21
202.5
  0
LINE
  8
0
  6
CONTINUOUS
 62
     7
 10
129.49988
 20
202.19994
 11
129.49988
 21
200
  0
LINE
  8
0
  6
CONTINUOUS
 62
     7
 10
129.79951
 20
202.50026
 11
129.49951
 21
202.20026
  0
LINE
  8
0
  6
CONTINUOUS
 62
     7
 10
129.80017
 20
202.5
 11
129.80017
 21
200
  0
LINE
  8
0
  6
CONTINUOUS
 62
     7
 10
160.00012
 20
324.99997
 11
160.00012
 21
275
  0
LINE
  8
0
  6
CONTINUOUS
 62
     7
 10
162
 20
209
 11
162
 21
205.0002
  0
LINE
  8
0
  6
CONTINUOUS
 62
     7
 10
145.99988
 20
212.50002
 11
145.99988
 21
204.74998
  0
LINE
  8
0
  6
CENTER
 62
     7
 10
321.26965
 20
300
 11
98.72998
 21
300
  0
LINE
  8
0
  6
CONTINUOUS
 62
     7
 10
160.00012
 20
184.00002
 11
309.99976
 21
184.00002
  0
LINE
  8
0
  6
CONTINUOUS
 62
     7
 10
160.00012
 20
219
 11
160.00012
 21
184.00002
  0
LINE
  8
0
  6
CONTINUOUS
 62
     7
 10
100.99976
 20
275.30005
 11
159
 21
275.30005
  0
LINE
  8
0
  6
CONTINUOUS
 62
     7
 10
160.00012
 20
275.30005
 11
309.99976
 21
275.30005
  0
LINE
  8
0
  6
CONTINUOUS
 62
     7
 10
160.00012
 20
282.8501
 11
203.39978
 21
282.8501
  0
LINE
  8
0
  6
CONTINUOUS
 62
     7
 10
100.99976
 20
324.70004
 11
159
 21
324.70004
  0
LINE
  8
0
  6
CONTINUOUS
 62
     7
 10
160.00012
 20
324.70004
 11
309.99976
 21
324.70004
  0
LINE
  8
0
  6
CONTINUOUS
 62
     7
 10
160.00012
 20
317.14987
 11
203.39978
 21
317.14987
  0
LINE
  8
0
  6
CONTINUOUS
 62
     7
 10
145.99988
 20
312.99997
 11
145.99988
 21
287
  0
LINE
  8
0
  6
CONTINUOUS
 62
     7
 10
139.99988
 20
303
 11
140.50012
 21
303
  0
LINE
  8
0
  6
CONTINUOUS
 62
     7
 10
139.99988
 20
297
 11
140.50012
 21
297
  0
LINE
  8
0
  6
CONTINUOUS
 62
     7
 10
145.99988
 20
296
 11
145.5
 21
296
  0
LINE
  8
0
  6
CONTINUOUS
 62
     7
 10
145.19974
 20
305.00009
 11
145.49986
 21
304.69998
  0
LINE
  8
0
  6
CONTINUOUS
 62
     7
 10
140.50012
 20
302.59399
 11
139.59412
 21
302.59399
  0
LINE
  8
0
  6
CONTINUOUS
 62
     7
 10
160.00012
 20
209
 11
162
 21
209
  0
LINE
  8
0
  6
CONTINUOUS
 62
     7
 10
164
 20
304
 11
164
 21
303.5
  0
LINE
  8
0
  6
CONTINUOUS
 62
     7
 10
169
 20
304
 11
169
 21
303.5
  0
LINE
  8
0
  6
CONTINUOUS
 62
     7
 10
162
 20
313.49985
 11
162
 21
286.5
  0
LINE
  8
0
  6
CONTINUOUS
 62
     7
 10
162
 20
290.6189
 11
160.00012
 21
290.6189
  0
LINE
  8
0
  6
CONTINUOUS
 62
     7
 10
162
 20
309.38107
 11
160.00012
 21
309.38107
  0
LINE
  8
0
  6
CONTINUOUS
 62
     7
 10
159.99992
 20
290.61902
 11
161.99991
 21
309.38092
  0
LINE
  8
0
  6
CONTINUOUS
 62
     7
 10
160
 20
309.38071
 11
161.99998
 21
290.61884
  0
LINE
  8
0
  6
CONTINUOUS
 62
     7
 10
145.99988
 20
304
 11
145.5
 21
304
  0
LINE
  8
0
  6
CONTINUOUS
 62
     7
 10
145.5
 20
304.69995
 11
145.5
 21
295.30005
  0
LINE
  8
0
  6
CONTINUOUS
 62
     7
 10
145.00012
 20
305
 11
145.20007
 21
305
  0
LINE
  8
0
  6
CONTINUOUS
 62
     7
 10
145.00012
 20
295
 11
145.20007
 21
295
  0
LINE
  8
0
  6
CONTINUOUS
 62
     7
 10
140.50012
 20
292.75
 11
145.00012
 21
292.75
  0
LINE
  8
0
  6
CONTINUOUS
 62
     7
 10
140.50012
 20
307.25009
 11
145.00012
 21
307.25009
  0
LINE
  8
0
  6
CONTINUOUS
 62
     7
 10
145.00012
 20
292.75
 11
145.00012
 21
307.25009
  0
LINE
  8
0
  6
CONTINUOUS
 62
     7
 10
139.5
 20
302.5
 11
139.5
 21
297.5
  0
LINE
  8
0
  6
CONTINUOUS
 62
     7
 10
139.99963
 20
303.00012
 11
139.4996
 21
302.50009
  0
LINE
  8
0
  6
CONTINUOUS
 62
     7
 10
139.49951
 20
297.50018
 11
139.9998
 21
296.99991
  0
LINE
  8
0
  6
CONTINUOUS
 62
     7
 10
139.99988
 20
303
 11
139.99988
 21
297
  0
LINE
  8
0
  6
CONTINUOUS
 62
     7
 10
140.50012
 20
307.25009
 11
140.50012
 21
292.75
  0
LINE
  8
0
  6
CONTINUOUS
 62
     7
 10
129.80017
 20
302.5
 11
139.5
 21
302.5
  0
LINE
  8
0
  6
CONTINUOUS
 62
     7
 10
129.80017
 20
297.5
 11
139.5
 21
297.5
  0
LINE
  8
0
  6
CONTINUOUS
 62
     7
 10
129.49988
 20
302.19995
 11
129.49988
 21
297.80005
  0
LINE
  8
0
  6
CONTINUOUS
 62
     7
 10
129.7995
 20
302.50027
 11
129.4995
 21
302.20029
  0
LINE
  8
0
  6
CONTINUOUS
 62
     7
 10
112
 20
211.5
 11
112
 21
185.50002
  0
LINE
  8
0
  6
CONTINUOUS
 62
     7
 10
100
 20
221.50002
 11
100
 21
185.50002
  0
LINE
  8
0
  6
CONTINUOUS
 62
     7
 10
149.50012
 20
220.00002
 11
159
 21
220.00002
  0
LINE
  8
0
  6
CONTINUOUS
 62
     7
 10
100.99976
 20
222.5
 11
148.5
 21
222.5
  0
LINE
  8
0
  6
CONTINUOUS
 62
     7
 10
100.99976
 20
184.50002
 11
159
 21
184.50002
  0
LINE
  8
0
  6
DASHED
 62
     7
 10
100
 20
212
 11
112
 21
212
  0
LINE
  8
0
  6
CONTINUOUS
 62
     7
 10
100
 20
323.69992
 11
100
 21
276.30005
  0
LINE
  8
0
  6
DASHED
 62
     7
 10
112
 20
324.70004
 11
112
 21
315.99997
  0
LINE
  8
0
  6
DASHED
 62
     7
 10
148.99988
 20
314.99985
 11
144
 21
314.99985
  0
LINE
  8
0
  6
CONTINUOUS
 62
     7
 10
144
 20
285
 11
113.99988
 21
285
  0
LINE
  8
0
  6
CENTER
 62
     7
 10
165.49988
 20
278.5
 11
145.79993
 21
278.5
  0
LINE
  8
0
  6
CENTER
 62
     7
 10
165.49988
 20
321.50009
 11
145.79993
 21
321.50009
  0
LINE
  8
0
  6
DASHED
 62
     7
 10
145.79993
 20
324.24997
 11
145.79993
 21
318.74985
  0
LINE
  8
0
  6
DASHED
 62
     7
 10
145.79993
 20
324.24997
 11
148.79993
 21
324.24997
  0
LINE
  8
0
  6
DASHED
 62
     7
 10
145.79993
 20
318.74985
 11
148.79993
 21
318.74985
  0
LINE
  8
0
  6
DASHED
 62
     7
 10
145.79993
 20
281.25
 11
145.79993
 21
275.75
  0
LINE
  8
0
  6
DASHED
 62
     7
 10
145.79993
 20
281.25
 11
148.79993
 21
281.25
  0
LINE
  8
0
  6
DASHED
 62
     7
 10
145.79993
 20
275.75
 11
148.79993
 21
275.75
  0
LINE
  8
0
  6
CONTINUOUS
 62
     7
 10
172.99976
 20
294
 11
162
 21
294
  0
LINE
  8
0
  6
CONTINUOUS
 62
     7
 10
172.99976
 20
305.99985
 11
162
 21
305.99985
  0
LINE
  8
0
  6
CONTINUOUS
 62
     7
 10
165.09998
 20
207.5
 11
165.09998
 21
205.0002
  0
LINE
  8
0
  6
CONTINUOUS
 62
     7
 10
165.09998
 20
207.5
 11
162.60022
 21
207.5
  0
LINE
  8
0
  6
CONTINUOUS
 62
     7
 10
165.09998
 20
293.15698
 11
162.60022
 21
293.15698
  0
LINE
  8
0
  6
CONTINUOUS
 62
     7
 10
165.09998
 20
288.65698
 11
165.09998
 21
293.15698
  0
LINE
  8
0
  6
CENTER
 62
     7
 10
165.09998
 20
290.90698
 11
154.00012
 21
290.90698
  0
LINE
  8
0
  6
CONTINUOUS
 62
     7
 10
165.09998
 20
288.65698
 11
162.60022
 21
288.65698
  0
LINE
  8
0
  6
CONTINUOUS
 62
     7
 10
149.50012
 20
221.50002
 11
149.50012
 21
220.00002
  0
LINE
  8
0
  6
DASHED
 62
     7
 10
150
 20
324.70004
 11
150
 21
315.99997
  0
LINE
  8
0
  6
CENTER
 62
     7
 10
-13.269989
 20
0
 11
13.269989
 21
0
  0
LINE
  8
0
  6
CONTINUOUS
 62
     7
 10
112
 20
200
 11
145.79993
 21
200
  0
LINE
  8
0
  6
CENTER
 62
     7
 10
98.72998
 20
200
 11
321.26965
 21
200
  0
LINE
  8
0
  6
DASHED
 62
     7
 10
100
 20
188
 11
145.99988
 21
188
  0
LINE
  8
0
  6
CONTINUOUS
 62
     7
 10
112.99976
 20
212.50002
 11
148.99988
 21
212.50002
  0
LINE
  8
0
  6
CONTINUOUS
 62
     7
 10
160.00012
 20
275
 11
309.99976
 21
275
  0
LINE
  8
0
  6
CONTINUOUS
 62
     7
 10
160.00012
 20
324.99997
 11
309.99976
 21
324.99997
  0
LINE
  8
0
  6
CONTINUOUS
 62
     7
 10
140.50012
 20
305
 11
113.99988
 21
305
  0
LINE
  8
0
  6
CONTINUOUS
 62
     7
 10
140.50012
 20
295
 11
113.99988
 21
295
  0
LINE
  8
0
  6
CONTINUOUS
 62
     7
 10
112
 20
312.99997
 11
112
 21
287
  0
LINE
  8
0
  6
CONTINUOUS
 62
     7
 10
144
 20
314.99985
 11
113.99988
 21
314.99985
  0
LINE
  8
0
  6
DASHED
 62
     7
 10
113.99988
 20
314.99985
 11
112.99976
 21
314.99985
  0
LINE
  8
0
  6
DASHED
 62
     7
 10
112
 20
275.30005
 11
112
 21
284
  0
LINE
  8
0
  6
DASHED
 62
     7
 10
148.99988
 20
285
 11
144
 21
285
  0
LINE
  8
0
  6
CONTINUOUS
 62
     7
 10
-20.250366
 20
-8.2783203
 11
-20.250366
 21
-9.7216797
  0
LINE
  8
0
  6
CONTINUOUS
 62
     7
 10
-22.750488
 20
-8.2782593
 11
-22.750488
 21
-9.7216797
  0
LINE
  8
0
  6
CONTINUOUS
 62
     7
 10
-22.750622
 20
-8.2775984
 11
-21.50074
 21
-7.5559802
  0
LINE
  8
0
  6
CONTINUOUS
 62
     7
 10
-21.500561
 20
-10.442768
 11
-20.250679
 21
-9.7211494
  0
LINE
  8
0
  6
CONTINUOUS
 62
     7
 10
-21.501032
 20
-7.5563431
 11
-20.250835
 21
-8.2781448
  0
LINE
  8
0
  6
CONTINUOUS
 62
     7
 10
-22.751062
 20
-9.7214594
 11
-21.500866
 21
-10.443261
  0
LINE
  8
0
  6
CONTINUOUS
 62
     7
 10
145.99988
 20
312.50009
 11
112
 21
312.50009
  0
LINE
  8
0
  6
CONTINUOUS
 62
     7
 10
145.99988
 20
287.5
 11
112
 21
287.5
  0
LINE
  8
0
  6
CONTINUOUS
 62
     7
 10
310.49963
 20
185
 11
318.99976
 21
185
  0
LINE
  8
0
  6
CONTINUOUS
 62
     7
 10
140.50012
 20
202.59398
 11
139.59412
 21
202.59398
  0
LINE
  8
0
  6
CENTER
 62
     7
 10
319.49963
 20
321.50009
 11
304.99976
 21
321.50009
  0
LINE
  8
0
  6
CENTER
 62
     7
 10
319.49963
 20
278.5
 11
304.99976
 21
278.5
  0
LINE
  8
0
  6
CONTINUOUS
 62
     7
 10
319.99976
 20
207
 11
319.99976
 21
186.00002
  0
LINE
  8
0
  6
CONTINUOUS
 62
     7
 10
310.49963
 20
208.00002
 11
318.99976
 21
208.00002
  0
LINE
  8
0
  6
CONTINUOUS
 62
     7
 10
319.99976
 20
317.00009
 11
319.99976
 21
283
  0
LINE
  8
0
  6
DASHED
 62
     7
 10
148.79993
 20
281.44995
 11
148.79993
 21
275.55005
  0
LINE
  8
0
  6
DASHED
 62
     7
 10
149.50012
 20
281.44995
 11
148.79993
 21
281.44995
  0
LINE
  8
0
  6
DASHED
 62
     7
 10
149.50012
 20
275.55005
 11
148.79993
 21
275.55005
  0
LINE
  8
0
  6
DASHED
 62
     7
 10
149.50012
 20
318.5499
 11
148.79993
 21
318.5499
  0
LINE
  8
0
  6
DASHED
 62
     7
 10
148.79993
 20
318.5499
 11
148.79993
 21
324.44992
  0
LINE
  8
0
  6
DASHED
 62
     7
 10
149.50012
 20
324.44992
 11
148.79993
 21
324.44992
  0
LINE
  8
0
  6
CONTINUOUS
 62
     7
 10
204.99969
 20
-15.5
 11
194.99939
 21
-15.5
  0
LINE
  8
0
  6
CONTINUOUS
 62
     7
 10
194.99983
 20
-15.499581
 11
194.49985
 21
-15.999571
  0
LINE
  8
0
  6
CONTINUOUS
 62
     7
 10
204.99977
 20
-15.4999
 11
205.49973
 21
-15.999847
  0
LINE
  8
0
  6
CONTINUOUS
 62
     7
 10
310.49963
 20
275.30005
 11
314.99963
 21
275.30005
  0
LINE
  8
0
  6
CONTINUOUS
 62
     7
 10
310.49963
 20
324.70004
 11
314.99963
 21
324.70004
  0
LINE
  8
0
  6
CONTINUOUS
 62
     7
 10
162
 20
287
 11
160.00012
 21
287
  0
LINE
  8
0
  6
CONTINUOUS
 62
     7
 10
162
 20
312.99997
 11
160.00012
 21
312.99997
  0
LINE
  8
0
  6
CONTINUOUS
 62
     7
 10
264.59973
 20
317.14987
 11
309.99976
 21
317.14987
  0
LINE
  8
0
  6
CONTINUOUS
 62
     7
 10
264.59973
 20
282.8501
 11
309.99976
 21
282.8501
  0
LINE
  8
0
  6
CONTINUOUS
 62
     7
 10
165.09998
 20
306.84286
 11
162.60022
 21
306.84286
  0
LINE
  8
0
  6
CONTINUOUS
 62
     7
 10
165.09998
 20
311.34286
 11
162.60022
 21
311.34286
  0
LINE
  8
0
  6
CENTER
 62
     7
 10
165.09998
 20
309.09286
 11
154.00012
 21
309.09286
  0
LINE
  8
0
  6
CONTINUOUS
 62
     7
 10
165.09998
 20
311.34286
 11
165.09998
 21
306.84286
  0
LINE
  8
0
  6
CONTINUOUS
 62
     7
 10
160.00012
 20
190.50021
 11
309.99976
 21
190.50021
  0
LINE
  8
0
  6
CONTINUOUS
 62
     7
 10
315.99963
 20
324.44992
 11
316.69971
 21
324.44992
  0
LINE
  8
0
  6
CONTINUOUS
 62
     7
 10
319.69971
 20
281.25
 11
319.69971
 21
275.75
  0
LINE
  8
0
  6
CONTINUOUS
 62
     7
 10
319.69971
 20
281.25
 11
316.69971
 21
281.25
  0
LINE
  8
0
  6
CONTINUOUS
 62
     7
 10
319.69971
 20
275.75
 11
316.69971
 21
275.75
  0
LINE
  8
0
  6
CONTINUOUS
 62
     7
 10
316.69971
 20
281.44995
 11
316.69971
 21
275.55005
  0
LINE
  8
0
  6
CONTINUOUS
 62
     7
 10
315.99963
 20
281.44995
 11
316.69971
 21
281.44995
  0
LINE
  8
0
  6
CONTINUOUS
 62
     7
 10
315.99963
 20
275.55005
 11
316.69971
 21
275.55005
  0
LINE
  8
0
  6
CONTINUOUS
 62
     7
 10
316.69971
 20
318.5499
 11
316.69971
 21
324.44992
  0
LINE
  8
0
  6
CONTINUOUS
 62
     7
 10
319.69971
 20
324.24997
 11
319.69971
 21
318.74985
  0
LINE
  8
0
  6
CONTINUOUS
 62
     7
 10
319.69971
 20
324.24997
 11
316.69971
 21
324.24997
  0
LINE
  8
0
  6
CONTINUOUS
 62
     7
 10
319.69971
 20
318.74985
 11
316.69971
 21
318.74985
  0
LINE
  8
0
  6
CONTINUOUS
 62
     7
 10
315.99963
 20
318.5499
 11
316.69971
 21
318.5499
  0
LINE
  8
0
  6
CONTINUOUS
 62
     7
 10
315.49976
 20
281.5
 11
315.49976
 21
275.5
  0
LINE
  8
0
  6
CONTINUOUS
 62
     7
 10
315.49976
 20
318.50009
 11
315.49976
 21
324.50009
  0
LINE
  8
0
  6
CONTINUOUS
 62
     7
 10
176.91327
 20
-16
 11
194.49936
 21
-16
  0
LINE
  8
0
  6
CONTINUOUS
 62
     7
 10
176.79999
 20
-15
 11
223.20001
 21
-15
  0
LINE
  8
0
  6
CENTER
 62
     7
 10
200
 20
10
 11
200
 21
-17.269897
  0
LINE
  8
0
  6
CENTER
 62
     7
 10
193.23001
 20
0
 11
206.76999
 21
0
  0
LINE
  8
0
  6
CONTINUOUS
 62
     7
 10
205.49969
 20
-16
 11
223.08679
 21
-16
  0
LINE
  8
0
  6
CONTINUOUS
 62
     7
 10
196.91455
 20
0
 11
197.5
 21
0
  0
LINE
  8
0
  6
CONTINUOUS
 62
     7
 10
197.41199
 20
-3.2368188
 11
198.25009
 21
-1.7851797
  0
LINE
  8
0
  6
CONTINUOUS
 62
     7
 10
198.45741
 20
2.6721539
 11
198.75014
 21
2.1651399
  0
LINE
  8
0
  6
CONTINUOUS
 62
     7
 10
202.58827
 20
-3.2369392
 11
201.75014
 21
-1.7852473
  0
LINE
  8
0
  6
CONTINUOUS
 62
     7
 10
203.08545
 20
0
 11
202.49997
 21
0
  0
LINE
  8
0
  6
CONTINUOUS
 62
     7
 10
201.5428
 20
2.6722367
 11
201.25011
 21
2.1652758
  0
LINE
  8
0
  6
CONTINUOUS
 62
     7
 10
179.75
 20
-8.2783203
 11
179.75
 21
-9.7216797
  0
LINE
  8
0
  6
CONTINUOUS
 62
     7
 10
177.25003
 20
-8.2783203
 11
177.25003
 21
-9.7216797
  0
LINE
  8
0
  6
CONTINUOUS
 62
     7
 10
177.24988
 20
-8.2780247
 11
178.49986
 21
-7.556345
  0
LINE
  8
0
  6
CONTINUOUS
 62
     7
 10
178.49985
 20
-10.443103
 11
179.74986
 21
-9.7214088
  0
LINE
  8
0
  6
CONTINUOUS
 62
     7
 10
178.49986
 20
-7.5564919
 11
179.74989
 21
-8.2782021
  0
LINE
  8
0
  6
CONTINUOUS
 62
     7
 10
177.24986
 20
-9.7215557
 11
178.49989
 21
-10.443266
  0
LINE
  8
0
  6
CONTINUOUS
 62
     7
 10
129.49954
 20
297.80023
 11
129.79967
 21
297.50012
  0
LINE
  8
0
  6
CONTINUOUS
 62
     7
 10
129.80017
 20
302.5
 11
129.80017
 21
297.5
  0
LINE
  8
0
  6
CONTINUOUS
 62
     7
 10
145.19972
 20
205.00006
 11
145.49985
 21
204.69994
  0
LINE
  8
0
  6
CONTINUOUS
 62
     7
 10
140.50012
 20
298.63501
 11
145.00012
 21
298.63501
  0
LINE
  8
0
  6
CENTER
 62
     7
 10
142.79993
 20
302.44995
 11
142.79993
 21
297.55005
  0
LINE
  8
0
  6
CONTINUOUS
 62
     7
 10
140.50012
 20
301.36499
 11
145.00012
 21
301.36499
  0
LINE
  8
0
  6
CONTINUOUS
 62
     7
 10
160.00012
 20
185.91324
 11
309.99976
 21
185.91324
  0
LINE
  8
0
  6
CONTINUOUS
 62
     7
 10
176.79999
 20
20
 11
223.20001
 21
20
  0
LINE
  8
0
  6
CONTINUOUS
 62
     7
 10
175.29999
 20
20.5
 11
175.29999
 21
-13.5
  0
LINE
  8
0
  6
CONTINUOUS
 62
     7
 10
224.70001
 20
20.5
 11
224.70001
 21
-13.5
  0
LINE
  8
0
  6
CONTINUOUS
 62
     7
 10
210.89978
 20
210
 11
226.49963
 21
210
  0
LINE
  8
0
  6
CONTINUOUS
 62
     7
 10
210.29968
 20
209.39995
 11
210.29968
 21
206.2002
  0
LINE
  8
0
  6
CONTINUOUS
 62
     7
 10
241.49963
 20
210
 11
257.09973
 21
210
  0
LINE
  8
0
  6
CONTINUOUS
 62
     7
 10
257.69983
 20
209.40001
 11
257.69983
 21
206.2002
  0
LINE
  8
0
  6
CONTINUOUS
 62
     7
 10
257.09995
 20
209.99976
 11
257.7002
 21
209.39951
  0
LINE
  8
0
  6
CONTINUOUS
 62
     7
 10
210.90013
 20
209.99962
 11
210.30009
 21
209.39958
  0
LINE
  8
0
  6
CONTINUOUS
 62
     7
 10
263.49963
 20
208.3
 11
257.69983
 21
208.3
  0
LINE
  8
0
  6
CONTINUOUS
 62
     7
 10
263.99963
 20
207.80002
 11
263.99963
 21
206.2002
  0
LINE
  8
0
  6
CONTINUOUS
 62
     7
 10
204.49988
 20
208.3
 11
210.29968
 21
208.3
  0
LINE
  8
0
  6
CONTINUOUS
 62
     7
 10
203.99988
 20
208.00002
 11
203.99988
 21
206.2002
  0
LINE
  8
0
  6
CONTINUOUS
 62
     7
 10
203.99988
 20
208.00002
 11
202.99988
 21
208.00002
  0
LINE
  8
0
  6
CONTINUOUS
 62
     7
 10
201.99988
 20
205.30037
 11
201.99988
 21
205.0002
  0
LINE
  8
0
  6
CONTINUOUS
 62
     7
 10
202.99988
 20
208.00002
 11
202.99988
 21
205.30037
  0
LINE
  8
0
  6
CONTINUOUS
 62
     7
 10
203.39978
 20
208.25
 11
203.39978
 21
208.00002
  0
LINE
  8
0
  6
CONTINUOUS
 62
     7
 10
203.39978
 20
205.30037
 11
201.99988
 21
205.30037
  0
LINE
  8
0
  6
CONTINUOUS
 62
     7
 10
263.99988
 20
208.00002
 11
264.99988
 21
208.00002
  0
LINE
  8
0
  6
CONTINUOUS
 62
     7
 10
264.99963
 20
208.00002
 11
264.99963
 21
205.30037
  0
LINE
  8
0
  6
CONTINUOUS
 62
     7
 10
264.59973
 20
206.2002
 11
264.59973
 21
205.0002
  0
LINE
  8
0
  6
CONTINUOUS
 62
     7
 10
264.59973
 20
205.30037
 11
265.99963
 21
205.30037
  0
LINE
  8
0
  6
CONTINUOUS
 62
     7
 10
265.99963
 20
205.30037
 11
265.99963
 21
205.0002
  0
LINE
  8
0
  6
CONTINUOUS
 62
     7
 10
164
 20
296
 11
163
 21
296
  0
LINE
  8
0
  6
CONTINUOUS
 62
     7
 10
169
 20
296.5
 11
164
 21
296.5
  0
LINE
  8
0
  6
CONTINUOUS
 62
     7
 10
164
 20
304
 11
163
 21
304
  0
LINE
  8
0
  6
CONTINUOUS
 62
     7
 10
169
 20
303.5
 11
164
 21
303.5
  0
LINE
  8
0
  6
CONTINUOUS
 62
     7
 10
257.69983
 20
315.50009
 11
210.29968
 21
315.50009
  0
LINE
  8
0
  6
CONTINUOUS
 62
     7
 10
210.29968
 20
284.30005
 11
210.29968
 21
315.70004
  0
LINE
  8
0
  6
CONTINUOUS
 62
     7
 10
257.69983
 20
284.30005
 11
257.69983
 21
315.70004
  0
LINE
  8
0
  6
CONTINUOUS
 62
     7
 10
257.69983
 20
284.5
 11
210.29968
 21
284.5
  0
LINE
  8
0
  6
CONTINUOUS
 62
     7
 10
265.99963
 20
282.8501
 11
265.99963
 21
283.30005
  0
LINE
  8
0
  6
CONTINUOUS
 62
     7
 10
203.39978
 20
279.83789
 11
203.39978
 21
320.16196
  0
LINE
  8
0
  6
CONTINUOUS
 62
     7
 10
264.59973
 20
279.83789
 11
264.59973
 21
320.16196
  0
LINE
  8
0
  6
CONTINUOUS
 62
     7
 10
203.39978
 20
279.83789
 11
264.59973
 21
279.83789
  0
LINE
  8
0
  6
CONTINUOUS
 62
     7
 10
203.39978
 20
284.30005
 11
264.59973
 21
284.30005
  0
LINE
  8
0
  6
CONTINUOUS
 62
     7
 10
203.39978
 20
315.70004
 11
264.59973
 21
315.70004
  0
LINE
  8
0
  6
CONTINUOUS
 62
     7
 10
203.39978
 20
320.16196
 11
264.59973
 21
320.16196
  0
LINE
  8
0
  6
CONTINUOUS
 62
     7
 10
265.99969
 20
283.30005
 11
264.99963
 21
284.30011
  0
LINE
  8
0
  6
CONTINUOUS
 62
     7
 10
264.99973
 20
315.69998
 11
265.99979
 21
316.70004
  0
LINE
  8
0
  6
CONTINUOUS
 62
     7
 10
265.99963
 20
316.6998
 11
265.99963
 21
317.14987
  0
LINE
  8
0
  6
CONTINUOUS
 62
     7
 10
264.99963
 20
284.30005
 11
264.99963
 21
315.70004
  0
LINE
  8
0
  6
CONTINUOUS
 62
     7
 10
201.99963
 20
282.8501
 11
201.99963
 21
283.30005
  0
LINE
  8
0
  6
CONTINUOUS
 62
     7
 10
201.99971
 20
283.30005
 11
202.99969
 21
284.30002
  0
LINE
  8
0
  6
CONTINUOUS
 62
     7
 10
202.99982
 20
315.69995
 11
201.99976
 21
316.70001
  0
LINE
  8
0
  6
CONTINUOUS
 62
     7
 10
201.99963
 20
316.6998
 11
201.99963
 21
317.14987
  0
LINE
  8
0
  6
CONTINUOUS
 62
     7
 10
203.39978
 20
310.49985
 11
202.99988
 21
310.49985
  0
LINE
  8
0
  6
CONTINUOUS
 62
     7
 10
202.99963
 20
284.30005
 11
202.99963
 21
305.75
  0
LINE
  8
0
  6
CONTINUOUS
 62
     7
 10
149.50012
 20
324.70004
 11
149.50012
 21
275.30005
  0
LINE
  8
0
  6
DASHED
 62
     7
 10
150
 20
284
 11
150
 21
275.30005
  0
LINE
  8
0
  6
DASHED
 62
     7
 10
150
 20
281.5
 11
149.50012
 21
281.5
  0
LINE
  8
0
  6
DASHED
 62
     7
 10
150
 20
275.5
 11
149.50012
 21
275.5
  0
LINE
  8
0
  6
DASHED
 62
     7
 10
150
 20
318.50009
 11
149.50012
 21
318.50009
  0
LINE
  8
0
  6
DASHED
 62
     7
 10
150
 20
324.50009
 11
149.50012
 21
324.50009
  0
LINE
  8
0
  6
CONTINUOUS
 62
     7
 10
315.99976
 20
281.5
 11
315.99976
 21
275.5
  0
LINE
  8
0
  6
CONTINUOUS
 62
     7
 10
315.99976
 20
281.5
 11
315.49976
 21
281.5
  0
LINE
  8
0
  6
CONTINUOUS
 62
     7
 10
315.99976
 20
275.5
 11
315.49976
 21
275.5
  0
LINE
  8
0
  6
CONTINUOUS
 62
     7
 10
315.99976
 20
324.50009
 11
315.49976
 21
324.50009
  0
LINE
  8
0
  6
CONTINUOUS
 62
     7
 10
315.99976
 20
318.50009
 11
315.49976
 21
318.50009
  0
LINE
  8
0
  6
CONTINUOUS
 62
     7
 10
315.99976
 20
318.50009
 11
315.99976
 21
324.50009
  0
LINE
  8
0
  6
CONTINUOUS
 62
     7
 10
172.99976
 20
296
 11
172.99976
 21
286.5
  0
LINE
  8
0
  6
CONTINUOUS
 62
     7
 10
172.99976
 20
313.49985
 11
172.99976
 21
304
  0
LINE
  8
0
  6
CONTINUOUS
 62
     7
 10
303.99976
 20
308.00009
 11
303.99976
 21
292
  0
LINE
  8
0
  6
CONTINUOUS
 62
     7
 10
303.99976
 20
206.70001
 11
303.99976
 21
205.0002
  0
LINE
  8
0
  6
CONTINUOUS
 62
     7
 10
303.99976
 20
206.70001
 11
309.99976
 21
206.70001
  0
LINE
  8
0
  6
CONTINUOUS
 62
     7
 10
172.99976
 20
313.49985
 11
162
 21
313.49985
  0
LINE
  8
0
  6
CONTINUOUS
 62
     7
 10
172.99976
 20
286.5
 11
162
 21
286.5
  0
LINE
  8
0
  6
CONTINUOUS
 62
     7
 10
176.80003
 20
20.000046
 11
175.30006
 21
18.500076
  0
LINE
  8
0
  6
CONTINUOUS
 62
     7
 10
223.20006
 20
20.000067
 11
224.70007
 21
18.500053
  0
LINE
  8
0
  6
CONTINUOUS
 62
     7
 10
176.80011
 20
-14.999943
 11
175.30009
 21
-13.49993
  0
LINE
  8
0
  6
CONTINUOUS
 62
     7
 10
223.20012
 20
-14.999909
 11
224.70009
 21
-13.49994
  0
LINE
  8
0
  6
CONTINUOUS
 62
     7
 10
182
 20
20
 11
182
 21
-15
  0
LINE
  8
0
  6
CONTINUOUS
 62
     7
 10
218
 20
20
 11
218
 21
-15
  0
LINE
  8
0
  6
CONTINUOUS
 62
     7
 10
318.99973
 20
185.00002
 11
319.99969
 21
185.99998
  0
LINE
  8
0
  6
CONTINUOUS
 62
     7
 10
319.99969
 20
206.99998
 11
318.99973
 21
207.99997
  0
LINE
  8
0
  6
CONTINUOUS
 62
     7
 10
310.49982
 20
207.99992
 11
309.99979
 21
207.49989
  0
LINE
  8
0
  6
CONTINUOUS
 62
     7
 10
310.49973
 20
185.00002
 11
309.99973
 21
185.5
  0
LINE
  8
0
  6
CONTINUOUS
 62
     7
 10
318.99976
 20
282
 11
315.99976
 21
282
  0
LINE
  8
0
  6
CONTINUOUS
 62
     7
 10
318.99976
 20
317.99985
 11
315.99976
 21
317.99985
  0
LINE
  8
0
  6
CONTINUOUS
 62
     7
 10
162.60022
 20
311.69296
 11
162.60022
 21
306.49277
  0
LINE
  8
0
  6
CONTINUOUS
 62
     7
 10
162.60022
 20
311.69296
 11
162
 21
311.69296
  0
LINE
  8
0
  6
CONTINUOUS
 62
     7
 10
162.60022
 20
306.49277
 11
162
 21
306.49277
  0
LINE
  8
0
  6
CONTINUOUS
 62
     7
 10
162.60022
 20
293.50708
 11
162.60022
 21
288.30688
  0
LINE
  8
0
  6
CONTINUOUS
 62
     7
 10
162.60022
 20
293.50708
 11
162
 21
293.50708
  0
LINE
  8
0
  6
CONTINUOUS
 62
     7
 10
162.60022
 20
288.30688
 11
162
 21
288.30688
  0
LINE
  8
0
  6
CONTINUOUS
 62
     7
 10
162.60022
 20
207.85001
 11
162.60022
 21
205.0002
  0
LINE
  8
0
  6
CONTINUOUS
 62
     7
 10
162.60022
 20
207.85001
 11
162
 21
207.85001
  0
LINE
  8
0
  6
CENTER
 62
     7
 10
195
 20
191.27002
 11
195
 21
182.73001
  0
LINE
  8
0
  6
DASHED
 62
     7
 10
272.74957
 20
184.30011
 11
272.44955
 21
184.00011
  0
LINE
  8
0
  6
DASHED
 62
     7
 10
277.24988
 20
184.30002
 11
272.74988
 21
184.30002
  0
LINE
  8
0
  6
DASHED
 62
     7
 10
272.74988
 20
186.00002
 11
272.74988
 21
184.30002
  0
LINE
  8
0
  6
DASHED
 62
     7
 10
278.99988
 20
186.00002
 11
270.99988
 21
186.00002
  0
LINE
  8
0
  6
DASHED
 62
     7
 10
270.99988
 20
190.00002
 11
270.99988
 21
186.00002
  0
LINE
  8
0
  6
CENTER
 62
     7
 10
274.99988
 20
191.27002
 11
274.99988
 21
182.73001
  0
LINE
  8
0
  6
DASHED
 62
     7
 10
277.24988
 20
186.00002
 11
277.24988
 21
184.30002
  0
LINE
  8
0
  6
DASHED
 62
     7
 10
277.24982
 20
184.29985
 11
277.54968
 21
183.99998
  0
LINE
  8
0
  6
DASHED
 62
     7
 10
278.99988
 20
190.00002
 11
278.99988
 21
186.00002
  0
LINE
  8
0
  6
CONTINUOUS
 62
     7
 10
76.799805
 20
107.99999
 11
84.5
 21
107.99999
  0
LINE
  8
0
  6
CONTINUOUS
 62
     7
 10
24.699697
 20
-9.5006332
 11
24.999563
 21
-9.800498
  0
LINE
  8
0
  6
CONTINUOUS
 62
     7
 10
124.69995
 20
90.499985
 11
124.69995
 21
106.50002
  0
LINE
  8
0
  6
CONTINUOUS
 62
     7
 10
122.63647
 20
105.0002
 11
117.82324
 21
105.0002
  0
LINE
  8
0
  6
CONTINUOUS
 62
     7
 10
24.999756
 20
-14.086731
 11
24.999756
 21
-9.800293
  0
LINE
  8
0
  6
CONTINUOUS
 62
     7
 10
-25.000488
 20
-14.086731
 11
-25.000488
 21
-9.7992554
  0
LINE
  8
0
  6
CONTINUOUS
 62
     7
 10
115.34985
 20
89.999992
 11
84.649902
 21
89.999992
  0
LINE
  8
0
  6
CENTER
 62
     7
 10
94.22998
 20
100
 11
105.77002
 21
100
  0
LINE
  8
0
  6
CONTINUOUS
 62
     7
 10
94.499268
 20
83.999992
 11
76.913086
 21
83.999992
  0
LINE
  8
0
  6
CONTINUOUS
 62
     7
 10
123.08667
 20
83.999992
 11
105.49951
 21
83.999992
  0
LINE
  8
0
  6
CONTINUOUS
 62
     7
 10
75.299805
 20
90.499985
 11
75.299805
 21
91.449982
  0
LINE
  8
0
  6
CONTINUOUS
 62
     7
 10
82.176758
 20
105.0002
 11
77.363037
 21
105.0002
  0
LINE
  8
0
  6
CONTINUOUS
 62
     7
 10
82.649902
 20
102.9342
 11
82.649902
 21
105.30035
  0
LINE
  8
0
  6
CONTINUOUS
 62
     7
 10
82.649902
 20
91.999985
 11
82.649902
 21
93.065773
  0
LINE
  8
0
  6
CONTINUOUS
 62
     7
 10
-24.700474
 20
-9.5001459
 11
-24.99242
 21
-9.7920904
  0
LINE
  8
0
  6
CONTINUOUS
 62
     7
 10
94.999557
 20
84.50029
 11
94.499565
 21
84.000298
  0
LINE
  8
0
  6
CONTINUOUS
 62
     7
 10
104.99951
 20
84.499985
 11
94.999268
 21
84.499985
  0
LINE
  8
0
  6
CONTINUOUS
 62
     7
 10
104.99945
 20
84.5
 11
105.4994
 21
84.000053
  0
LINE
  8
0
  6
CONTINUOUS
 62
     7
 10
117.34985
 20
102.9342
 11
117.34985
 21
105.30035
  0
LINE
  8
0
  6
CONTINUOUS
 62
     7
 10
117.34985
 20
91.999985
 11
117.34985
 21
93.065773
  0
LINE
  8
0
  6
CENTER
 62
     7
 10
87.5
 20
90.938889
 11
87.5
 21
82.729996
  0
LINE
  8
0
  6
CENTER
 62
     7
 10
100
 20
111.26998
 11
100
 21
82.729996
  0
LINE
  8
0
  6
DASHED
 62
     7
 10
110.25
 20
84.299988
 11
114.75
 21
84.299988
  0
LINE
  8
0
  6
DASHED
 62
     7
 10
110.25011
 20
84.29995
 11
109.95008
 21
83.999916
  0
LINE
  8
0
  6
CENTER
 62
     7
 10
112.5
 20
90.938889
 11
112.5
 21
82.729996
  0
LINE
  8
0
  6
DASHED
 62
     7
 10
108.5
 20
89.999992
 11
108.5
 21
85.999985
  0
LINE
  8
0
  6
DASHED
 62
     7
 10
116.5
 20
90.363663
 11
116.5
 21
85.999985
  0
LINE
  8
0
  6
DASHED
 62
     7
 10
108.5
 20
85.999985
 11
116.5
 21
85.999985
  0
LINE
  8
0
  6
DASHED
 62
     7
 10
114.75
 20
85.999985
 11
114.75
 21
84.299988
  0
LINE
  8
0
  6
DASHED
 62
     7
 10
110.25
 20
85.999985
 11
110.25
 21
84.299988
  0
LINE
  8
0
  6
DASHED
 62
     7
 10
114.75011
 20
84.299828
 11
115.0501
 21
83.999832
  0
LINE
  8
0
  6
DASHED
 62
     7
 10
114.5
 20
109.99998
 11
114.5
 21
103.09998
  0
LINE
  8
0
  6
DASHED
 62
     7
 10
110.5
 20
109.99998
 11
110.5
 21
103.09998
  0
LINE
  8
0
  6
DASHED
 62
     7
 10
114.1001
 20
109.99998
 11
114.1001
 21
102.09999
  0
LINE
  8
0
  6
DASHED
 62
     7
 10
110.90015
 20
109.99998
 11
110.90015
 21
102.09999
  0
LINE
  8
0
  6
DASHED
 62
     7
 10
110.5
 20
103.09998
 11
114.5
 21
103.09998
  0
LINE
  8
0
  6
DASHED
 62
     7
 10
110.90015
 20
102.09999
 11
114.1001
 21
102.09999
  0
LINE
  8
0
  6
DASHED
 62
     7
 10
110.90021
 20
102.40718
 11
110.50021
 21
103.09999
  0
LINE
  8
0
  6
DASHED
 62
     7
 10
112.50024
 20
101.17616
 11
110.90022
 21
102.09993
  0
LINE
  8
0
  6
DASHED
 62
     7
 10
112.50008
 20
101.17616
 11
114.1002
 21
102.09999
  0
LINE
  8
0
  6
DASHED
 62
     7
 10
114.10021
 20
102.40712
 11
114.50024
 21
103.09998
  0
LINE
  8
0
  6
CONTINUOUS
 62
     7
 10
116
 20
91.499992
 11
88.399902
 21
91.499992
  0
LINE
  8
0
  6
CONTINUOUS
 62
     7
 10
83.499947
 20
91.99984
 11
83.999893
 21
91.499893
  0
LINE
  8
0
  6
CONTINUOUS
 62
     7
 10
115.99984
 20
91.499985
 11
116.49983
 21
91.999969
  0
LINE
  8
0
  6
CONTINUOUS
 62
     7
 10
82.799805
 20
92.342896
 11
82.799805
 21
92.29998
  0
LINE
  8
0
  6
CONTINUOUS
 62
     7
 10
116.8999
 20
91.999985
 11
83.099854
 21
91.999985
  0
LINE
  8
0
  6
CONTINUOUS
 62
     7
 10
83.099876
 20
91.999924
 11
82.799835
 21
92.299965
  0
LINE
  8
0
  6
CONTINUOUS
 62
     7
 10
84.799805
 20
107.8
 11
84.799805
 21
105.30035
  0
LINE
  8
0
  6
CONTINUOUS
 62
     7
 10
114.69995
 20
108.29999
 11
85.299805
 21
108.29999
  0
LINE
  8
0
  6
CONTINUOUS
 62
     7
 10
117.19995
 20
92.342896
 11
117.19995
 21
92.29998
  0
LINE
  8
0
  6
CONTINUOUS
 62
     7
 10
116.89983
 20
91.999969
 11
117.19982
 21
92.299965
  0
LINE
  8
0
  6
CONTINUOUS
 62
     7
 10
115.19995
 20
107.8
 11
115.19995
 21
105.30035
  0
LINE
  8
0
  6
CONTINUOUS
 62
     7
 10
118.1499
 20
105.30035
 11
114.69995
 21
105.30035
  0
LINE
  8
0
  6
CONTINUOUS
 62
     7
 10
117.1499
 20
106.20036
 11
117.1499
 21
105.90037
  0
LINE
  8
0
  6
CONTINUOUS
 62
     7
 10
118.1499
 20
105.90037
 11
115.6499
 21
105.90037
  0
LINE
  8
0
  6
CONTINUOUS
 62
     7
 10
119.17407
 20
106.20039
 11
117.1499
 21
106.20039
  0
LINE
  8
0
  6
CONTINUOUS
 62
     7
 10
118.14973
 20
105.30051
 11
118.74973
 21
105.90051
  0
LINE
  8
0
  6
CONTINUOUS
 62
     7
 10
118.1499
 20
105.90037
 11
118.1499
 21
105.30035
  0
LINE
  8
0
  6
CONTINUOUS
 62
     7
 10
119.0498
 20
105.90037
 11
118.74976
 21
105.90037
  0
LINE
  8
0
  6
CONTINUOUS
 62
     7
 10
119.04976
 20
105.90025
 11
119.94975
 21
105.00027
  0
LINE
  8
0
  6
CONTINUOUS
 62
     7
 10
120.162
 20
105.21241
 11
119.94988
 21
105.00028
  0
LINE
  8
0
  6
CONTINUOUS
 62
     7
 10
119.17401
 20
106.20033
 11
120.16191
 21
105.21243
  0
LINE
  8
0
  6
CONTINUOUS
 62
     7
 10
115.6499
 20
105.90037
 11
115.6499
 21
105.30035
  0
LINE
  8
0
  6
CONTINUOUS
 62
     7
 10
85.799805
 20
107.5
 11
85.799805
 21
105.80037
  0
LINE
  8
0
  6
CONTINUOUS
 62
     7
 10
116.84985
 20
92.199982
 11
113.85034
 21
92.199982
  0
LINE
  8
0
  6
CONTINUOUS
 62
     7
 10
95.5
 20
100
 11
95.5
 21
92.199982
  0
LINE
  8
0
  6
CONTINUOUS
 62
     7
 10
104.5
 20
100
 11
104.5
 21
92.199982
  0
LINE
  8
0
  6
CONTINUOUS
 62
     7
 10
114.19995
 20
107.5
 11
114.19995
 21
105.80037
  0
LINE
  8
0
  6
CONTINUOUS
 62
     7
 10
95.5
 20
92.199982
 11
88.849365
 21
92.199982
  0
LINE
  8
0
  6
CONTINUOUS
 62
     7
 10
83.299805
 20
102.46192
 11
83.299805
 21
105.30035
  0
LINE
  8
0
  6
CONTINUOUS
 62
     7
 10
81.799858
 20
100.96189
 11
83.299828
 21
102.46186
  0
LINE
  8
0
  6
CONTINUOUS
 62
     7
 10
81.799805
 20
100.96192
 11
81.799805
 21
95.038094
  0
LINE
  8
0
  6
CONTINUOUS
 62
     7
 10
81.799942
 20
95.037888
 11
83.299911
 21
93.537918
  0
LINE
  8
0
  6
CONTINUOUS
 62
     7
 10
83.299805
 20
92.199982
 11
83.299805
 21
93.538094
  0
LINE
  8
0
  6
CONTINUOUS
 62
     7
 10
116.69995
 20
92.199982
 11
116.69995
 21
93.538094
  0
LINE
  8
0
  6
CONTINUOUS
 62
     7
 10
118.19975
 20
95.038101
 11
116.69978
 21
93.538132
  0
LINE
  8
0
  6
CONTINUOUS
 62
     7
 10
118.19995
 20
100.96192
 11
118.19995
 21
95.038094
  0
LINE
  8
0
  6
CONTINUOUS
 62
     7
 10
118.1998
 20
100.96189
 11
116.69978
 21
102.46191
  0
LINE
  8
0
  6
CONTINUOUS
 62
     7
 10
116.69995
 20
102.46192
 11
116.69995
 21
105.30035
  0
LINE
  8
0
  6
CONTINUOUS
 62
     7
 10
81.849854
 20
105.30035
 11
85.299805
 21
105.30035
  0
LINE
  8
0
  6
CONTINUOUS
 62
     7
 10
81.849854
 20
105.90037
 11
81.849854
 21
105.30035
  0
LINE
  8
0
  6
CONTINUOUS
 62
     7
 10
81.849854
 20
105.90037
 11
84.349854
 21
105.90037
  0
LINE
  8
0
  6
CONTINUOUS
 62
     7
 10
84.349854
 20
105.90037
 11
84.349854
 21
105.30035
  0
LINE
  8
0
  6
CONTINUOUS
 62
     7
 10
82.849854
 20
106.20036
 11
82.849854
 21
105.90037
  0
LINE
  8
0
  6
CONTINUOUS
 62
     7
 10
80.825684
 20
106.20039
 11
82.849854
 21
106.20039
  0
LINE
  8
0
  6
CONTINUOUS
 62
     7
 10
80.8256
 20
106.20037
 11
79.8377
 21
105.21247
  0
LINE
  8
0
  6
CONTINUOUS
 62
     7
 10
79.837692
 20
105.21227
 11
80.049858
 21
105.0001
  0
LINE
  8
0
  6
CONTINUOUS
 62
     7
 10
80.949806
 20
105.90033
 11
80.049828
 21
105.00035
  0
LINE
  8
0
  6
CONTINUOUS
 62
     7
 10
80.949951
 20
105.90037
 11
81.25
 21
105.90037
  0
LINE
  8
0
  6
CONTINUOUS
 62
     7
 10
81.849831
 20
105.30051
 11
81.249977
 21
105.90038
  0
LINE
  8
0
  6
CONTINUOUS
 62
     7
 10
115.5
 20
107.99999
 11
123.19995
 21
107.99999
  0
LINE
  8
0
  6
CONTINUOUS
 62
     7
 10
84.5
 20
109.45003
 11
84.5
 21
105.30035
  0
LINE
  8
0
  6
CONTINUOUS
 62
     7
 10
85.049805
 20
109.99998
 11
91.699951
 21
109.99998
  0
LINE
  8
0
  6
CENTER
 62
     7
 10
112.5
 20
111.26998
 11
112.5
 21
99.709618
  0
LINE
  8
0
  6
CONTINUOUS
 62
     7
 10
91.699913
 20
109.99986
 11
92.599762
 21
109.10001
  0
LINE
  8
0
  6
CONTINUOUS
 62
     7
 10
114.94995
 20
109.99998
 11
108.2998
 21
109.99998
  0
LINE
  8
0
  6
CONTINUOUS
 62
     7
 10
108.29978
 20
109.99999
 11
107.3998
 21
109.10001
  0
LINE
  8
0
  6
CENTER
 62
     7
 10
87.5
 20
111.26998
 11
87.5
 21
99.709618
  0
LINE
  8
0
  6
CONTINUOUS
 62
     7
 10
115.5
 20
109.45003
 11
115.5
 21
105.30035
  0
LINE
  8
0
  6
CONTINUOUS
 62
     7
 10
86.615639
 20
97.115967
 11
88.383408
 21
98.883728
  0
LINE
  8
0
  6
CONTINUOUS
 62
     7
 10
86.615593
 20
98.883774
 11
88.383408
 21
97.115967
  0
LINE
  8
0
  6
CONTINUOUS
 62
     7
 10
111.61638
 20
97.116096
 11
113.3841
 21
98.88382
  0
LINE
  8
0
  6
CONTINUOUS
 62
     7
 10
111.61633
 20
98.883904
 11
113.38415
 21
97.116096
  0
LINE
  8
0
  6
CONTINUOUS
 62
     7
 10
84.499847
 20
109.44998
 11
85.049812
 21
109.99995
  0
LINE
  8
0
  6
CONTINUOUS
 62
     7
 10
76.799828
 20
107.99998
 11
75.299812
 21
106.49998
  0
LINE
  8
0
  6
CONTINUOUS
 62
     7
 10
123.19978
 20
107.99994
 11
124.69975
 21
106.49997
  0
LINE
  8
0
  6
CONTINUOUS
 62
     7
 10
160.00012
 20
277.36304
 11
309.99976
 21
277.36304
  0
LINE
  8
0
  6
CONTINUOUS
 62
     7
 10
160.00012
 20
322.63681
 11
309.99976
 21
322.63681
  0
LINE
  8
0
  6
CONTINUOUS
 62
     7
 10
226.49988
 20
315.50009
 11
226.49988
 21
307.40002
  0
LINE
  8
0
  6
CONTINUOUS
 62
     7
 10
226.49988
 20
292.6001
 11
226.49988
 21
284.5
  0
LINE
  8
0
  6
CONTINUOUS
 62
     7
 10
241.49988
 20
292.6001
 11
241.49988
 21
284.5
  0
LINE
  8
0
  6
CONTINUOUS
 62
     7
 10
241.49988
 20
315.50009
 11
241.49988
 21
307.40002
  0
LINE
  8
0
  6
CONTINUOUS
 62
     7
 10
241.49963
 20
210
 11
241.49963
 21
209.09999
  0
LINE
  8
0
  6
CONTINUOUS
 62
     7
 10
226.49963
 20
210
 11
226.49963
 21
209.09999
  0
LINE
  8
0
  6
CONTINUOUS
 62
     7
 10
210.29968
 20
209.09999
 11
257.69983
 21
209.09999
  0
LINE
  8
0
  6
CONTINUOUS
 62
     7
 10
309.99976
 20
294.5
 11
303.99976
 21
294.5
  0
LINE
  8
0
  6
CONTINUOUS
 62
     7
 10
309.99976
 20
305.5
 11
303.99976
 21
305.5
  0
LINE
  8
0
  6
CONTINUOUS
 62
     7
 10
140.50012
 20
297.40601
 11
139.59412
 21
297.40601
  0
LINE
  8
0
  6
CONTINUOUS
 62
     7
 10
75
 20
85.913239
 11
75
 21
90.200745
  0
LINE
  8
0
  6
CONTINUOUS
 62
     7
 10
75.299416
 20
90.50032
 11
75.007408
 21
90.208313
  0
LINE
  8
0
  6
CONTINUOUS
 62
     7
 10
125
 20
85.913239
 11
125
 21
90.199692
  0
LINE
  8
0
  6
CONTINUOUS
 62
     7
 10
124.6995
 20
90.5
 11
124.99937
 21
90.200142
  0
LINE
  8
0
  6
CONTINUOUS
 62
     7
 10
175
 20
-14.08667
 11
175
 21
-9.7991943
  0
LINE
  8
0
  6
CONTINUOUS
 62
     7
 10
175.2997
 20
-9.4995375
 11
175.00772
 21
-9.7915039
  0
LINE
  8
0
  6
CONTINUOUS
 62
     7
 10
224.99997
 20
-14.08667
 11
224.99997
 21
-9.800293
  0
LINE
  8
0
  6
CONTINUOUS
 62
     7
 10
224.69981
 20
-9.4999142
 11
224.99968
 21
-9.7997789
  0
LINE
  8
0
  6
CONTINUOUS
 62
     7
 10
87.599854
 20
91.499992
 11
84
 21
91.499992
  0
LINE
  8
0
  6
CONTINUOUS
 62
     7
 10
75.299805
 20
92.249969
 11
75.299805
 21
106.49979
  0
LINE
  8
0
  6
CONTINUOUS
 62
     7
 10
160.00012
 20
282.37695
 11
203.39978
 21
282.37695
  0
LINE
  8
0
  6
CONTINUOUS
 62
     7
 10
264.59973
 20
282.37695
 11
309.99976
 21
282.37695
  0
LINE
  8
0
  6
CONTINUOUS
 62
     7
 10
264.59973
 20
317.62302
 11
309.99976
 21
317.62302
  0
LINE
  8
0
  6
CONTINUOUS
 62
     7
 10
160.00012
 20
317.62302
 11
203.39978
 21
317.62302
  0
LINE
  8
0
  6
CONTINUOUS
 62
     7
 10
303.99976
 20
296.76001
 11
264.99963
 21
296.76001
  0
LINE
  8
0
  6
CONTINUOUS
 62
     7
 10
303.99976
 20
303.23999
 11
264.99963
 21
303.23999
  0
LINE
  8
0
  6
CONTINUOUS
 62
     7
 10
303.99976
 20
304
 11
264.99963
 21
304
  0
LINE
  8
0
  6
CONTINUOUS
 62
     7
 10
118.53168
 20
94.379982
 11
118.46656
 21
94.314857
  0
LINE
  8
0
  6
CONTINUOUS
 62
     7
 10
118.53165
 20
101.62002
 11
118.46661
 21
101.68505
  0
LINE
  8
0
  6
CONTINUOUS
 62
     7
 10
118.84985
 20
101.32001
 11
118.84985
 21
94.679985
  0
LINE
  8
0
  6
CONTINUOUS
 62
     7
 10
81.46801
 20
101.61993
 11
81.533096
 21
101.68501
  0
LINE
  8
0
  6
CONTINUOUS
 62
     7
 10
81.149902
 20
101.32001
 11
81.149902
 21
94.679985
  0
LINE
  8
0
  6
CONTINUOUS
 62
     7
 10
81.467926
 20
94.379936
 11
81.53318
 21
94.314682
  0
LINE
  8
0
  6
CONTINUOUS
 62
     7
 10
118.53174
 20
94.37999
 11
118.5498
 21
94.37999
  0
LINE
  8
0
  6
CONTINUOUS
 62
     7
 10
118.53174
 20
101.62
 11
118.5498
 21
101.62
  0
LINE
  8
0
  6
CONTINUOUS
 62
     7
 10
81.468018
 20
101.62
 11
81.449951
 21
101.62
  0
LINE
  8
0
  6
CONTINUOUS
 62
     7
 10
81.468018
 20
94.37999
 11
81.449951
 21
94.37999
  0
LINE
  8
0
  6
CONTINUOUS
 62
     7
 10
115.49994
 20
109.44994
 11
114.94993
 21
109.99995
  0
LINE
  8
0
  6
CENTER
 62
     7
 10
206.13123
 20
206
 11
196.93201
 21
206
  0
LINE
  8
0
  6
CONTINUOUS
 62
     7
 10
201.89978
 20
205.0002
 11
201.89978
 21
208.25
  0
LINE
  8
0
  6
CONTINUOUS
 62
     7
 10
203.39978
 20
208.25
 11
201.89978
 21
208.25
  0
LINE
  8
0
  6
CONTINUOUS
 62
     7
 10
201.89978
 20
207.75
 11
200.14978
 21
207.75
  0
LINE
  8
0
  6
CONTINUOUS
 62
     7
 10
203.39978
 20
310.25009
 11
201.89978
 21
310.25009
  0
LINE
  8
0
  6
CONTINUOUS
 62
     7
 10
201.89978
 20
310.25009
 11
201.89978
 21
305.75
  0
LINE
  8
0
  6
CONTINUOUS
 62
     7
 10
201.89978
 20
309.74985
 11
200.14978
 21
309.74985
  0
LINE
  8
0
  6
CENTER
 62
     7
 10
206.13123
 20
308.00009
 11
196.93201
 21
308.00009
  0
LINE
  8
0
  6
CONTINUOUS
 62
     7
 10
201.89978
 20
306.24997
 11
200.14978
 21
306.24997
  0
LINE
  8
0
  6
CONTINUOUS
 62
     7
 10
203.39978
 20
305.75
 11
201.89978
 21
305.75
  0
LINE
  8
0
  6
CONTINUOUS
 62
     7
 10
113.69995
 20
107.99999
 11
93.030823
 21
107.99999
  0
LINE
  8
0
  6
CONTINUOUS
 62
     7
 10
303.99979
 20
294.5
 11
309.99979
 21
305.5
  0
LINE
  8
0
  6
CONTINUOUS
 62
     7
 10
303.99976
 20
305.49994
 11
309.99973
 21
294.5
  0
LINE
  8
0
  6
CONTINUOUS
 62
     7
 10
309.99976
 20
276.80005
 11
315.49976
 21
276.80005
  0
LINE
  8
0
  6
CONTINUOUS
 62
     7
 10
309.99976
 20
323.20004
 11
315.49976
 21
323.20004
  0
LINE
  8
0
  6
CENTER
 62
     7
 10
9.7088432
 20
9.7081633
 11
13.626199
 21
13.625519
  0
LINE
  8
0
  6
CONTINUOUS
 62
     7
 10
202.99963
 20
310.25009
 11
202.99963
 21
315.70004
  0
LINE
  8
0
  6
CENTER
 62
     7
 10
312.49976
 20
274.03006
 11
312.49976
 21
282.88239
  0
LINE
  8
0
  6
CENTER
 62
     7
 10
156.50012
 20
274.03006
 11
156.50012
 21
282.88239
  0
LINE
  8
0
  6
CONTINUOUS
 62
     7
 10
88.849365
 20
96.199989
 11
88.849365
 21
92.199982
  0
LINE
  8
0
  6
CONTINUOUS
 62
     7
 10
86.149414
 20
96.199989
 11
86.149414
 21
92.199982
  0
LINE
  8
0
  6
CONTINUOUS
 62
     7
 10
113.85034
 20
96.199989
 11
113.85034
 21
92.199982
  0
LINE
  8
0
  6
CONTINUOUS
 62
     7
 10
111.15039
 20
96.199989
 11
111.15039
 21
92.199982
  0
LINE
  8
0
  6
CONTINUOUS
 62
     7
 10
86.149414
 20
92.199982
 11
83.149902
 21
92.199982
  0
LINE
  8
0
  6
CONTINUOUS
 62
     7
 10
111.15039
 20
92.199982
 11
104.5
 21
92.199982
  0
LINE
  8
0
  6
CENTER
 62
     7
 10
-25.969818
 20
-4
 11
-17.116455
 21
-4
  0
LINE
  8
0
  6
DASHED
 62
     7
 10
19.200909
 20
-2.9328458
 11
18.585125
 21
-3.9994144
  0
LINE
  8
0
  6
DASHED
 62
     7
 10
24.700195
 20
-5.0664673
 11
19.200439
 21
-5.0664673
  0
LINE
  8
0
  6
DASHED
 62
     7
 10
20.70088
 20
-5.2991757
 11
20.296516
 21
-5.0657163
  0
LINE
  8
0
  6
DASHED
 62
     7
 10
19.201176
 20
-5.0662684
 11
18.5853
 21
-3.999541
  0
LINE
  8
0
  6
DASHED
 62
     7
 10
24.700195
 20
-5.3000488
 11
20.700439
 21
-5.3000488
  0
LINE
  8
0
  6
DASHED
 62
     7
 10
20.700439
 20
-2.6999512
 11
20.700439
 21
-5.3000488
  0
LINE
  8
0
  6
DASHED
 62
     7
 10
24.700195
 20
-2.9334717
 11
19.200439
 21
-2.9334717
  0
LINE
  8
0
  6
CENTER
 62
     7
 10
25.970184
 20
-4
 11
17.118317
 21
-4
  0
LINE
  8
0
  6
DASHED
 62
     7
 10
24.700195
 20
-2.6999512
 11
20.700439
 21
-2.6999512
  0
LINE
  8
0
  6
DASHED
 62
     7
 10
20.700676
 20
-2.6998572
 11
20.296312
 21
-2.9333167
  0
LINE
  8
0
  6
DASHED
 62
     7
 10
19.200439
 20
-2.9334717
 11
19.200439
 21
-5.0664673
  0
LINE
  8
0
  6
DASHED
 62
     7
 10
175.29999
 20
-2.6999512
 11
179.29999
 21
-2.6999512
  0
LINE
  8
0
  6
CENTER
 62
     7
 10
174.03
 20
-4
 11
182.88202
 21
-4
  0
LINE
  8
0
  6
DASHED
 62
     7
 10
175.29999
 20
-2.9334717
 11
180.79999
 21
-2.9334717
  0
LINE
  8
0
  6
DASHED
 62
     7
 10
179.29999
 20
-2.6999512
 11
179.29999
 21
-5.2999268
  0
LINE
  8
0
  6
DASHED
 62
     7
 10
175.29999
 20
-5.2999268
 11
179.29999
 21
-5.2999268
  0
LINE
  8
0
  6
DASHED
 62
     7
 10
180.7998
 20
-5.0664806
 11
181.41565
 21
-3.9998066
  0
LINE
  8
0
  6
DASHED
 62
     7
 10
179.29984
 20
-5.29988
 11
179.7043
 21
-5.0663595
  0
LINE
  8
0
  6
DASHED
 62
     7
 10
175.29999
 20
-5.0664063
 11
180.79999
 21
-5.0664063
  0
LINE
  8
0
  6
DASHED
 62
     7
 10
180.79982
 20
-2.933111
 11
181.4156
 21
-3.9996796
  0
LINE
  8
0
  6
DASHED
 62
     7
 10
179.3
 20
-2.69997
 11
179.70447
 21
-2.9334905
  0
LINE
  8
0
  6
DASHED
 62
     7
 10
180.79999
 20
-2.9334717
 11
180.79999
 21
-5.0664063
  0
LINE
  8
0
  6
CENTER
 62
     7
 10
225.97
 20
-4
 11
217.1178
 21
-4
  0
LINE
  8
0
  6
CONTINUOUS
 62
     7
 10
257.69983
 20
308
 11
244.09973
 21
308
  0
LINE
  8
0
  6
CONTINUOUS
 62
     7
 10
90.969238
 20
107.99999
 11
86.299805
 21
107.99999
  0
LINE
  8
0
  6
CONTINUOUS
 62
     7
 10
257.69983
 20
292
 11
244.09973
 21
292
  0
LINE
  8
0
  6
CONTINUOUS
 62
     7
 10
239.09973
 20
297
 11
239.09973
 21
303
  0
LINE
  8
0
  6
CONTINUOUS
 62
     7
 10
315.49976
 20
185
 11
315.49976
 21
208.00002
  0
LINE
  8
0
  6
CONTINUOUS
 62
     7
 10
150
 20
211.5
 11
150
 21
185.50002
  0
LINE
  8
0
  6
CONTINUOUS
 62
     7
 10
145.79993
 20
193.75
 11
145.79993
 21
188.25002
  0
LINE
  8
0
  6
CONTINUOUS
 62
     7
 10
145.79993
 20
193.75
 11
148.79993
 21
193.75
  0
LINE
  8
0
  6
CONTINUOUS
 62
     7
 10
145.79993
 20
188.25002
 11
148.79993
 21
188.25002
  0
LINE
  8
0
  6
CONTINUOUS
 62
     7
 10
148.79993
 20
193.94995
 11
148.79993
 21
188.05006
  0
LINE
  8
0
  6
CONTINUOUS
 62
     7
 10
149.50012
 20
193.94995
 11
148.79993
 21
193.94995
  0
LINE
  8
0
  6
CONTINUOUS
 62
     7
 10
149.50012
 20
188.05006
 11
148.79993
 21
188.05006
  0
LINE
  8
0
  6
CONTINUOUS
 62
     7
 10
150
 20
194
 11
149.50012
 21
194
  0
LINE
  8
0
  6
CONTINUOUS
 62
     7
 10
150
 20
188
 11
149.50012
 21
188
  0
LINE
  8
0
  6
CONTINUOUS
 62
     7
 10
145.79993
 20
204.74998
 11
145.79993
 21
199.25
  0
LINE
  8
0
  6
CONTINUOUS
 62
     7
 10
145.79993
 20
204.74998
 11
148.79993
 21
204.74998
  0
LINE
  8
0
  6
CONTINUOUS
 62
     7
 10
145.79993
 20
199.25
 11
148.79993
 21
199.25
  0
LINE
  8
0
  6
CONTINUOUS
 62
     7
 10
148.79993
 20
204.94994
 11
148.79993
 21
199.05005
  0
LINE
  8
0
  6
CONTINUOUS
 62
     7
 10
149.50012
 20
204.94994
 11
148.79993
 21
204.94994
  0
LINE
  8
0
  6
CONTINUOUS
 62
     7
 10
149.50012
 20
199.05005
 11
148.79993
 21
199.05005
  0
LINE
  8
0
  6
CONTINUOUS
 62
     7
 10
150
 20
204.99998
 11
149.50012
 21
204.99998
  0
LINE
  8
0
  6
CONTINUOUS
 62
     7
 10
150
 20
199
 11
149.50012
 21
199
  0
LINE
  8
0
  6
CONTINUOUS
 62
     7
 10
145.99988
 20
188.25002
 11
145.99988
 21
185.50002
  0
LINE
  8
0
  6
CONTINUOUS
 62
     7
 10
145.99988
 20
199.25
 11
145.99988
 21
193.75
  0
LINE
  8
0
  6
CONTINUOUS
 62
     7
 10
149.50012
 20
204.99998
 11
149.50012
 21
199
  0
LINE
  8
0
  6
CONTINUOUS
 62
     7
 10
149.50012
 20
194
 11
149.50012
 21
188
  0
LINE
  8
0
  6
CENTER
 62
     7
 10
145.79993
 20
191
 11
165.00012
 21
191
  0
LINE
  8
0
  6
CENTER
 62
     7
 10
145.79993
 20
201.99998
 11
165.00012
 21
201.99998
  0
LINE
  8
0
  6
CONTINUOUS
 62
     7
 10
145.49982
 20
295.30005
 11
145.19978
 21
295
  0
LINE
  8
0
  6
CONTINUOUS
 62
     7
 10
319.69995
 20
188.25058
 11
319.69995
 21
193.75056
  0
LINE
  8
0
  6
CONTINUOUS
 62
     7
 10
319.69995
 20
188.25058
 11
316.69995
 21
188.25058
  0
LINE
  8
0
  6
CONTINUOUS
 62
     7
 10
319.69995
 20
193.75056
 11
316.69995
 21
193.75056
  0
LINE
  8
0
  6
CONTINUOUS
 62
     7
 10
316.69995
 20
188.05063
 11
316.69995
 21
193.95052
  0
LINE
  8
0
  6
CONTINUOUS
 62
     7
 10
315.99976
 20
188.05063
 11
316.69995
 21
188.05063
  0
LINE
  8
0
  6
CONTINUOUS
 62
     7
 10
315.99976
 20
193.95052
 11
316.69995
 21
193.95052
  0
LINE
  8
0
  6
CONTINUOUS
 62
     7
 10
315.49976
 20
188.00058
 11
315.99976
 21
188.00058
  0
LINE
  8
0
  6
CONTINUOUS
 62
     7
 10
315.49976
 20
194.00058
 11
315.99976
 21
194.00058
  0
LINE
  8
0
  6
CONTINUOUS
 62
     7
 10
319.69995
 20
199.25058
 11
319.69995
 21
204.75055
  0
LINE
  8
0
  6
CONTINUOUS
 62
     7
 10
319.69995
 20
199.25058
 11
316.69995
 21
199.25058
  0
LINE
  8
0
  6
CONTINUOUS
 62
     7
 10
319.69995
 20
204.75055
 11
316.69995
 21
204.75055
  0
LINE
  8
0
  6
CONTINUOUS
 62
     7
 10
316.69995
 20
199.05063
 11
316.69995
 21
204.9505
  0
LINE
  8
0
  6
CONTINUOUS
 62
     7
 10
315.99976
 20
199.05063
 11
316.69995
 21
199.05063
  0
LINE
  8
0
  6
CONTINUOUS
 62
     7
 10
315.99976
 20
204.9505
 11
316.69995
 21
204.9505
  0
LINE
  8
0
  6
CONTINUOUS
 62
     7
 10
315.49976
 20
199.00056
 11
315.99976
 21
199.00056
  0
LINE
  8
0
  6
CONTINUOUS
 62
     7
 10
315.49976
 20
205.00056
 11
315.99976
 21
205.00056
  0
LINE
  8
0
  6
CENTER
 62
     7
 10
304.99976
 20
191.00058
 11
319.69995
 21
191.00058
  0
LINE
  8
0
  6
CENTER
 62
     7
 10
304.99976
 20
202.00056
 11
319.69995
 21
202.00056
  0
LINE
  8
0
  6
CONTINUOUS
 62
     7
 10
163
 20
304.25
 11
163
 21
295.75
  0
LINE
  8
0
  6
CONTINUOUS
 62
     7
 10
163
 20
295.75
 11
162
 21
295.75
  0
LINE
  8
0
  6
CONTINUOUS
 62
     7
 10
163
 20
304.25
 11
162
 21
304.25
  0
LINE
  8
0
  6
CONTINUOUS
 62
     7
 10
164
 20
296.5
 11
164
 21
296
  0
LINE
  8
0
  6
CONTINUOUS
 62
     7
 10
169
 20
296.5
 11
169
 21
296
  0
LINE
  8
0
  6
CONTINUOUS
 62
     7
 10
177.29999
 20
22.5
 11
222.70001
 21
22.5
  0
LINE
  8
0
  6
CENTER
 62
     7
 10
113.27002
 20
278.5
 11
98.72998
 21
278.5
  0
LINE
  8
0
  6
CENTER
 62
     7
 10
113.27002
 20
321.50009
 11
98.72998
 21
321.50009
  0
LINE
  8
0
  6
CONTINUOUS
 62
     7
 10
257.19983
 20
306.75
 11
241.19983
 21
306.75
  0
LINE
  8
0
  6
CONTINUOUS
 62
     7
 10
257.19983
 20
293.25
 11
241.19983
 21
293.25
  0
LINE
  8
0
  6
CONTINUOUS
 62
     7
 10
257.19983
 20
306.75
 11
257.19983
 21
293.25
  0
LINE
  8
0
  6
CONTINUOUS
 62
     7
 10
241.19983
 20
306.75
 11
241.19983
 21
293.25
  0
LINE
  8
0
  6
CONTINUOUS
 62
     7
 10
315.99976
 20
194.00058
 11
315.99976
 21
188.00058
  0
LINE
  8
0
  6
CONTINUOUS
 62
     7
 10
315.99976
 20
199.00056
 11
315.99976
 21
205.00056
  0
LINE
  8
0
  6
CENTER
 62
     7
 10
176.00012
 20
212.00002
 11
176.00012
 21
176.00002
  0
LINE
  8
0
  6
CENTER
 62
     7
 10
-24.520233
 20
-9
 11
-18.480255
 21
-9
  0
LINE
  8
0
  6
CENTER
 62
     7
 10
-21.500244
 20
-12.02002
 11
-21.500244
 21
-5.9799805
  0
LINE
  8
0
  6
CENTER
 62
     7
 10
-24.520233
 20
2
 11
-18.480255
 21
2
  0
LINE
  8
0
  6
CENTER
 62
     7
 10
-21.500244
 20
-1.0199585
 11
-21.500244
 21
5.0200195
  0
LINE
  8
0
  6
CENTER
 62
     7
 10
18.479889
 20
2
 11
24.519867
 21
2
  0
LINE
  8
0
  6
CENTER
 62
     7
 10
21.499878
 20
-1.0199585
 11
21.499878
 21
5.0200195
  0
LINE
  8
0
  6
CENTER
 62
     7
 10
18.479889
 20
-9
 11
24.519867
 21
-9
  0
LINE
  8
0
  6
CENTER
 62
     7
 10
21.499878
 20
-12.02002
 11
21.499878
 21
-5.9799805
  0
LINE
  8
0
  6
CENTER
 62
     7
 10
-9.7088213
 20
9.7081413
 11
-13.626221
 21
13.625541
  0
LINE
  8
0
  6
CENTER
 62
     7
 10
9.7088423
 20
-9.7081852
 11
13.626199
 21
-13.625541
  0
LINE
  8
0
  6
CENTER
 62
     7
 10
-9.7088423
 20
-9.7081413
 11
-13.626221
 21
-13.625519
  0
LINE
  8
0
  6
CENTER
 62
     7
 10
182.51999
 20
2
 11
174.47998
 21
2
  0
LINE
  8
0
  6
CENTER
 62
     7
 10
178.5
 20
6.0200195
 11
178.5
 21
-2.0198975
  0
LINE
  8
0
  6
CENTER
 62
     7
 10
217.48001
 20
-9
 11
225.52002
 21
-9
  0
LINE
  8
0
  6
CENTER
 62
     7
 10
221.5
 20
-4.9799805
 11
221.5
 21
-13.019897
  0
LINE
  8
0
  6
CENTER
 62
     7
 10
221.5
 20
6.0200195
 11
221.5
 21
-2.0198975
  0
LINE
  8
0
  6
CENTER
 62
     7
 10
174.48001
 20
-9
 11
182.52002
 21
-9
  0
LINE
  8
0
  6
CENTER
 62
     7
 10
178.5
 20
-4.9799805
 11
178.5
 21
-13.019897
  0
LINE
  8
0
  6
CENTER
 62
     7
 10
312.49976
 20
198.57057
 11
312.49976
 21
193.43056
  0
LINE
  8
0
  6
CENTER
 62
     7
 10
309.92969
 20
196.00056
 11
315.0697
 21
196.00056
  0
LINE
  8
0
  6
CENTER
 62
     7
 10
156.50012
 20
198.57002
 11
156.50012
 21
193.43001
  0
LINE
  8
0
  6
CENTER
 62
     7
 10
153.93018
 20
196.00002
 11
159.07007
 21
196.00002
  0
LINE
  8
0
  6
CENTER
 62
     7
 10
195
 20
317.77008
 11
195
 21
307.23007
  0
LINE
  8
0
  6
CENTER
 62
     7
 10
189.72998
 20
312.50009
 11
200.27002
 21
312.50009
  0
LINE
  8
0
  6
CENTER
 62
     7
 10
195
 20
292.77002
 11
195
 21
282.23001
  0
LINE
  8
0
  6
CENTER
 62
     7
 10
189.72998
 20
287.5
 11
200.27002
 21
287.5
  0
LINE
  8
0
  6
CENTER
 62
     7
 10
218.99988
 20
290.77002
 11
218.99988
 21
284.23001
  0
LINE
  8
0
  6
CENTER
 62
     7
 10
215.72998
 20
287.5
 11
222.2699
 21
287.5
  0
LINE
  8
0
  6
CENTER
 62
     7
 10
218.99988
 20
315.77008
 11
218.99988
 21
309.23007
  0
LINE
  8
0
  6
CENTER
 62
     7
 10
215.72998
 20
312.50009
 11
222.2699
 21
312.50009
  0
LINE
  8
0
  6
CENTER
 62
     7
 10
233.99988
 20
315.96985
 11
233.99988
 21
308.02985
  0
LINE
  8
0
  6
CENTER
 62
     7
 10
230.02991
 20
311.99985
 11
237.96997
 21
311.99985
  0
LINE
  8
0
  6
CENTER
 62
     7
 10
233.99988
 20
291.97
 11
233.99988
 21
284.03
  0
LINE
  8
0
  6
CENTER
 62
     7
 10
230.02991
 20
288
 11
237.96997
 21
288
  0
LINE
  8
0
  6
CENTER
 62
     7
 10
248.99988
 20
290.77002
 11
248.99988
 21
284.23001
  0
LINE
  8
0
  6
CENTER
 62
     7
 10
245.72998
 20
287.5
 11
252.2699
 21
287.5
  0
LINE
  8
0
  6
CENTER
 62
     7
 10
248.99988
 20
315.77008
 11
248.99988
 21
309.23007
  0
LINE
  8
0
  6
CENTER
 62
     7
 10
245.72998
 20
312.50009
 11
252.2699
 21
312.50009
  0
LINE
  8
0
  6
CENTER
 62
     7
 10
275
 20
317.77008
 11
275
 21
307.23007
  0
LINE
  8
0
  6
CENTER
 62
     7
 10
269.72998
 20
312.50009
 11
280.27002
 21
312.50009
  0
LINE
  8
0
  6
CENTER
 62
     7
 10
275
 20
292.77002
 11
275
 21
282.23001
  0
LINE
  8
0
  6
CENTER
 62
     7
 10
269.72998
 20
287.5
 11
280.27002
 21
287.5
  0
LINE
  8
0
  6
CONTINUOUS
 62
     7
 10
253.79015
 20
294.30737
 11
255.89247
 21
296.4097
  0
LINE
  8
0
  6
CONTINUOUS
 62
     7
 10
253.50729
 20
294.59015
 11
255.60966
 21
296.69254
  0
LINE
  8
0
  6
CONTINUOUS
 62
     7
 10
242.79016
 20
303.30731
 11
244.89253
 21
305.4097
  0
LINE
  8
0
  6
CONTINUOUS
 62
     7
 10
242.50729
 20
303.59018
 11
244.60966
 21
305.69257
  0
LINE
  8
0
  6
CONTINUOUS
 62
     7
 10
241.19983
 20
302.39374
 11
257.19983
 21
302.39374
  0
LINE
  8
0
  6
CONTINUOUS
 62
     7
 10
241.19983
 20
297.60626
 11
257.19983
 21
297.60626
  0
LINE
  8
0
  6
CENTER
 62
     7
 10
217.48001
 20
2
 11
225.52002
 21
2
  0
LINE
  8
0
  6
CONTINUOUS
 62
     7
 10
210.29968
 20
292.6001
 11
226.49988
 21
292.6001
  0
LINE
  8
0
  6
CONTINUOUS
 62
     7
 10
210.29968
 20
307.40002
 11
226.49988
 21
307.40002
  0
LINE
  8
0
  6
CONTINUOUS
 62
     7
 10
241.49988
 20
307.40002
 11
241.72485
 21
307.40002
  0
LINE
  8
0
  6
CONTINUOUS
 62
     7
 10
241.49988
 20
292.6001
 11
241.72473
 21
292.6001
  0
LINE
  8
0
  6
CONTINUOUS
 62
     7
 10
115.5
 20
109.09998
 11
84.5
 21
109.09998
  0
LINE
  8
0
  6
CONTINUOUS
 62
     7
 10
311.15039
 20
92.199982
 11
304.5
 21
92.199982
  0
LINE
  8
0
  6
CONTINUOUS
 62
     7
 10
311.15039
 20
96.199989
 11
311.15039
 21
92.199982
  0
LINE
  8
0
  6
CONTINUOUS
 62
     7
 10
313.85034
 20
96.199989
 11
313.85034
 21
92.199982
  0
LINE
  8
0
  6
CONTINUOUS
 62
     7
 10
313.69995
 20
107.99999
 11
300
 21
107.99999
  0
LINE
  8
0
  6
CONTINUOUS
 62
     7
 10
315.49991
 20
109.44991
 11
314.94989
 21
109.99992
  0
LINE
  8
0
  6
CONTINUOUS
 62
     7
 10
318.53174
 20
101.62
 11
318.5498
 21
101.62
  0
LINE
  8
0
  6
CONTINUOUS
 62
     7
 10
318.53174
 20
94.37999
 11
318.5498
 21
94.37999
  0
LINE
  8
0
  6
CONTINUOUS
 62
     7
 10
318.84985
 20
101.32001
 11
318.84985
 21
94.679985
  0
LINE
  8
0
  6
CONTINUOUS
 62
     7
 10
318.53162
 20
101.61997
 11
318.46655
 21
101.68505
  0
LINE
  8
0
  6
CONTINUOUS
 62
     7
 10
318.53168
 20
94.379936
 11
318.46658
 21
94.314857
  0
LINE
  8
0
  6
CONTINUOUS
 62
     7
 10
324.69949
 20
90.499992
 11
324.99936
 21
90.200127
  0
LINE
  8
0
  6
CONTINUOUS
 62
     7
 10
325
 20
85.913239
 11
325
 21
90.199692
  0
LINE
  8
0
  6
CONTINUOUS
 62
     7
 10
323.19977
 20
107.99998
 11
324.69977
 21
106.49996
  0
LINE
  8
0
  6
CONTINUOUS
 62
     7
 10
311.6163
 20
98.883858
 11
313.38409
 21
97.116096
  0
LINE
  8
0
  6
CONTINUOUS
 62
     7
 10
311.6163
 20
97.116096
 11
313.38409
 21
98.883858
  0
LINE
  8
0
  6
CENTER
 62
     7
 10
312.5
 20
111.26998
 11
312.5
 21
99.709618
  0
LINE
  8
0
  6
CONTINUOUS
 62
     7
 10
315.5
 20
109.45003
 11
315.5
 21
105.30035
  0
LINE
  8
0
  6
CONTINUOUS
 62
     7
 10
308.2998
 20
110
 11
307.39978
 21
109.09998
  0
LINE
  8
0
  6
CONTINUOUS
 62
     7
 10
314.94995
 20
109.99998
 11
308.2998
 21
109.99998
  0
LINE
  8
0
  6
CONTINUOUS
 62
     7
 10
315.5
 20
107.99999
 11
323.19995
 21
107.99999
  0
LINE
  8
0
  6
CONTINUOUS
 62
     7
 10
316.69995
 20
102.46192
 11
316.69995
 21
105.30035
  0
LINE
  8
0
  6
CONTINUOUS
 62
     7
 10
318.19977
 20
100.96194
 11
316.6998
 21
102.46191
  0
LINE
  8
0
  6
CONTINUOUS
 62
     7
 10
318.19995
 20
100.96192
 11
318.19995
 21
95.038094
  0
LINE
  8
0
  6
CONTINUOUS
 62
     7
 10
318.19977
 20
95.038101
 11
316.69977
 21
93.538094
  0
LINE
  8
0
  6
CONTINUOUS
 62
     7
 10
316.69995
 20
92.199982
 11
316.69995
 21
93.538094
  0
LINE
  8
0
  6
CONTINUOUS
 62
     7
 10
314.19995
 20
107.5
 11
314.19995
 21
105.80037
  0
LINE
  8
0
  6
CONTINUOUS
 62
     7
 10
304.5
 20
100
 11
304.5
 21
92.199982
  0
LINE
  8
0
  6
CONTINUOUS
 62
     7
 10
316.84985
 20
92.199982
 11
313.85034
 21
92.199982
  0
LINE
  8
0
  6
CONTINUOUS
 62
     7
 10
315.6499
 20
105.90037
 11
315.6499
 21
105.30035
  0
LINE
  8
0
  6
CONTINUOUS
 62
     7
 10
319.17404
 20
106.20033
 11
320.1619
 21
105.21247
  0
LINE
  8
0
  6
CONTINUOUS
 62
     7
 10
320.16202
 20
105.2124
 11
319.94992
 21
105.00027
  0
LINE
  8
0
  6
CONTINUOUS
 62
     7
 10
319.04974
 20
105.90029
 11
319.94971
 21
105.00031
  0
LINE
  8
0
  6
CONTINUOUS
 62
     7
 10
319.0498
 20
105.90037
 11
318.74976
 21
105.90037
  0
LINE
  8
0
  6
CONTINUOUS
 62
     7
 10
318.1499
 20
105.90037
 11
318.1499
 21
105.30035
  0
LINE
  8
0
  6
CONTINUOUS
 62
     7
 10
318.14975
 20
105.30051
 11
318.74976
 21
105.90051
  0
LINE
  8
0
  6
CONTINUOUS
 62
     7
 10
319.17407
 20
106.20039
 11
317.1499
 21
106.20039
  0
LINE
  8
0
  6
CONTINUOUS
 62
     7
 10
318.1499
 20
105.90037
 11
315.6499
 21
105.90037
  0
LINE
  8
0
  6
CONTINUOUS
 62
     7
 10
317.1499
 20
106.20036
 11
317.1499
 21
105.90037
  0
LINE
  8
0
  6
CONTINUOUS
 62
     7
 10
318.1499
 20
105.30035
 11
314.69995
 21
105.30035
  0
LINE
  8
0
  6
CONTINUOUS
 62
     7
 10
315.19995
 20
107.8
 11
315.19995
 21
105.30035
  0
LINE
  8
0
  6
CONTINUOUS
 62
     7
 10
316.89984
 20
91.999985
 11
317.19983
 21
92.29998
  0
LINE
  8
0
  6
CONTINUOUS
 62
     7
 10
317.19995
 20
92.342896
 11
317.19995
 21
92.29998
  0
LINE
  8
0
  6
CONTINUOUS
 62
     7
 10
314.69995
 20
108.29999
 11
300
 21
108.29999
  0
LINE
  8
0
  6
CONTINUOUS
 62
     7
 10
316.8999
 20
91.999985
 11
300
 21
91.999985
  0
LINE
  8
0
  6
CONTINUOUS
 62
     7
 10
315.99979
 20
91.499992
 11
316.49982
 21
92.000023
  0
LINE
  8
0
  6
CONTINUOUS
 62
     7
 10
316
 20
91.499992
 11
300
 21
91.499992
  0
LINE
  8
0
  6
CENTER
 62
     7
 10
300
 20
111.26998
 11
300
 21
82.729996
  0
LINE
  8
0
  6
CENTER
 62
     7
 10
312.5
 20
90.938889
 11
312.5
 21
82.729996
  0
LINE
  8
0
  6
CONTINUOUS
 62
     7
 10
317.34985
 20
91.999985
 11
317.34985
 21
93.065773
  0
LINE
  8
0
  6
CONTINUOUS
 62
     7
 10
317.34985
 20
102.9342
 11
317.34985
 21
105.30035
  0
LINE
  8
0
  6
CONTINUOUS
 62
     7
 10
304.99942
 20
84.500008
 11
305.49939
 21
84.000061
  0
LINE
  8
0
  6
CONTINUOUS
 62
     7
 10
304.99951
 20
84.499985
 11
300
 21
84.499985
  0
LINE
  8
0
  6
CONTINUOUS
 62
     7
 10
323.08667
 20
83.999992
 11
305.49951
 21
83.999992
  0
LINE
  8
0
  6
CONTINUOUS
 62
     7
 10
322.63647
 20
105.0002
 11
317.82324
 21
105.0002
  0
LINE
  8
0
  6
CENTER
 62
     7
 10
294.22998
 20
100
 11
305.77002
 21
100
  0
LINE
  8
0
  6
CONTINUOUS
 62
     7
 10
315.34985
 20
89.999992
 11
300
 21
89.999992
  0
LINE
  8
0
  6
CONTINUOUS
 62
     7
 10
324.69995
 20
90.499985
 11
324.69995
 21
106.50002
  0
LINE
  8
0
  6
CONTINUOUS
 62
     7
 10
315.5
 20
109.09998
 11
300
 21
109.09998
  0
LINE
  8
0
  6
PHANTOM
 62
     7
 10
329.69995
 20
89.549995
 11
329.69995
 21
102.44999
  0
LINE
  8
0
  6
PHANTOM
 62
     7
 10
329.19995
 20
98.150002
 11
329.40002
 21
98.150002
  0
LINE
  8
0
  6
PHANTOM
 62
     7
 10
325
 20
99.999992
 11
329.40002
 21
99.999992
  0
LINE
  8
0
  6
PHANTOM
 62
     7
 10
326.5
 20
98.599998
 11
326.5
 21
98.449989
  0
LINE
  8
0
  6
PHANTOM
 62
     7
 10
329.19995
 20
93.849998
 11
329.40002
 21
93.849998
  0
LINE
  8
0
  6
PHANTOM
 62
     7
 10
328.90002
 20
98.599998
 11
328.90002
 21
98.449989
  0
LINE
  8
0
  6
PHANTOM
 62
     7
 10
326.5
 20
93.400002
 11
326.5
 21
93.549995
  0
LINE
  8
0
  6
PHANTOM
 62
     7
 10
325.79993
 20
93.849998
 11
326.19995
 21
93.849998
  0
LINE
  8
0
  6
PHANTOM
 62
     7
 10
325.79993
 20
98.150002
 11
326.19995
 21
98.150002
  0
LINE
  8
0
  6
PHANTOM
 62
     7
 10
326.79993
 20
93.099998
 11
328.59998
 21
93.099998
  0
LINE
  8
0
  6
PHANTOM
 62
     7
 10
328.90002
 20
93.400002
 11
328.90002
 21
93.549995
  0
LINE
  8
0
  6
PHANTOM
 62
     7
 10
325.5
 20
94.150002
 11
325.5
 21
97.849998
  0
LINE
  8
0
  6
PHANTOM
 62
     7
 10
326.79993
 20
98.900002
 11
328.59998
 21
98.900002
  0
LINE
  8
0
  6
PHANTOM
 62
     7
 10
325
 20
91.999992
 11
329.40002
 21
91.999992
  0
LINE
  8
0
  6
CENTER
 62
     7
 10
337.56995
 20
95.999992
 11
320.69995
 21
95.999992
  0
LINE
  8
0
  6
PHANTOM
 62
     7
 10
330.09998
 20
89.949989
 11
330.09998
 21
102.05
  0
LINE
  8
0
  6
PHANTOM
 62
     7
 10
331.69995
 20
89.949989
 11
330.09998
 21
89.949989
  0
LINE
  8
0
  6
PHANTOM
 62
     7
 10
337.19995
 20
101.59999
 11
336.29993
 21
101.59999
  0
LINE
  8
0
  6
PHANTOM
 62
     7
 10
331.69995
 20
89.549995
 11
329.69995
 21
89.549995
  0
LINE
  8
0
  6
PHANTOM
 62
     7
 10
331.69995
 20
102.44999
 11
329.69995
 21
102.44999
  0
LINE
  8
0
  6
PHANTOM
 62
     7
 10
337.19995
 20
90.399994
 11
336.29993
 21
90.399994
  0
LINE
  8
0
  6
PHANTOM
 62
     7
 10
337.19995
 20
90.399994
 11
337.19995
 21
101.59999
  0
LINE
  8
0
  6
PHANTOM
 62
     7
 10
331.69995
 20
102.05
 11
330.09998
 21
102.05
  0
LINE
  8
0
  6
PHANTOM
 62
     7
 10
331.69995
 20
89.549995
 11
331.69995
 21
89.949989
  0
LINE
  8
0
  6
PHANTOM
 62
     7
 10
336.29993
 20
89.999992
 11
336.29993
 21
101.99999
  0
LINE
  8
0
  6
PHANTOM
 62
     7
 10
336.29993
 20
89.999992
 11
330.09998
 21
89.999992
  0
LINE
  8
0
  6
PHANTOM
 62
     7
 10
336.29993
 20
101.99999
 11
330.09998
 21
101.99999
  0
LINE
  8
0
  6
PHANTOM
 62
     7
 10
331.69995
 20
102.05
 11
331.69995
 21
102.44999
  0
LINE
  8
0
  6
PHANTOM
 62
     7
 10
327.69995
 20
94.799995
 11
327.69995
 21
97.199989
  0
LINE
  8
0
  6
PHANTOM
 62
     7
 10
329.69995
 20
94.799995
 11
327.69995
 21
94.799995
  0
LINE
  8
0
  6
PHANTOM
 62
     7
 10
329.69995
 20
97.199989
 11
327.69995
 21
97.199989
  0
LINE
  8
0
  6
CONTINUOUS
 62
     7
 10
411.15039
 20
92.199982
 11
404.5
 21
92.199982
  0
LINE
  8
0
  6
CONTINUOUS
 62
     7
 10
411.15039
 20
96.199989
 11
411.15039
 21
92.199982
  0
LINE
  8
0
  6
CONTINUOUS
 62
     7
 10
413.85034
 20
96.199989
 11
413.85034
 21
92.199982
  0
LINE
  8
0
  6
CONTINUOUS
 62
     7
 10
413.69995
 20
107.99999
 11
400
 21
107.99999
  0
LINE
  8
0
  6
CONTINUOUS
 62
     7
 10
415.49994
 20
109.44991
 11
414.94992
 21
109.99992
  0
LINE
  8
0
  6
CONTINUOUS
 62
     7
 10
418.53174
 20
101.62
 11
418.5498
 21
101.62
  0
LINE
  8
0
  6
CONTINUOUS
 62
     7
 10
418.53174
 20
94.37999
 11
418.5498
 21
94.37999
  0
LINE
  8
0
  6
CONTINUOUS
 62
     7
 10
418.84985
 20
101.32001
 11
418.84985
 21
94.679985
  0
LINE
  8
0
  6
CONTINUOUS
 62
     7
 10
418.53165
 20
101.61997
 11
418.46655
 21
101.68505
  0
LINE
  8
0
  6
CONTINUOUS
 62
     7
 10
418.53168
 20
94.379936
 11
418.46661
 21
94.314857
  0
LINE
  8
0
  6
CONTINUOUS
 62
     7
 10
424.69949
 20
90.500031
 11
424.99936
 21
90.200165
  0
LINE
  8
0
  6
CONTINUOUS
 62
     7
 10
425
 20
85.913239
 11
425
 21
90.199692
  0
LINE
  8
0
  6
CONTINUOUS
 62
     7
 10
423.1998
 20
107.99997
 11
424.6998
 21
106.49995
  0
LINE
  8
0
  6
CONTINUOUS
 62
     7
 10
411.61633
 20
98.883858
 11
413.38409
 21
97.116096
  0
LINE
  8
0
  6
CONTINUOUS
 62
     7
 10
411.61633
 20
97.116096
 11
413.38409
 21
98.883858
  0
LINE
  8
0
  6
CENTER
 62
     7
 10
412.5
 20
111.26998
 11
412.5
 21
99.709618
  0
LINE
  8
0
  6
CONTINUOUS
 62
     7
 10
415.5
 20
109.45003
 11
415.5
 21
105.30035
  0
LINE
  8
0
  6
CONTINUOUS
 62
     7
 10
408.29984
 20
110.00001
 11
407.39981
 21
109.09998
  0
LINE
  8
0
  6
CONTINUOUS
 62
     7
 10
414.94995
 20
109.99998
 11
408.2998
 21
109.99998
  0
LINE
  8
0
  6
CONTINUOUS
 62
     7
 10
415.5
 20
107.99999
 11
423.19995
 21
107.99999
  0
LINE
  8
0
  6
CONTINUOUS
 62
     7
 10
416.69995
 20
102.46192
 11
416.69995
 21
105.30035
  0
LINE
  8
0
  6
CONTINUOUS
 62
     7
 10
418.1998
 20
100.96194
 11
416.6998
 21
102.46194
  0
LINE
  8
0
  6
CONTINUOUS
 62
     7
 10
418.19995
 20
100.96192
 11
418.19995
 21
95.038094
  0
LINE
  8
0
  6
CONTINUOUS
 62
     7
 10
418.19977
 20
95.038063
 11
416.6998
 21
93.538094
  0
LINE
  8
0
  6
CONTINUOUS
 62
     7
 10
416.69995
 20
92.199982
 11
416.69995
 21
93.538094
  0
LINE
  8
0
  6
CONTINUOUS
 62
     7
 10
414.19995
 20
107.5
 11
414.19995
 21
105.80037
  0
LINE
  8
0
  6
CONTINUOUS
 62
     7
 10
404.5
 20
100
 11
404.5
 21
92.199982
  0
LINE
  8
0
  6
CONTINUOUS
 62
     7
 10
416.84985
 20
92.199982
 11
413.85034
 21
92.199982
  0
LINE
  8
0
  6
CONTINUOUS
 62
     7
 10
415.6499
 20
105.90037
 11
415.6499
 21
105.30035
  0
LINE
  8
0
  6
CONTINUOUS
 62
     7
 10
419.17401
 20
106.20037
 11
420.1619
 21
105.21247
  0
LINE
  8
0
  6
CONTINUOUS
 62
     7
 10
420.16205
 20
105.21239
 11
419.94989
 21
105.00021
  0
LINE
  8
0
  6
CONTINUOUS
 62
     7
 10
419.04977
 20
105.90029
 11
419.94974
 21
105.00031
  0
LINE
  8
0
  6
CONTINUOUS
 62
     7
 10
419.0498
 20
105.90037
 11
418.74976
 21
105.90037
  0
LINE
  8
0
  6
CONTINUOUS
 62
     7
 10
418.1499
 20
105.90037
 11
418.1499
 21
105.30035
  0
LINE
  8
0
  6
CONTINUOUS
 62
     7
 10
418.14975
 20
105.30048
 11
418.74973
 21
105.90046
  0
LINE
  8
0
  6
CONTINUOUS
 62
     7
 10
419.17407
 20
106.20039
 11
417.1499
 21
106.20039
  0
LINE
  8
0
  6
CONTINUOUS
 62
     7
 10
418.1499
 20
105.90037
 11
415.6499
 21
105.90037
  0
LINE
  8
0
  6
CONTINUOUS
 62
     7
 10
417.1499
 20
106.20036
 11
417.1499
 21
105.90037
  0
LINE
  8
0
  6
CONTINUOUS
 62
     7
 10
418.1499
 20
105.30035
 11
414.69995
 21
105.30035
  0
LINE
  8
0
  6
CONTINUOUS
 62
     7
 10
415.19995
 20
107.8
 11
415.19995
 21
105.30035
  0
LINE
  8
0
  6
CONTINUOUS
 62
     7
 10
416.89978
 20
91.999985
 11
417.19983
 21
92.300026
  0
LINE
  8
0
  6
CONTINUOUS
 62
     7
 10
417.19995
 20
92.342896
 11
417.19995
 21
92.29998
  0
LINE
  8
0
  6
CONTINUOUS
 62
     7
 10
414.69995
 20
108.29999
 11
400
 21
108.29999
  0
LINE
  8
0
  6
CONTINUOUS
 62
     7
 10
416.8999
 20
91.999985
 11
400
 21
91.999985
  0
LINE
  8
0
  6
CONTINUOUS
 62
     7
 10
415.99979
 20
91.5
 11
416.49982
 21
92.000031
  0
LINE
  8
0
  6
CONTINUOUS
 62
     7
 10
416
 20
91.499992
 11
400
 21
91.499992
  0
LINE
  8
0
  6
CENTER
 62
     7
 10
400
 20
111.26998
 11
400
 21
82.729996
  0
LINE
  8
0
  6
CENTER
 62
     7
 10
412.5
 20
90.938889
 11
412.5
 21
82.729996
  0
LINE
  8
0
  6
CONTINUOUS
 62
     7
 10
417.34985
 20
91.999985
 11
417.34985
 21
93.065773
  0
LINE
  8
0
  6
CONTINUOUS
 62
     7
 10
417.34985
 20
102.9342
 11
417.34985
 21
105.30035
  0
LINE
  8
0
  6
CONTINUOUS
 62
     7
 10
404.99942
 20
84.500015
 11
405.49936
 21
84.000069
  0
LINE
  8
0
  6
CONTINUOUS
 62
     7
 10
404.99951
 20
84.499985
 11
400
 21
84.499985
  0
LINE
  8
0
  6
CONTINUOUS
 62
     7
 10
423.08667
 20
83.999992
 11
405.49951
 21
83.999992
  0
LINE
  8
0
  6
CONTINUOUS
 62
     7
 10
422.63647
 20
105.0002
 11
417.82324
 21
105.0002
  0
LINE
  8
0
  6
CENTER
 62
     7
 10
394.22998
 20
100
 11
405.77002
 21
100
  0
LINE
  8
0
  6
CONTINUOUS
 62
     7
 10
415.34985
 20
89.999992
 11
400
 21
89.999992
  0
LINE
  8
0
  6
CONTINUOUS
 62
     7
 10
424.69995
 20
90.499985
 11
424.69995
 21
106.50002
  0
LINE
  8
0
  6
CONTINUOUS
 62
     7
 10
415.5
 20
109.09998
 11
400
 21
109.09998
  0
LINE
  8
0
  6
PHANTOM
 62
     7
 10
429.69995
 20
91.999992
 11
429.69995
 21
99.999992
  0
LINE
  8
0
  6
PHANTOM
 62
     7
 10
428.09998
 20
93.999992
 11
428.09998
 21
97.999992
  0
LINE
  8
0
  6
PHANTOM
 62
     7
 10
429.19995
 20
98.150002
 11
429.40002
 21
98.150002
  0
LINE
  8
0
  6
PHANTOM
 62
     7
 10
425
 20
99.999992
 11
429.40002
 21
99.999992
  0
LINE
  8
0
  6
PHANTOM
 62
     7
 10
426.5
 20
98.599998
 11
426.5
 21
98.449989
  0
LINE
  8
0
  6
PHANTOM
 62
     7
 10
429.19995
 20
93.849998
 11
429.40002
 21
93.849998
  0
LINE
  8
0
  6
PHANTOM
 62
     7
 10
428.90002
 20
98.599998
 11
428.90002
 21
98.449989
  0
LINE
  8
0
  6
PHANTOM
 62
     7
 10
426.5
 20
93.400002
 11
426.5
 21
93.549995
  0
LINE
  8
0
  6
PHANTOM
 62
     7
 10
425.79993
 20
93.849998
 11
426.19995
 21
93.849998
  0
LINE
  8
0
  6
PHANTOM
 62
     7
 10
425.79993
 20
98.150002
 11
426.19995
 21
98.150002
  0
LINE
  8
0
  6
PHANTOM
 62
     7
 10
426.79993
 20
93.099998
 11
428.59998
 21
93.099998
  0
LINE
  8
0
  6
PHANTOM
 62
     7
 10
428.90002
 20
93.400002
 11
428.90002
 21
93.549995
  0
LINE
  8
0
  6
PHANTOM
 62
     7
 10
425.5
 20
94.150002
 11
425.5
 21
97.849998
  0
LINE
  8
0
  6
PHANTOM
 62
     7
 10
426.79993
 20
98.900002
 11
428.59998
 21
98.900002
  0
LINE
  8
0
  6
PHANTOM
 62
     7
 10
425
 20
91.999992
 11
429.40002
 21
91.999992
  0
LINE
  8
0
  6
CENTER
 62
     7
 10
436.96997
 20
95.999992
 11
420.69995
 21
95.999992
  0
LINE
  8
0
  6
PHANTOM
 62
     7
 10
435.69995
 20
91.999992
 11
435.69995
 21
99.999992
  0
LINE
  8
0
  6
PHANTOM
 62
     7
 10
435.69995
 20
99.999992
 11
429.69995
 21
99.999992
  0
LINE
  8
0
  6
PHANTOM
 62
     7
 10
435.69995
 20
91.999992
 11
429.69995
 21
91.999992
  0
LINE
  8
0
  6
PHANTOM
 62
     7
 10
429.69995
 20
93.999992
 11
428.09998
 21
93.999992
  0
LINE
  8
0
  6
PHANTOM
 62
     7
 10
429.69995
 20
97.999992
 11
428.09998
 21
97.999992
  0
LINE
  8
0
  6
PHANTOM
 62
     7
 10
308
 20
109.89999
 11
308
 21
109.70018
  0
LINE
  8
0
  6
PHANTOM
 62
     7
 10
338.5
 20
109.09998
 11
338.5
 21
89.999985
  0
LINE
  8
0
  6
PHANTOM
 62
     7
 10
337.69995
 20
109.89999
 11
315.0498
 21
109.89999
  0
LINE
  8
0
  6
PHANTOM
 62
     7
 10
338.5
 20
89.999985
 11
337.69995
 21
89.999985
  0
LINE
  8
0
  6
PHANTOM
 62
     7
 10
337.69995
 20
109.09998
 11
315.5
 21
109.09998
  0
LINE
  8
0
  6
PHANTOM
 62
     7
 10
337.69995
 20
109.09998
 11
337.69995
 21
89.999985
  0
LINE
  8
0
  6
PHANTOM
 62
     7
 10
308.19983
 20
109.89999
 11
308
 21
109.89999
  0
LINE
  8
0
  6
PHANTOM
 62
     7
 10
408
 20
109.89999
 11
408
 21
109.70018
  0
LINE
  8
0
  6
PHANTOM
 62
     7
 10
437.5
 20
109.09998
 11
437.5
 21
91.999985
  0
LINE
  8
0
  6
PHANTOM
 62
     7
 10
436.69995
 20
109.89999
 11
415.04987
 21
109.89999
  0
LINE
  8
0
  6
PHANTOM
 62
     7
 10
437.5
 20
91.999985
 11
436.69995
 21
91.999985
  0
LINE
  8
0
  6
PHANTOM
 62
     7
 10
436.69995
 20
109.09998
 11
436.69995
 21
91.999985
  0
LINE
  8
0
  6
PHANTOM
 62
     7
 10
436.69995
 20
109.09998
 11
415.5
 21
109.09998
  0
LINE
  8
0
  6
PHANTOM
 62
     7
 10
408.19983
 20
109.89999
 11
408
 21
109.89999
  0
LINE
  8
0
  6
CONTINUOUS
 62
     7
 10
90.969238
 20
7.9999924
 11
86.299805
 21
7.9999924
  0
LINE
  8
0
  6
CONTINUOUS
 62
     7
 10
111.15039
 20
-7.8000183
 11
104.5
 21
-7.8000183
  0
LINE
  8
0
  6
CONTINUOUS
 62
     7
 10
86.149414
 20
-7.8000183
 11
83.149902
 21
-7.8000183
  0
LINE
  8
0
  6
CONTINUOUS
 62
     7
 10
111.15039
 20
-3.8000107
 11
111.15039
 21
-7.8000183
  0
LINE
  8
0
  6
CONTINUOUS
 62
     7
 10
113.85034
 20
-3.8000107
 11
113.85034
 21
-7.8000183
  0
LINE
  8
0
  6
CONTINUOUS
 62
     7
 10
86.149414
 20
-3.8000107
 11
86.149414
 21
-7.8000183
  0
LINE
  8
0
  6
CONTINUOUS
 62
     7
 10
88.849365
 20
-3.8000107
 11
88.849365
 21
-7.8000183
  0
LINE
  8
0
  6
CONTINUOUS
 62
     7
 10
113.69995
 20
7.9999924
 11
93.030823
 21
7.9999924
  0
LINE
  8
0
  6
CONTINUOUS
 62
     7
 10
115.49994
 20
9.449914
 11
114.94993
 21
9.9999237
  0
LINE
  8
0
  6
CONTINUOUS
 62
     7
 10
81.468018
 20
-5.6200104
 11
81.449951
 21
-5.6200104
  0
LINE
  8
0
  6
CONTINUOUS
 62
     7
 10
81.468018
 20
1.6200027
 11
81.449951
 21
1.6200027
  0
LINE
  8
0
  6
CONTINUOUS
 62
     7
 10
118.53174
 20
1.6200027
 11
118.5498
 21
1.6200027
  0
LINE
  8
0
  6
CONTINUOUS
 62
     7
 10
118.53174
 20
-5.6200104
 11
118.5498
 21
-5.6200104
  0
LINE
  8
0
  6
CONTINUOUS
 62
     7
 10
81.467926
 20
-5.619997
 11
81.53318
 21
-5.6852527
  0
LINE
  8
0
  6
CONTINUOUS
 62
     7
 10
81.149902
 20
1.3200073
 11
81.149902
 21
-5.320015
  0
LINE
  8
0
  6
CONTINUOUS
 62
     7
 10
81.467964
 20
1.6199496
 11
81.533051
 21
1.6850324
  0
LINE
  8
0
  6
CONTINUOUS
 62
     7
 10
118.84985
 20
1.3200073
 11
118.84985
 21
-5.320015
  0
LINE
  8
0
  6
CONTINUOUS
 62
     7
 10
118.53165
 20
1.6199927
 11
118.46656
 21
1.6850755
  0
LINE
  8
0
  6
CONTINUOUS
 62
     7
 10
118.53168
 20
-5.6200399
 11
118.46661
 21
-5.685123
  0
LINE
  8
0
  6
CONTINUOUS
 62
     7
 10
75.299805
 20
-7.7500305
 11
75.299805
 21
6.4997864
  0
LINE
  8
0
  6
CONTINUOUS
 62
     7
 10
87.599854
 20
-8.5000076
 11
84
 21
-8.5000076
  0
LINE
  8
0
  6
CONTINUOUS
 62
     7
 10
124.69949
 20
-9.4999733
 11
124.99936
 21
-9.7998381
  0
LINE
  8
0
  6
CONTINUOUS
 62
     7
 10
125
 20
-14.086761
 11
125
 21
-9.8003082
  0
LINE
  8
0
  6
CONTINUOUS
 62
     7
 10
75.299423
 20
-9.4996557
 11
75.007416
 21
-9.7916651
  0
LINE
  8
0
  6
CONTINUOUS
 62
     7
 10
75
 20
-14.086761
 11
75
 21
-9.7992554
  0
LINE
  8
0
  6
CONTINUOUS
 62
     7
 10
124.1998
 20
6.9999862
 11
124.69979
 21
6.4999962
  0
LINE
  8
0
  6
CONTINUOUS
 62
     7
 10
75.79985
 20
6.9999838
 11
75.299812
 21
6.4999509
  0
LINE
  8
0
  6
CONTINUOUS
 62
     7
 10
84.499794
 20
9.4499998
 11
85.049767
 21
9.9999666
  0
LINE
  8
0
  6
CONTINUOUS
 62
     7
 10
111.61633
 20
-1.1161187
 11
113.3841
 21
-2.8838856
  0
LINE
  8
0
  6
CONTINUOUS
 62
     7
 10
111.61633
 20
-2.8838856
 11
113.3841
 21
-1.1161187
  0
LINE
  8
0
  6
CONTINUOUS
 62
     7
 10
86.615593
 20
-1.1162481
 11
88.383362
 21
-2.8840151
  0
LINE
  8
0
  6
CENTER
 62
     7
 10
112.5
 20
18.269968
 11
112.5
 21
-0.29038015
  0
LINE
  8
0
  6
CONTINUOUS
 62
     7
 10
86.615593
 20
-2.8840151
 11
88.383362
 21
-1.1162481
  0
LINE
  8
0
  6
CONTINUOUS
 62
     7
 10
115.5
 20
9.4999847
 11
115.5
 21
5.300354
  0
LINE
  8
0
  6
CONTINUOUS
 62
     7
 10
108.29983
 20
10.00001
 11
107.3998
 21
9.0999851
  0
LINE
  8
0
  6
CONTINUOUS
 62
     7
 10
91.699867
 20
9.9998798
 11
92.599762
 21
9.0999851
  0
LINE
  8
0
  6
CENTER
 62
     7
 10
87.5
 20
18.269968
 11
87.5
 21
-0.29038015
  0
LINE
  8
0
  6
CONTINUOUS
 62
     7
 10
85
 20
9.9999847
 11
115
 21
9.9999847
  0
LINE
  8
0
  6
CONTINUOUS
 62
     7
 10
84.5
 20
9.4999847
 11
84.5
 21
5.300354
  0
LINE
  8
0
  6
CONTINUOUS
 62
     7
 10
81.849831
 20
5.3004956
 11
81.249931
 21
5.9003968
  0
LINE
  8
0
  6
CONTINUOUS
 62
     7
 10
80.949951
 20
5.9003677
 11
81.25
 21
5.9003677
  0
LINE
  8
0
  6
CONTINUOUS
 62
     7
 10
80.949806
 20
5.9003105
 11
80.049828
 21
5.000329
  0
LINE
  8
0
  6
CONTINUOUS
 62
     7
 10
79.837708
 20
5.2122564
 11
80.049873
 21
5.0000863
  0
LINE
  8
0
  6
CONTINUOUS
 62
     7
 10
80.825554
 20
6.2003908
 11
79.837662
 21
5.2124958
  0
LINE
  8
0
  6
CONTINUOUS
 62
     7
 10
80.825684
 20
6.200386
 11
82.849854
 21
6.200386
  0
LINE
  8
0
  6
CONTINUOUS
 62
     7
 10
82.849854
 20
6.2003632
 11
82.849854
 21
5.9003677
  0
LINE
  8
0
  6
CONTINUOUS
 62
     7
 10
84.349854
 20
5.9003677
 11
84.349854
 21
5.300354
  0
LINE
  8
0
  6
CONTINUOUS
 62
     7
 10
81.849854
 20
5.9003677
 11
84.349854
 21
5.9003677
  0
LINE
  8
0
  6
CONTINUOUS
 62
     7
 10
81.849854
 20
5.9003677
 11
81.849854
 21
5.300354
  0
LINE
  8
0
  6
CONTINUOUS
 62
     7
 10
81.849854
 20
5.300354
 11
85.299805
 21
5.300354
  0
LINE
  8
0
  6
CONTINUOUS
 62
     7
 10
116.69995
 20
2.4619217
 11
116.69995
 21
5.300354
  0
LINE
  8
0
  6
CONTINUOUS
 62
     7
 10
118.19975
 20
0.96191382
 11
116.69978
 21
2.4618831
  0
LINE
  8
0
  6
CONTINUOUS
 62
     7
 10
118.19995
 20
0.96192169
 11
118.19995
 21
-4.9619064
  0
LINE
  8
0
  6
CONTINUOUS
 62
     7
 10
118.19975
 20
-4.9619184
 11
116.69978
 21
-6.4618874
  0
LINE
  8
0
  6
CONTINUOUS
 62
     7
 10
116.69995
 20
-7.8000183
 11
116.69995
 21
-6.4619064
  0
LINE
  8
0
  6
CONTINUOUS
 62
     7
 10
83.299805
 20
-7.8000183
 11
83.299805
 21
-6.4619064
  0
LINE
  8
0
  6
CONTINUOUS
 62
     7
 10
81.799942
 20
-4.9620476
 11
83.299957
 21
-6.46206
  0
LINE
  8
0
  6
CONTINUOUS
 62
     7
 10
81.799805
 20
0.96192169
 11
81.799805
 21
-4.9619064
  0
LINE
  8
0
  6
CONTINUOUS
 62
     7
 10
81.799812
 20
0.96191382
 11
83.299828
 21
2.4619262
  0
LINE
  8
0
  6
CONTINUOUS
 62
     7
 10
83.299805
 20
2.4619217
 11
83.299805
 21
5.300354
  0
LINE
  8
0
  6
CONTINUOUS
 62
     7
 10
95.5
 20
-7.8000183
 11
88.849365
 21
-7.8000183
  0
LINE
  8
0
  6
CONTINUOUS
 62
     7
 10
114.19995
 20
7.5
 11
114.19995
 21
5.8003693
  0
LINE
  8
0
  6
CONTINUOUS
 62
     7
 10
104.5
 20
0
 11
104.5
 21
-7.8000183
  0
LINE
  8
0
  6
CONTINUOUS
 62
     7
 10
95.5
 20
0
 11
95.5
 21
-7.8000183
  0
LINE
  8
0
  6
CONTINUOUS
 62
     7
 10
116.84985
 20
-7.8000183
 11
113.85034
 21
-7.8000183
  0
LINE
  8
0
  6
CONTINUOUS
 62
     7
 10
85.799805
 20
7.5
 11
85.799805
 21
5.8003693
  0
LINE
  8
0
  6
CONTINUOUS
 62
     7
 10
115.6499
 20
5.9003677
 11
115.6499
 21
5.300354
  0
LINE
  8
0
  6
CONTINUOUS
 62
     7
 10
119.17406
 20
6.2003474
 11
120.16191
 21
5.2124958
  0
LINE
  8
0
  6
CONTINUOUS
 62
     7
 10
120.16199
 20
5.2123814
 11
119.94987
 21
5.0002542
  0
LINE
  8
0
  6
CONTINUOUS
 62
     7
 10
119.04976
 20
5.9003105
 11
119.94975
 21
5.000329
  0
LINE
  8
0
  6
CONTINUOUS
 62
     7
 10
119.0498
 20
5.9003677
 11
118.74976
 21
5.9003677
  0
LINE
  8
0
  6
CONTINUOUS
 62
     7
 10
118.1499
 20
5.9003677
 11
118.1499
 21
5.300354
  0
LINE
  8
0
  6
CONTINUOUS
 62
     7
 10
118.14973
 20
5.3004956
 11
118.74973
 21
5.9004831
  0
LINE
  8
0
  6
CONTINUOUS
 62
     7
 10
119.17407
 20
6.200386
 11
117.1499
 21
6.200386
  0
LINE
  8
0
  6
CONTINUOUS
 62
     7
 10
118.1499
 20
5.9003677
 11
115.6499
 21
5.9003677
  0
LINE
  8
0
  6
CONTINUOUS
 62
     7
 10
117.1499
 20
6.2003632
 11
117.1499
 21
5.9003677
  0
LINE
  8
0
  6
CONTINUOUS
 62
     7
 10
118.1499
 20
5.300354
 11
114.69995
 21
5.300354
  0
LINE
  8
0
  6
CONTINUOUS
 62
     7
 10
115.19995
 20
7.7999954
 11
115.19995
 21
5.300354
  0
LINE
  8
0
  6
CONTINUOUS
 62
     7
 10
116.89978
 20
-8.0000095
 11
117.19977
 21
-7.7000151
  0
LINE
  8
0
  6
CONTINUOUS
 62
     7
 10
117.19995
 20
-7.6571045
 11
117.19995
 21
-7.7000198
  0
LINE
  8
0
  6
CONTINUOUS
 62
     7
 10
84.799805
 20
7.7999954
 11
84.799805
 21
5.300354
  0
LINE
  8
0
  6
CONTINUOUS
 62
     7
 10
114.69995
 20
8.2999878
 11
85.299805
 21
8.2999878
  0
LINE
  8
0
  6
CONTINUOUS
 62
     7
 10
83.099823
 20
-8.0000467
 11
82.799789
 21
-7.7000127
  0
LINE
  8
0
  6
CONTINUOUS
 62
     7
 10
116.8999
 20
-8.0000153
 11
83.099854
 21
-8.0000153
  0
LINE
  8
0
  6
CONTINUOUS
 62
     7
 10
82.799805
 20
-7.6571045
 11
82.799805
 21
-7.7000198
  0
LINE
  8
0
  6
CONTINUOUS
 62
     7
 10
115.99979
 20
-8.499999
 11
116.49983
 21
-7.9999661
  0
LINE
  8
0
  6
CONTINUOUS
 62
     7
 10
83.499947
 20
-8.0001802
 11
83.999893
 21
-8.5001268
  0
LINE
  8
0
  6
CONTINUOUS
 62
     7
 10
116
 20
-8.5000076
 11
88.399902
 21
-8.5000076
  0
LINE
  8
0
  6
CONTINUOUS
 62
     7
 10
116.69995
 20
2.9769974
 11
116.69995
 21
5.2003784
  0
LINE
  8
0
  6
CONTINUOUS
 62
     7
 10
83.299805
 20
2.9769974
 11
83.299805
 21
5.2003784
  0
LINE
  8
0
  6
DASHED
 62
     7
 10
114.75011
 20
-15.700105
 11
115.05015
 21
-16.000141
  0
LINE
  8
0
  6
DASHED
 62
     7
 10
108.5
 20
-10.000008
 11
108.5
 21
-14.000015
  0
LINE
  8
0
  6
DASHED
 62
     7
 10
110.25
 20
-14.000015
 11
110.25
 21
-15.700012
  0
LINE
  8
0
  6
DASHED
 62
     7
 10
114.75
 20
-14.000015
 11
114.75
 21
-15.700012
  0
LINE
  8
0
  6
DASHED
 62
     7
 10
108.5
 20
-14.000015
 11
116.5
 21
-14.000015
  0
LINE
  8
0
  6
DASHED
 62
     7
 10
116.5
 20
-9.6363373
 11
116.5
 21
-14.000015
  0
LINE
  8
0
  6
CENTER
 62
     7
 10
112.5
 20
-9.0611115
 11
112.5
 21
-17.270008
  0
LINE
  8
0
  6
DASHED
 62
     7
 10
110.25011
 20
-15.700071
 11
109.95007
 21
-16.000109
  0
LINE
  8
0
  6
DASHED
 62
     7
 10
110.25
 20
-15.700012
 11
114.75
 21
-15.700012
  0
LINE
  8
0
  6
CENTER
 62
     7
 10
100
 20
23.769976
 11
100
 21
-17.270008
  0
LINE
  8
0
  6
CENTER
 62
     7
 10
87.5
 20
-9.0611115
 11
87.5
 21
-17.270008
  0
LINE
  8
0
  6
CONTINUOUS
 62
     7
 10
94.999542
 20
-15.499692
 11
94.499557
 21
-15.999682
  0
LINE
  8
0
  6
CONTINUOUS
 62
     7
 10
117.34985
 20
-8.0000153
 11
117.34985
 21
-6.934227
  0
LINE
  8
0
  6
CONTINUOUS
 62
     7
 10
117.34985
 20
2.9341965
 11
117.34985
 21
5.300354
  0
LINE
  8
0
  6
CONTINUOUS
 62
     7
 10
104.99942
 20
-15.500022
 11
105.49937
 21
-15.999969
  0
LINE
  8
0
  6
CONTINUOUS
 62
     7
 10
104.99951
 20
-15.500015
 11
94.999268
 21
-15.500015
  0
LINE
  8
0
  6
CONTINUOUS
 62
     7
 10
123.08667
 20
-16.000008
 11
105.49951
 21
-16.000008
  0
LINE
  8
0
  6
CONTINUOUS
 62
     7
 10
82.649902
 20
-8.0000153
 11
82.649902
 21
-6.934227
  0
LINE
  8
0
  6
CONTINUOUS
 62
     7
 10
82.649902
 20
2.9341965
 11
82.649902
 21
5.300354
  0
LINE
  8
0
  6
CONTINUOUS
 62
     7
 10
82.176758
 20
5.0001984
 11
77.363037
 21
5.0001984
  0
LINE
  8
0
  6
CONTINUOUS
 62
     7
 10
75.299805
 20
-9.5000153
 11
75.299805
 21
-8.5500183
  0
LINE
  8
0
  6
CONTINUOUS
 62
     7
 10
94.499268
 20
-16.000008
 11
76.913086
 21
-16.000008
  0
LINE
  8
0
  6
CONTINUOUS
 62
     7
 10
122.63647
 20
5.0001984
 11
117.82324
 21
5.0001984
  0
LINE
  8
0
  6
CENTER
 62
     7
 10
94.22998
 20
0
 11
105.77002
 21
0
  0
LINE
  8
0
  6
CONTINUOUS
 62
     7
 10
115.34985
 20
-10.000008
 11
84.649902
 21
-10.000008
  0
LINE
  8
0
  6
CONTINUOUS
 62
     7
 10
124.69995
 20
-9.5000153
 11
124.69995
 21
6.5000153
  0
LINE
  8
0
  6
CONTINUOUS
 62
     7
 10
115.5
 20
9.0999842
 11
84.5
 21
9.0999842
  0
LINE
  8
0
  6
CONTINUOUS
 62
     7
 10
116
 20
23.04998
 11
116
 21
22.499977
  0
LINE
  8
0
  6
CONTINUOUS
 62
     7
 10
113.79994
 20
23.299952
 11
115.99989
 21
23.049957
  0
LINE
  8
0
  6
CONTINUOUS
 62
     7
 10
113.7998
 20
23.699982
 11
113.7998
 21
23.299988
  0
LINE
  8
0
  6
CENTER
 62
     3
 10
112
 20
23.999977
 11
112
 21
16.999969
  0
LINE
  8
0
  6
CONTINUOUS
 62
     7
 10
110.19995
 20
23.699982
 11
110.19995
 21
23.299988
  0
LINE
  8
0
  6
CONTINUOUS
 62
     7
 10
113.7998
 20
23.699982
 11
110.19995
 21
23.699982
  0
LINE
  8
0
  6
CONTINUOUS
 62
     7
 10
113.7998
 20
23.299988
 11
110.19995
 21
23.299988
  0
LINE
  8
0
  6
CONTINUOUS
 62
     7
 10
116
 20
23.04998
 11
108
 21
23.04998
  0
LINE
  8
0
  6
CONTINUOUS
 62
     7
 10
110.19978
 20
23.299957
 11
107.99983
 21
23.049963
  0
LINE
  8
0
  6
CONTINUOUS
 62
     7
 10
108
 20
23.04998
 11
108
 21
22.499977
  0
LINE
  8
0
  6
CENTER
 62
     7
 10
127.5
 20
5.7299848
 11
127.5
 21
25.269976
  0
LINE
  8
0
  6
CONTINUOUS
 62
     7
 10
89.800034
 20
23.29995
 11
91.999985
 21
23.049955
  0
LINE
  8
0
  6
CONTINUOUS
 62
     7
 10
86.199875
 20
23.299959
 11
83.999924
 21
23.049965
  0
LINE
  8
0
  6
CONTINUOUS
 62
     7
 10
92
 20
23.04998
 11
92
 21
22.499977
  0
LINE
  8
0
  6
CONTINUOUS
 62
     7
 10
84
 20
23.04998
 11
84
 21
22.499977
  0
LINE
  8
0
  6
CONTINUOUS
 62
     7
 10
84
 20
23.04998
 11
92
 21
23.04998
  0
LINE
  8
0
  6
CONTINUOUS
 62
     7
 10
89.799805
 20
23.699982
 11
89.799805
 21
23.299988
  0
LINE
  8
0
  6
CONTINUOUS
 62
     7
 10
86.199951
 20
23.699982
 11
86.199951
 21
23.299988
  0
LINE
  8
0
  6
CONTINUOUS
 62
     7
 10
86.199951
 20
23.299988
 11
89.799805
 21
23.299988
  0
LINE
  8
0
  6
CONTINUOUS
 62
     7
 10
86.199951
 20
23.699982
 11
89.799805
 21
23.699982
  0
LINE
  8
0
  6
CONTINUOUS
 62
     4
 10
116
 20
19.999969
 11
116
 21
21.199974
  0
LINE
  8
0
  6
CONTINUOUS
 62
     4
 10
108
 20
19.999969
 11
108
 21
21.199974
  0
LINE
  8
0
  6
CONTINUOUS
 62
     4
 10
84
 20
19.999969
 11
84
 21
21.199974
  0
LINE
  8
0
  6
CONTINUOUS
 62
     4
 10
92
 20
19.999969
 11
92
 21
21.199974
  0
LINE
  8
0
  6
CONTINUOUS
 62
     4
 10
81.699707
 20
22.499977
 11
78.5
 21
22.499977
  0
LINE
  8
0
  6
CONTINUOUS
 62
     4
 10
77.5
 20
20.499985
 11
77.5
 21
21.499969
  0
LINE
  8
0
  6
CONTINUOUS
 62
     4
 10
80.5
 20
19.999969
 11
80.5
 21
21.199974
  0
LINE
  8
0
  6
CONTINUOUS
 62
     4
 10
80.5
 20
21.199974
 11
84
 21
21.199974
  0
LINE
  8
0
  6
CONTINUOUS
 62
     4
 10
119.5
 20
19.999969
 11
119.5
 21
21.199974
  0
LINE
  8
0
  6
CONTINUOUS
 62
     4
 10
119.5
 20
21.199974
 11
116
 21
21.199974
  0
LINE
  8
0
  6
CONTINUOUS
 62
     4
 10
92
 20
21.199974
 11
108
 21
21.199974
  0
LINE
  8
0
  6
CONTINUOUS
 62
     4
 10
118.30005
 20
22.499977
 11
121.5
 21
22.499977
  0
LINE
  8
0
  6
CONTINUOUS
 62
     4
 10
122.5
 20
20.499985
 11
122.5
 21
21.499969
  0
LINE
  8
0
  6
CONTINUOUS
 62
     7
 10
100.2998
 20
22.499977
 11
102.69995
 21
22.499977
  0
LINE
  8
0
  6
CONTINUOUS
 62
     4
 10
117.99985
 20
22.199919
 11
117.69982
 21
22.499962
  0
LINE
  8
0
  6
CONTINUOUS
 62
     4
 10
117.99989
 20
22.19976
 11
118.29988
 21
22.499754
  0
LINE
  8
0
  6
CONTINUOUS
 62
     7
 10
114.99979
 20
22.199951
 11
114.69993
 21
22.499823
  0
LINE
  8
0
  6
CONTINUOUS
 62
     7
 10
114.99986
 20
22.19976
 11
115.2999
 21
22.499798
  0
LINE
  8
0
  6
CONTINUOUS
 62
     7
 10
111.99993
 20
22.199852
 11
111.69991
 21
22.499897
  0
LINE
  8
0
  6
CONTINUOUS
 62
     7
 10
111.99984
 20
22.199846
 11
112.29984
 21
22.499842
  0
LINE
  8
0
  6
CONTINUOUS
 62
     7
 10
108.99982
 20
22.199842
 11
108.69979
 21
22.499887
  0
LINE
  8
0
  6
CONTINUOUS
 62
     7
 10
108.99986
 20
22.199804
 11
109.2999
 21
22.499842
  0
LINE
  8
0
  6
CONTINUOUS
 62
     7
 10
105.99984
 20
22.199963
 11
105.69998
 21
22.499834
  0
LINE
  8
0
  6
CONTINUOUS
 62
     7
 10
105.99988
 20
22.199846
 11
106.29987
 21
22.499842
  0
LINE
  8
0
  6
CONTINUOUS
 62
     7
 10
117.69995
 20
22.499977
 11
106.2998
 21
22.499977
  0
LINE
  8
0
  6
CONTINUOUS
 62
     7
 10
102.99995
 20
22.199823
 11
102.69991
 21
22.499866
  0
LINE
  8
0
  6
CONTINUOUS
 62
     7
 10
102.99981
 20
22.19989
 11
103.29984
 21
22.499928
  0
LINE
  8
0
  6
CONTINUOUS
 62
     7
 10
105.69995
 20
22.499977
 11
103.2998
 21
22.499977
  0
LINE
  8
0
  6
CONTINUOUS
 62
     7
 10
81.999977
 20
22.199804
 11
81.699944
 21
22.499842
  0
LINE
  8
0
  6
CONTINUOUS
 62
     7
 10
81.999977
 20
22.199812
 11
82.299957
 21
22.499813
  0
LINE
  8
0
  6
CONTINUOUS
 62
     7
 10
84.999954
 20
22.199844
 11
85.299942
 21
22.499846
  0
LINE
  8
0
  6
CONTINUOUS
 62
     7
 10
84.999962
 20
22.19976
 11
84.699928
 21
22.499798
  0
LINE
  8
0
  6
CONTINUOUS
 62
     7
 10
82.299805
 20
22.499977
 11
93.699951
 21
22.499977
  0
LINE
  8
0
  6
CONTINUOUS
 62
     7
 10
87.999939
 20
22.199879
 11
88.299927
 21
22.49988
  0
LINE
  8
0
  6
CONTINUOUS
 62
     7
 10
87.999985
 20
22.19976
 11
87.699951
 21
22.499798
  0
LINE
  8
0
  6
CONTINUOUS
 62
     7
 10
90.999916
 20
22.199911
 11
91.299904
 21
22.499912
  0
LINE
  8
0
  6
CONTINUOUS
 62
     7
 10
91.000015
 20
22.19976
 11
90.699974
 21
22.499798
  0
LINE
  8
0
  6
CONTINUOUS
 62
     7
 10
94.000031
 20
22.199728
 11
94.300018
 21
22.499731
  0
LINE
  8
0
  6
CONTINUOUS
 62
     7
 10
93.999825
 20
22.19989
 11
93.699959
 21
22.499754
  0
LINE
  8
0
  6
CONTINUOUS
 62
     7
 10
96.99984
 20
22.199934
 11
97.299828
 21
22.499935
  0
LINE
  8
0
  6
CONTINUOUS
 62
     7
 10
96.999847
 20
22.19989
 11
96.699806
 21
22.499928
  0
LINE
  8
0
  6
CONTINUOUS
 62
     7
 10
94.299805
 20
22.499977
 11
96.699951
 21
22.499977
  0
LINE
  8
0
  6
CONTINUOUS
 62
     7
 10
99.999992
 20
22.199795
 11
100.29993
 21
22.499754
  0
LINE
  8
0
  6
CONTINUOUS
 62
     7
 10
99.99987
 20
22.19989
 11
99.699837
 21
22.499928
  0
LINE
  8
0
  6
CONTINUOUS
 62
     7
 10
97.299805
 20
22.499977
 11
99.699951
 21
22.499977
  0
LINE
  8
0
  6
CONTINUOUS
 62
     7
 10
76.5
 20
19.999969
 11
123.5
 21
19.999969
  0
LINE
  8
0
  6
CONTINUOUS
 62
     7
 10
68.999817
 20
7.9998765
 11
69.999878
 21
6.9998107
  0
LINE
  8
0
  6
CONTINUOUS
 62
     7
 10
69
 20
7.9999695
 11
69
 21
23.999977
  0
LINE
  8
0
  6
CENTER
 62
     7
 10
72.5
 20
5.7299848
 11
72.5
 21
25.269976
  0
LINE
  8
0
  6
CONTINUOUS
 62
     7
 10
69
 20
23.999977
 11
76.5
 21
23.999977
  0
LINE
  8
0
  6
CONTINUOUS
 62
     7
 10
76.5
 20
16.999969
 11
76.5
 21
23.999977
  0
LINE
  8
0
  6
CONTINUOUS
 62
     7
 10
130.99974
 20
7.9999652
 11
129.99977
 21
6.9999857
  0
LINE
  8
0
  6
CONTINUOUS
 62
     7
 10
131
 20
7.9999695
 11
131
 21
23.999977
  0
LINE
  8
0
  6
CONTINUOUS
 62
     7
 10
123.5
 20
16.999969
 11
123.5
 21
23.999977
  0
LINE
  8
0
  6
CONTINUOUS
 62
     7
 10
129.99976
 20
6.9999847
 11
115.5
 21
6.9999847
  0
LINE
  8
0
  6
CONTINUOUS
 62
     7
 10
69.999756
 20
6.9999847
 11
84.5
 21
6.9999847
  0
LINE
  8
0
  6
CONTINUOUS
 62
     7
 10
131
 20
23.999977
 11
123.5
 21
23.999977
  0
LINE
  8
0
  6
CONTINUOUS
 62
     7
 10
76.5
 20
16.999969
 11
123.5
 21
16.999969
  0
LINE
  8
0
  6
CENTER
 62
     3
 10
88
 20
23.999977
 11
88
 21
16.999969
  0
LINE
  8
0
  6
CONTINUOUS
 62
     7
 10
311.15039
 20
-7.8000183
 11
304.5
 21
-7.8000183
  0
LINE
  8
0
  6
CONTINUOUS
 62
     7
 10
311.15039
 20
-3.8000107
 11
311.15039
 21
-7.8000183
  0
LINE
  8
0
  6
CONTINUOUS
 62
     7
 10
313.85034
 20
-3.8000107
 11
313.85034
 21
-7.8000183
  0
LINE
  8
0
  6
CONTINUOUS
 62
     7
 10
313.69995
 20
7.9999924
 11
300
 21
7.9999924
  0
LINE
  8
0
  6
CONTINUOUS
 62
     7
 10
315.49991
 20
9.4498844
 11
314.94992
 21
9.9998941
  0
LINE
  8
0
  6
CONTINUOUS
 62
     7
 10
318.53174
 20
1.6200027
 11
318.5498
 21
1.6200027
  0
LINE
  8
0
  6
CONTINUOUS
 62
     7
 10
318.53174
 20
-5.6200104
 11
318.5498
 21
-5.6200104
  0
LINE
  8
0
  6
CONTINUOUS
 62
     7
 10
318.84985
 20
1.3200073
 11
318.84985
 21
-5.320015
  0
LINE
  8
0
  6
CONTINUOUS
 62
     7
 10
318.53168
 20
1.6199927
 11
318.46658
 21
1.6850755
  0
LINE
  8
0
  6
CONTINUOUS
 62
     7
 10
318.53171
 20
-5.6200399
 11
318.46658
 21
-5.6851664
  0
LINE
  8
0
  6
CONTINUOUS
 62
     7
 10
324.69946
 20
-9.4999838
 11
324.99933
 21
-9.7998486
  0
LINE
  8
0
  6
CONTINUOUS
 62
     7
 10
325
 20
-14.086761
 11
325
 21
-9.8003082
  0
LINE
  8
0
  6
CONTINUOUS
 62
     7
 10
324.19974
 20
6.9999723
 11
324.69977
 21
6.4999394
  0
LINE
  8
0
  6
CONTINUOUS
 62
     7
 10
311.61636
 20
-1.1161187
 11
313.38412
 21
-2.8838856
  0
LINE
  8
0
  6
CONTINUOUS
 62
     7
 10
311.61636
 20
-2.8838856
 11
313.38409
 21
-1.1161618
  0
LINE
  8
0
  6
CENTER
 62
     7
 10
312.5
 20
18.269968
 11
312.5
 21
-0.29038015
  0
LINE
  8
0
  6
CONTINUOUS
 62
     7
 10
315.5
 20
9.4999847
 11
315.5
 21
5.300354
  0
LINE
  8
0
  6
CONTINUOUS
 62
     7
 10
308.2998
 20
9.9999809
 11
307.39984
 21
9.0999994
  0
LINE
  8
0
  6
CONTINUOUS
 62
     7
 10
300
 20
9.9999847
 11
315
 21
9.9999847
  0
LINE
  8
0
  6
CONTINUOUS
 62
     7
 10
316.69995
 20
2.4619217
 11
316.69995
 21
5.300354
  0
LINE
  8
0
  6
CONTINUOUS
 62
     7
 10
318.19977
 20
0.96191382
 11
316.69977
 21
2.4619262
  0
LINE
  8
0
  6
CONTINUOUS
 62
     7
 10
318.19995
 20
0.96192169
 11
318.19995
 21
-4.9619064
  0
LINE
  8
0
  6
CONTINUOUS
 62
     7
 10
318.19977
 20
-4.9619184
 11
316.6998
 21
-6.4618874
  0
LINE
  8
0
  6
CONTINUOUS
 62
     7
 10
316.69995
 20
-7.8000183
 11
316.69995
 21
-6.4619064
  0
LINE
  8
0
  6
CONTINUOUS
 62
     7
 10
314.19995
 20
7.5
 11
314.19995
 21
5.8003693
  0
LINE
  8
0
  6
CONTINUOUS
 62
     7
 10
304.5
 20
0
 11
304.5
 21
-7.8000183
  0
LINE
  8
0
  6
CONTINUOUS
 62
     7
 10
316.84985
 20
-7.8000183
 11
313.85034
 21
-7.8000183
  0
LINE
  8
0
  6
CONTINUOUS
 62
     7
 10
315.6499
 20
5.9003677
 11
315.6499
 21
5.300354
  0
LINE
  8
0
  6
CONTINUOUS
 62
     7
 10
319.17398
 20
6.2003474
 11
320.1619
 21
5.2124524
  0
LINE
  8
0
  6
CONTINUOUS
 62
     7
 10
320.16202
 20
5.2123666
 11
319.94989
 21
5.0002394
  0
LINE
  8
0
  6
CONTINUOUS
 62
     7
 10
319.04974
 20
5.9002676
 11
319.94971
 21
5.0002861
  0
LINE
  8
0
  6
CONTINUOUS
 62
     7
 10
319.0498
 20
5.9003677
 11
318.74976
 21
5.9003677
  0
LINE
  8
0
  6
CONTINUOUS
 62
     7
 10
318.1499
 20
5.9003677
 11
318.1499
 21
5.300354
  0
LINE
  8
0
  6
CONTINUOUS
 62
     7
 10
318.14975
 20
5.3004956
 11
318.74976
 21
5.9004831
  0
LINE
  8
0
  6
CONTINUOUS
 62
     7
 10
319.17407
 20
6.200386
 11
317.1499
 21
6.200386
  0
LINE
  8
0
  6
CONTINUOUS
 62
     7
 10
318.1499
 20
5.9003677
 11
315.6499
 21
5.9003677
  0
LINE
  8
0
  6
CONTINUOUS
 62
     7
 10
317.1499
 20
6.2003632
 11
317.1499
 21
5.9003677
  0
LINE
  8
0
  6
CONTINUOUS
 62
     7
 10
318.1499
 20
5.300354
 11
314.69995
 21
5.300354
  0
LINE
  8
0
  6
CONTINUOUS
 62
     7
 10
315.19995
 20
7.7999954
 11
315.19995
 21
5.300354
  0
LINE
  8
0
  6
CONTINUOUS
 62
     7
 10
316.89981
 20
-7.9999952
 11
317.1998
 21
-7.7000012
  0
LINE
  8
0
  6
CONTINUOUS
 62
     7
 10
317.19995
 20
-7.6571045
 11
317.19995
 21
-7.7000198
  0
LINE
  8
0
  6
CONTINUOUS
 62
     7
 10
314.69995
 20
8.2999878
 11
300
 21
8.2999878
  0
LINE
  8
0
  6
CONTINUOUS
 62
     7
 10
316.8999
 20
-8.0000153
 11
300
 21
-8.0000153
  0
LINE
  8
0
  6
CONTINUOUS
 62
     7
 10
315.99982
 20
-8.4999847
 11
316.49982
 21
-7.9999952
  0
LINE
  8
0
  6
CONTINUOUS
 62
     7
 10
316
 20
-8.5000076
 11
300
 21
-8.5000076
  0
LINE
  8
0
  6
CENTER
 62
     7
 10
300
 20
23.769976
 11
300
 21
-17.270008
  0
LINE
  8
0
  6
CENTER
 62
     7
 10
312.5
 20
-9.0611115
 11
312.5
 21
-17.270008
  0
LINE
  8
0
  6
CONTINUOUS
 62
     7
 10
317.34985
 20
-8.0000153
 11
317.34985
 21
-6.934227
  0
LINE
  8
0
  6
CONTINUOUS
 62
     7
 10
317.34985
 20
2.9341965
 11
317.34985
 21
5.300354
  0
LINE
  8
0
  6
CONTINUOUS
 62
     7
 10
304.99939
 20
-15.500013
 11
305.49933
 21
-15.999961
  0
LINE
  8
0
  6
CONTINUOUS
 62
     7
 10
304.99951
 20
-15.500015
 11
300
 21
-15.500015
  0
LINE
  8
0
  6
CONTINUOUS
 62
     7
 10
323.08667
 20
-16.000008
 11
305.49951
 21
-16.000008
  0
LINE
  8
0
  6
CONTINUOUS
 62
     7
 10
322.63647
 20
5.0001984
 11
317.82324
 21
5.0001984
  0
LINE
  8
0
  6
CENTER
 62
     7
 10
294.22998
 20
0
 11
305.77002
 21
0
  0
LINE
  8
0
  6
CONTINUOUS
 62
     7
 10
315.34985
 20
-10.000008
 11
300
 21
-10.000008
  0
LINE
  8
0
  6
CONTINUOUS
 62
     7
 10
324.69995
 20
-9.5000153
 11
324.69995
 21
6.5000153
  0
LINE
  8
0
  6
CONTINUOUS
 62
     7
 10
315.5
 20
9.0999842
 11
300
 21
9.0999842
  0
LINE
  8
0
  6
CONTINUOUS
 62
     4
 10
319.5
 20
19.999969
 11
319.5
 21
21.199974
  0
LINE
  8
0
  6
CONTINUOUS
 62
     4
 10
319.5
 20
21.199974
 11
316
 21
21.199974
  0
LINE
  8
0
  6
CONTINUOUS
 62
     4
 10
300
 20
21.199974
 11
308
 21
21.199974
  0
LINE
  8
0
  6
CONTINUOUS
 62
     4
 10
318.30005
 20
22.499977
 11
321.5
 21
22.499977
  0
LINE
  8
0
  6
CONTINUOUS
 62
     7
 10
311.99991
 20
22.199846
 11
311.69989
 21
22.499889
  0
LINE
  8
0
  6
CONTINUOUS
 62
     7
 10
308.99985
 20
22.199879
 11
308.6998
 21
22.499924
  0
LINE
  8
0
  6
CONTINUOUS
 62
     7
 10
308.99985
 20
22.199846
 11
309.29987
 21
22.499884
  0
LINE
  8
0
  6
CONTINUOUS
 62
     7
 10
305.99982
 20
22.199955
 11
305.69995
 21
22.499826
  0
LINE
  8
0
  6
CONTINUOUS
 62
     7
 10
305.99982
 20
22.199846
 11
306.29984
 21
22.499884
  0
LINE
  8
0
  6
CONTINUOUS
 62
     7
 10
311.99982
 20
22.199804
 11
312.29987
 21
22.499842
  0
LINE
  8
0
  6
CONTINUOUS
 62
     7
 10
317.69995
 20
22.499977
 11
306.2998
 21
22.499977
  0
LINE
  8
0
  6
CONTINUOUS
 62
     7
 10
302.99982
 20
22.19989
 11
303.29984
 21
22.499884
  0
LINE
  8
0
  6
CONTINUOUS
 62
     7
 10
305.69995
 20
22.499977
 11
303.2998
 21
22.499977
  0
LINE
  8
0
  6
CONTINUOUS
 62
     7
 10
302.99991
 20
22.199816
 11
302.69989
 21
22.499861
  0
LINE
  8
0
  6
CONTINUOUS
 62
     4
 10
308
 20
19.999969
 11
308
 21
21.199974
  0
LINE
  8
0
  6
CONTINUOUS
 62
     4
 10
316
 20
19.999969
 11
316
 21
21.199974
  0
LINE
  8
0
  6
CONTINUOUS
 62
     7
 10
313.7998
 20
23.699982
 11
310.19995
 21
23.699982
  0
LINE
  8
0
  6
CONTINUOUS
 62
     7
 10
316
 20
23.04998
 11
308
 21
23.04998
  0
LINE
  8
0
  6
CONTINUOUS
 62
     7
 10
310.19971
 20
23.299946
 11
307.99976
 21
23.049952
  0
LINE
  8
0
  6
CONTINUOUS
 62
     7
 10
308
 20
23.04998
 11
308
 21
22.499977
  0
LINE
  8
0
  6
CENTER
 62
     7
 10
327.5
 20
5.7299848
 11
327.5
 21
25.269976
  0
LINE
  8
0
  6
CONTINUOUS
 62
     7
 10
313.7998
 20
23.299988
 11
310.19995
 21
23.299988
  0
LINE
  8
0
  6
CONTINUOUS
 62
     4
 10
322.5
 20
20.499985
 11
322.5
 21
21.499969
  0
LINE
  8
0
  6
CONTINUOUS
 62
     4
 10
317.99982
 20
22.199909
 11
317.6998
 21
22.499954
  0
LINE
  8
0
  6
CONTINUOUS
 62
     4
 10
317.99988
 20
22.199804
 11
318.29987
 21
22.499798
  0
LINE
  8
0
  6
CONTINUOUS
 62
     7
 10
314.99976
 20
22.199942
 11
314.69989
 21
22.499813
  0
LINE
  8
0
  6
CONTINUOUS
 62
     7
 10
314.99985
 20
22.199804
 11
315.29987
 21
22.499842
  0
LINE
  8
0
  6
CONTINUOUS
 62
     7
 10
300.2998
 20
22.499977
 11
302.69995
 21
22.499977
  0
LINE
  8
0
  6
CONTINUOUS
 62
     7
 10
316
 20
23.04998
 11
316
 21
22.499977
  0
LINE
  8
0
  6
CONTINUOUS
 62
     7
 10
313.79987
 20
23.299944
 11
315.99982
 21
23.04995
  0
LINE
  8
0
  6
CONTINUOUS
 62
     7
 10
313.7998
 20
23.699982
 11
313.7998
 21
23.299988
  0
LINE
  8
0
  6
CENTER
 62
     3
 10
312
 20
23.999977
 11
312
 21
16.999969
  0
LINE
  8
0
  6
CONTINUOUS
 62
     7
 10
310.19995
 20
23.699982
 11
310.19995
 21
23.299988
  0
LINE
  8
0
  6
CONTINUOUS
 62
     7
 10
299.99997
 20
22.199802
 11
300.29996
 21
22.499804
  0
LINE
  8
0
  6
CONTINUOUS
 62
     7
 10
300
 20
19.999969
 11
323.5
 21
19.999969
  0
LINE
  8
0
  6
CONTINUOUS
 62
     7
 10
330.99979
 20
7.9999514
 11
329.99976
 21
6.999929
  0
LINE
  8
0
  6
PHANTOM
 62
     7
 10
331
 20
7.0999765
 11
331
 21
8.0001822
  0
LINE
  8
0
  6
CONTINUOUS
 62
     7
 10
323.5
 20
16.999969
 11
323.5
 21
23.999977
  0
LINE
  8
0
  6
CONTINUOUS
 62
     7
 10
329.99976
 20
6.9999847
 11
315.5
 21
6.9999847
  0
LINE
  8
0
  6
CONTINUOUS
 62
     7
 10
331
 20
23.999977
 11
323.5
 21
23.999977
  0
LINE
  8
0
  6
CONTINUOUS
 62
     7
 10
300
 20
16.999969
 11
323.5
 21
16.999969
  0
LINE
  8
0
  6
PHANTOM
 62
     7
 10
329.69995
 20
-10.450004
 11
329.69995
 21
2.4499898
  0
LINE
  8
0
  6
PHANTOM
 62
     7
 10
329.19995
 20
-1.849998
 11
329.40002
 21
-1.849998
  0
LINE
  8
0
  6
PHANTOM
 62
     7
 10
325
 20
-7.1525574E-006
 11
329.40002
 21
-7.1525574E-006
  0
LINE
  8
0
  6
PHANTOM
 62
     7
 10
326.5
 20
-1.400001
 11
326.5
 21
-1.5500102
  0
LINE
  8
0
  6
PHANTOM
 62
     7
 10
329.19995
 20
-6.150001
 11
329.40002
 21
-6.150001
  0
LINE
  8
0
  6
PHANTOM
 62
     7
 10
328.90002
 20
-1.400001
 11
328.90002
 21
-1.5500102
  0
LINE
  8
0
  6
PHANTOM
 62
     7
 10
326.5
 20
-6.599998
 11
326.5
 21
-6.4500041
  0
LINE
  8
0
  6
PHANTOM
 62
     7
 10
325.79993
 20
-6.150001
 11
326.19995
 21
-6.150001
  0
LINE
  8
0
  6
PHANTOM
 62
     7
 10
325.79993
 20
-1.849998
 11
326.19995
 21
-1.849998
  0
LINE
  8
0
  6
PHANTOM
 62
     7
 10
326.79993
 20
-6.900001
 11
328.59998
 21
-6.900001
  0
LINE
  8
0
  6
PHANTOM
 62
     7
 10
328.90002
 20
-6.599998
 11
328.90002
 21
-6.4500041
  0
LINE
  8
0
  6
PHANTOM
 62
     7
 10
325.5
 20
-5.849998
 11
325.5
 21
-2.150001
  0
LINE
  8
0
  6
PHANTOM
 62
     7
 10
326.79993
 20
-1.099998
 11
328.59998
 21
-1.099998
  0
LINE
  8
0
  6
PHANTOM
 62
     7
 10
325
 20
-8.0000067
 11
329.40002
 21
-8.0000067
  0
LINE
  8
0
  6
CENTER
 62
     7
 10
337.56995
 20
-4.0000072
 11
320.69995
 21
-4.0000072
  0
LINE
  8
0
  6
PHANTOM
 62
     7
 10
330.09998
 20
-10.05001
 11
330.09998
 21
2.0499959
  0
LINE
  8
0
  6
PHANTOM
 62
     7
 10
331.69995
 20
-10.05001
 11
330.09998
 21
-10.05001
  0
LINE
  8
0
  6
PHANTOM
 62
     7
 10
337.19995
 20
1.5999913
 11
336.29993
 21
1.5999913
  0
LINE
  8
0
  6
PHANTOM
 62
     7
 10
331.69995
 20
-10.450004
 11
329.69995
 21
-10.450004
  0
LINE
  8
0
  6
PHANTOM
 62
     7
 10
331.69995
 20
2.4499898
 11
329.69995
 21
2.4499898
  0
LINE
  8
0
  6
PHANTOM
 62
     7
 10
337.19995
 20
-9.6000051
 11
336.29993
 21
-9.6000051
  0
LINE
  8
0
  6
PHANTOM
 62
     7
 10
337.19995
 20
-9.6000051
 11
337.19995
 21
1.5999913
  0
LINE
  8
0
  6
PHANTOM
 62
     7
 10
331.69995
 20
2.0499959
 11
330.09998
 21
2.0499959
  0
LINE
  8
0
  6
PHANTOM
 62
     7
 10
331.69995
 20
-10.450004
 11
331.69995
 21
-10.05001
  0
LINE
  8
0
  6
PHANTOM
 62
     7
 10
336.29993
 20
-10.000007
 11
336.29993
 21
1.9999928
  0
LINE
  8
0
  6
PHANTOM
 62
     7
 10
336.29993
 20
-10.000007
 11
330.09998
 21
-10.000007
  0
LINE
  8
0
  6
PHANTOM
 62
     7
 10
336.29993
 20
1.9999928
 11
330.09998
 21
1.9999928
  0
LINE
  8
0
  6
PHANTOM
 62
     7
 10
331.69995
 20
2.0499959
 11
331.69995
 21
2.4499898
  0
LINE
  8
0
  6
PHANTOM
 62
     7
 10
327.69995
 20
-5.2000041
 11
327.69995
 21
-2.8000102
  0
LINE
  8
0
  6
PHANTOM
 62
     7
 10
329.69995
 20
-5.2000041
 11
327.69995
 21
-5.2000041
  0
LINE
  8
0
  6
PHANTOM
 62
     7
 10
329.69995
 20
-2.8000102
 11
327.69995
 21
-2.8000102
  0
LINE
  8
0
  6
PHANTOM
 62
     7
 10
429.69995
 20
-8.0000067
 11
429.69995
 21
-7.1525574E-006
  0
LINE
  8
0
  6
PHANTOM
 62
     7
 10
428.09998
 20
-6.0000072
 11
428.09998
 21
-2.0000072
  0
LINE
  8
0
  6
PHANTOM
 62
     7
 10
429.19995
 20
-1.849998
 11
429.40002
 21
-1.849998
  0
LINE
  8
0
  6
PHANTOM
 62
     7
 10
425
 20
-7.1525574E-006
 11
429.40002
 21
-7.1525574E-006
  0
LINE
  8
0
  6
PHANTOM
 62
     7
 10
426.5
 20
-1.400001
 11
426.5
 21
-1.5500102
  0
LINE
  8
0
  6
PHANTOM
 62
     7
 10
429.19995
 20
-6.150001
 11
429.40002
 21
-6.150001
  0
LINE
  8
0
  6
PHANTOM
 62
     7
 10
428.90002
 20
-1.400001
 11
428.90002
 21
-1.5500102
  0
LINE
  8
0
  6
PHANTOM
 62
     7
 10
426.5
 20
-6.599998
 11
426.5
 21
-6.4500041
  0
LINE
  8
0
  6
PHANTOM
 62
     7
 10
425.79993
 20
-6.150001
 11
426.19995
 21
-6.150001
  0
LINE
  8
0
  6
PHANTOM
 62
     7
 10
425.79993
 20
-1.849998
 11
426.19995
 21
-1.849998
  0
LINE
  8
0
  6
PHANTOM
 62
     7
 10
426.79993
 20
-6.900001
 11
428.59998
 21
-6.900001
  0
LINE
  8
0
  6
PHANTOM
 62
     7
 10
428.90002
 20
-6.599998
 11
428.90002
 21
-6.4500041
  0
LINE
  8
0
  6
PHANTOM
 62
     7
 10
425.5
 20
-5.849998
 11
425.5
 21
-2.150001
  0
LINE
  8
0
  6
PHANTOM
 62
     7
 10
426.79993
 20
-1.099998
 11
428.59998
 21
-1.099998
  0
LINE
  8
0
  6
PHANTOM
 62
     7
 10
425
 20
-8.0000067
 11
429.40002
 21
-8.0000067
  0
LINE
  8
0
  6
CENTER
 62
     7
 10
436.96997
 20
-4.0000072
 11
420.69995
 21
-4.0000072
  0
LINE
  8
0
  6
PHANTOM
 62
     7
 10
435.69995
 20
-7.1525574E-006
 11
429.69995
 21
-7.1525574E-006
  0
LINE
  8
0
  6
PHANTOM
 62
     7
 10
435.69995
 20
-8.0000067
 11
429.69995
 21
-8.0000067
  0
LINE
  8
0
  6
PHANTOM
 62
     7
 10
429.69995
 20
-6.0000072
 11
428.09998
 21
-6.0000072
  0
LINE
  8
0
  6
PHANTOM
 62
     7
 10
429.69995
 20
-2.0000072
 11
428.09998
 21
-2.0000072
  0
LINE
  8
0
  6
CONTINUOUS
 62
     7
 10
411.15039
 20
-7.8000183
 11
404.5
 21
-7.8000183
  0
LINE
  8
0
  6
CONTINUOUS
 62
     7
 10
411.15039
 20
-3.8000107
 11
411.15039
 21
-7.8000183
  0
LINE
  8
0
  6
CONTINUOUS
 62
     7
 10
413.85034
 20
-3.8000107
 11
413.85034
 21
-7.8000183
  0
LINE
  8
0
  6
CONTINUOUS
 62
     7
 10
413.69995
 20
7.9999924
 11
400
 21
7.9999924
  0
LINE
  8
0
  6
CONTINUOUS
 62
     7
 10
415.49991
 20
9.4499321
 11
414.94989
 21
9.9999418
  0
LINE
  8
0
  6
CONTINUOUS
 62
     7
 10
418.53174
 20
1.6200027
 11
418.5498
 21
1.6200027
  0
LINE
  8
0
  6
CONTINUOUS
 62
     7
 10
418.53174
 20
-5.6200104
 11
418.5498
 21
-5.6200104
  0
LINE
  8
0
  6
CONTINUOUS
 62
     7
 10
418.84985
 20
1.3200073
 11
418.84985
 21
-5.320015
  0
LINE
  8
0
  6
CONTINUOUS
 62
     7
 10
418.53165
 20
1.6199496
 11
418.46655
 21
1.6850324
  0
LINE
  8
0
  6
CONTINUOUS
 62
     7
 10
418.53165
 20
-5.6200399
 11
418.46655
 21
-5.685123
  0
LINE
  8
0
  6
CONTINUOUS
 62
     7
 10
424.69949
 20
-9.4999466
 11
424.99936
 21
-9.7998104
  0
LINE
  8
0
  6
CONTINUOUS
 62
     7
 10
425
 20
-14.086761
 11
425
 21
-9.8003082
  0
LINE
  8
0
  6
CONTINUOUS
 62
     7
 10
424.19977
 20
6.9999681
 11
424.69974
 21
6.4999785
  0
LINE
  8
0
  6
CONTINUOUS
 62
     7
 10
411.61633
 20
-1.1161618
 11
413.38409
 21
-2.8839288
  0
LINE
  8
0
  6
CONTINUOUS
 62
     7
 10
411.61633
 20
-2.8839288
 11
413.38409
 21
-1.1161618
  0
LINE
  8
0
  6
CENTER
 62
     7
 10
412.5
 20
18.269968
 11
412.5
 21
-0.29038015
  0
LINE
  8
0
  6
CONTINUOUS
 62
     7
 10
415.5
 20
9.4999847
 11
415.5
 21
5.300354
  0
LINE
  8
0
  6
CONTINUOUS
 62
     7
 10
408.29984
 20
9.9999847
 11
407.39981
 21
9.0999603
  0
LINE
  8
0
  6
CONTINUOUS
 62
     7
 10
400
 20
9.9999847
 11
415
 21
9.9999847
  0
LINE
  8
0
  6
CONTINUOUS
 62
     7
 10
416.69995
 20
2.4619217
 11
416.69995
 21
5.300354
  0
LINE
  8
0
  6
CONTINUOUS
 62
     7
 10
418.1998
 20
0.96191382
 11
416.6998
 21
2.4619262
  0
LINE
  8
0
  6
CONTINUOUS
 62
     7
 10
418.19995
 20
0.96192169
 11
418.19995
 21
-4.9619064
  0
LINE
  8
0
  6
CONTINUOUS
 62
     7
 10
418.1998
 20
-4.9619184
 11
416.6998
 21
-6.4619308
  0
LINE
  8
0
  6
CONTINUOUS
 62
     7
 10
416.69995
 20
-7.8000183
 11
416.69995
 21
-6.4619064
  0
LINE
  8
0
  6
CONTINUOUS
 62
     7
 10
414.19995
 20
7.5
 11
414.19995
 21
5.8003693
  0
LINE
  8
0
  6
CONTINUOUS
 62
     7
 10
404.5
 20
0
 11
404.5
 21
-7.8000183
  0
LINE
  8
0
  6
CONTINUOUS
 62
     7
 10
416.84985
 20
-7.8000183
 11
413.85034
 21
-7.8000183
  0
LINE
  8
0
  6
CONTINUOUS
 62
     7
 10
415.6499
 20
5.9003677
 11
415.6499
 21
5.300354
  0
LINE
  8
0
  6
CONTINUOUS
 62
     7
 10
419.17401
 20
6.2003474
 11
420.1619
 21
5.2124524
  0
LINE
  8
0
  6
CONTINUOUS
 62
     7
 10
420.16202
 20
5.2123752
 11
419.94992
 21
5.000248
  0
LINE
  8
0
  6
CONTINUOUS
 62
     7
 10
419.04977
 20
5.9002676
 11
419.94974
 21
5.0002861
  0
LINE
  8
0
  6
CONTINUOUS
 62
     7
 10
419.0498
 20
5.9003677
 11
418.74976
 21
5.9003677
  0
LINE
  8
0
  6
CONTINUOUS
 62
     7
 10
418.1499
 20
5.9003677
 11
418.1499
 21
5.300354
  0
LINE
  8
0
  6
CONTINUOUS
 62
     7
 10
418.14975
 20
5.3005385
 11
418.74973
 21
5.9005265
  0
LINE
  8
0
  6
CONTINUOUS
 62
     7
 10
419.17407
 20
6.200386
 11
417.1499
 21
6.200386
  0
LINE
  8
0
  6
CONTINUOUS
 62
     7
 10
418.1499
 20
5.9003677
 11
415.6499
 21
5.9003677
  0
LINE
  8
0
  6
CONTINUOUS
 62
     7
 10
417.1499
 20
6.2003632
 11
417.1499
 21
5.9003677
  0
LINE
  8
0
  6
CONTINUOUS
 62
     7
 10
418.1499
 20
5.300354
 11
414.69995
 21
5.300354
  0
LINE
  8
0
  6
CONTINUOUS
 62
     7
 10
415.19995
 20
7.7999954
 11
415.19995
 21
5.300354
  0
LINE
  8
0
  6
CONTINUOUS
 62
     7
 10
416.89978
 20
-8.0000343
 11
417.19983
 21
-7.6999974
  0
LINE
  8
0
  6
CONTINUOUS
 62
     7
 10
417.19995
 20
-7.6571045
 11
417.19995
 21
-7.7000198
  0
LINE
  8
0
  6
CONTINUOUS
 62
     7
 10
414.69995
 20
8.2999878
 11
400
 21
8.2999878
  0
LINE
  8
0
  6
CONTINUOUS
 62
     7
 10
416.8999
 20
-8.0000153
 11
400
 21
-8.0000153
  0
LINE
  8
0
  6
CONTINUOUS
 62
     7
 10
415.99982
 20
-8.5000238
 11
416.49985
 21
-7.9999909
  0
LINE
  8
0
  6
CONTINUOUS
 62
     7
 10
416
 20
-8.5000076
 11
400
 21
-8.5000076
  0
LINE
  8
0
  6
CENTER
 62
     7
 10
400
 20
23.769976
 11
400
 21
-17.270008
  0
LINE
  8
0
  6
CENTER
 62
     7
 10
412.5
 20
-9.0611115
 11
412.5
 21
-17.270008
  0
LINE
  8
0
  6
CONTINUOUS
 62
     7
 10
417.34985
 20
-8.0000153
 11
417.34985
 21
-6.934227
  0
LINE
  8
0
  6
CONTINUOUS
 62
     7
 10
417.34985
 20
2.9341965
 11
417.34985
 21
5.300354
  0
LINE
  8
0
  6
CONTINUOUS
 62
     7
 10
404.99945
 20
-15.500009
 11
405.49936
 21
-15.999912
  0
LINE
  8
0
  6
CONTINUOUS
 62
     7
 10
404.99951
 20
-15.500015
 11
400
 21
-15.500015
  0
LINE
  8
0
  6
CONTINUOUS
 62
     7
 10
423.08667
 20
-16.000008
 11
405.49951
 21
-16.000008
  0
LINE
  8
0
  6
CONTINUOUS
 62
     7
 10
422.63647
 20
5.0001984
 11
417.82324
 21
5.0001984
  0
LINE
  8
0
  6
CENTER
 62
     7
 10
394.22998
 20
0
 11
405.77002
 21
0
  0
LINE
  8
0
  6
CONTINUOUS
 62
     7
 10
415.34985
 20
-10.000008
 11
400
 21
-10.000008
  0
LINE
  8
0
  6
CONTINUOUS
 62
     7
 10
424.69995
 20
-9.5000153
 11
424.69995
 21
6.5000153
  0
LINE
  8
0
  6
CONTINUOUS
 62
     7
 10
415.5
 20
9.0999842
 11
400
 21
9.0999842
  0
LINE
  8
0
  6
CONTINUOUS
 62
     4
 10
419.5
 20
19.999969
 11
419.5
 21
21.199974
  0
LINE
  8
0
  6
CONTINUOUS
 62
     4
 10
419.5
 20
21.199974
 11
416
 21
21.199974
  0
LINE
  8
0
  6
CONTINUOUS
 62
     4
 10
400
 20
21.199974
 11
408
 21
21.199974
  0
LINE
  8
0
  6
CONTINUOUS
 62
     4
 10
418.30005
 20
22.499977
 11
421.5
 21
22.499977
  0
LINE
  8
0
  6
CONTINUOUS
 62
     7
 10
411.99988
 20
22.199846
 11
411.69989
 21
22.499847
  0
LINE
  8
0
  6
CONTINUOUS
 62
     7
 10
408.99988
 20
22.199837
 11
408.69983
 21
22.499882
  0
LINE
  8
0
  6
CONTINUOUS
 62
     7
 10
408.99985
 20
22.199846
 11
409.2999
 21
22.499884
  0
LINE
  8
0
  6
CONTINUOUS
 62
     7
 10
405.99985
 20
22.199913
 11
405.69998
 21
22.499784
  0
LINE
  8
0
  6
CONTINUOUS
 62
     7
 10
405.99985
 20
22.199846
 11
406.29987
 21
22.499884
  0
LINE
  8
0
  6
CONTINUOUS
 62
     7
 10
411.99985
 20
22.199804
 11
412.29987
 21
22.499842
  0
LINE
  8
0
  6
CONTINUOUS
 62
     7
 10
417.69995
 20
22.499977
 11
406.2998
 21
22.499977
  0
LINE
  8
0
  6
CONTINUOUS
 62
     7
 10
402.99982
 20
22.199846
 11
403.29984
 21
22.499884
  0
LINE
  8
0
  6
CONTINUOUS
 62
     7
 10
405.69995
 20
22.499977
 11
403.2998
 21
22.499977
  0
LINE
  8
0
  6
CONTINUOUS
 62
     7
 10
403
 20
22.199816
 11
402.69992
 21
22.499905
  0
LINE
  8
0
  6
CONTINUOUS
 62
     4
 10
408
 20
19.999969
 11
408
 21
21.199974
  0
LINE
  8
0
  6
CONTINUOUS
 62
     4
 10
416
 20
19.999969
 11
416
 21
21.199974
  0
LINE
  8
0
  6
CONTINUOUS
 62
     7
 10
413.7998
 20
23.699982
 11
410.19995
 21
23.699982
  0
LINE
  8
0
  6
CONTINUOUS
 62
     7
 10
416
 20
23.04998
 11
408
 21
23.04998
  0
LINE
  8
0
  6
CONTINUOUS
 62
     7
 10
410.1998
 20
23.299959
 11
407.99985
 21
23.049965
  0
LINE
  8
0
  6
CONTINUOUS
 62
     7
 10
408
 20
23.04998
 11
408
 21
22.499977
  0
LINE
  8
0
  6
CENTER
 62
     7
 10
427.5
 20
5.7299848
 11
427.5
 21
25.269976
  0
LINE
  8
0
  6
CONTINUOUS
 62
     7
 10
413.7998
 20
23.299988
 11
410.19995
 21
23.299988
  0
LINE
  8
0
  6
CONTINUOUS
 62
     4
 10
422.5
 20
20.499985
 11
422.5
 21
21.499969
  0
LINE
  8
0
  6
CONTINUOUS
 62
     4
 10
417.99985
 20
22.199865
 11
417.69977
 21
22.499954
  0
LINE
  8
0
  6
CONTINUOUS
 62
     4
 10
417.99985
 20
22.19976
 11
418.2999
 21
22.499798
  0
LINE
  8
0
  6
CONTINUOUS
 62
     7
 10
414.99979
 20
22.199986
 11
414.69992
 21
22.499857
  0
LINE
  8
0
  6
CONTINUOUS
 62
     7
 10
414.99988
 20
22.199804
 11
415.29987
 21
22.499798
  0
LINE
  8
0
  6
CONTINUOUS
 62
     7
 10
400.2998
 20
22.499977
 11
402.69995
 21
22.499977
  0
LINE
  8
0
  6
CONTINUOUS
 62
     7
 10
416
 20
23.04998
 11
416
 21
22.499977
  0
LINE
  8
0
  6
CONTINUOUS
 62
     7
 10
413.79996
 20
23.299936
 11
415.99991
 21
23.04994
  0
LINE
  8
0
  6
CONTINUOUS
 62
     7
 10
413.7998
 20
23.699982
 11
413.7998
 21
23.299988
  0
LINE
  8
0
  6
CENTER
 62
     3
 10
412
 20
23.999977
 11
412
 21
16.999969
  0
LINE
  8
0
  6
CONTINUOUS
 62
     7
 10
410.19995
 20
23.699982
 11
410.19995
 21
23.299988
  0
LINE
  8
0
  6
CONTINUOUS
 62
     7
 10
400
 20
22.199759
 11
400.29999
 21
22.49976
  0
LINE
  8
0
  6
CONTINUOUS
 62
     7
 10
400
 20
19.999969
 11
423.5
 21
19.999969
  0
LINE
  8
0
  6
CONTINUOUS
 62
     7
 10
430.99979
 20
7.9999471
 11
429.99979
 21
6.9999247
  0
LINE
  8
0
  6
PHANTOM
 62
     7
 10
431
 20
7.0999765
 11
431
 21
8.0001822
  0
LINE
  8
0
  6
CONTINUOUS
 62
     7
 10
423.5
 20
16.999969
 11
423.5
 21
23.999977
  0
LINE
  8
0
  6
CONTINUOUS
 62
     7
 10
429.99976
 20
6.9999847
 11
415.5
 21
6.9999847
  0
LINE
  8
0
  6
CONTINUOUS
 62
     7
 10
431
 20
23.999977
 11
423.5
 21
23.999977
  0
LINE
  8
0
  6
CONTINUOUS
 62
     7
 10
400
 20
16.999969
 11
423.5
 21
16.999969
  0
LINE
  8
0
  6
CENTER
 62
     7
 10
334.66992
 20
11.999976
 11
327
 21
11.999976
  0
LINE
  8
0
  6
PHANTOM
 62
     7
 10
331.79993
 20
15.999976
 11
331
 21
15.999976
  0
LINE
  8
0
  6
PHANTOM
 62
     7
 10
338.09998
 20
6.2999763
 11
331.79993
 21
6.2999763
  0
LINE
  8
0
  6
PHANTOM
 62
     7
 10
331.79993
 20
7.0999765
 11
331.79993
 21
15.999976
  0
LINE
  8
0
  6
PHANTOM
 62
     7
 10
338.90002
 20
-10.000024
 11
338.90002
 21
6.2999763
  0
LINE
  8
0
  6
PHANTOM
 62
     7
 10
338.09998
 20
-10.000024
 11
338.09998
 21
6.2999763
  0
LINE
  8
0
  6
PHANTOM
 62
     7
 10
338.90002
 20
-10.000024
 11
338.09998
 21
-10.000024
  0
LINE
  8
0
  6
PHANTOM
 62
     7
 10
338.09998
 20
7.0999765
 11
331.79993
 21
7.0999765
  0
LINE
  8
0
  6
PHANTOM
 62
     7
 10
333.3999
 20
10.999976
 11
333.3999
 21
12.999976
  0
LINE
  8
0
  6
PHANTOM
 62
     7
 10
331.79993
 20
9.9999762
 11
332.3999
 21
9.9999762
  0
LINE
  8
0
  6
PHANTOM
 62
     7
 10
331.79993
 20
13.999976
 11
332.3999
 21
13.999976
  0
LINE
  8
0
  6
CONTINUOUS
 62
     7
 10
331
 20
8.0001822
 11
331
 21
23.999977
  0
LINE
  8
0
  6
PHANTOM
 62
     7
 10
431
 20
15.999976
 11
431.79993
 21
15.999976
  0
LINE
  8
0
  6
PHANTOM
 62
     7
 10
436.59998
 20
-8.0000238
 11
437.40002
 21
-8.0000238
  0
LINE
  8
0
  6
PHANTOM
 62
     7
 10
431.79993
 20
7.0999765
 11
431.79993
 21
15.999976
  0
LINE
  8
0
  6
PHANTOM
 62
     7
 10
437.40002
 20
-8.0000238
 11
437.40002
 21
6.2999763
  0
LINE
  8
0
  6
PHANTOM
 62
     7
 10
436.59998
 20
-8.0000238
 11
436.59998
 21
6.2999763
  0
LINE
  8
0
  6
PHANTOM
 62
     7
 10
431.79993
 20
6.2999763
 11
436.59998
 21
6.2999763
  0
LINE
  8
0
  6
PHANTOM
 62
     7
 10
431.79993
 20
7.0999765
 11
436.59998
 21
7.0999765
  0
LINE
  8
0
  6
CONTINUOUS
 62
     7
 10
431
 20
8.0001822
 11
431
 21
23.999977
  0
LINE
  8
0
  6
CENTER
 62
     7
 10
434.66992
 20
11.999976
 11
427
 21
11.999976
  0
LINE
  8
0
  6
PHANTOM
 62
     7
 10
433.3999
 20
10.999976
 11
433.3999
 21
12.999976
  0
LINE
  8
0
  6
PHANTOM
 62
     7
 10
431.79993
 20
13.999976
 11
432.3999
 21
13.999976
  0
LINE
  8
0
  6
PHANTOM
 62
     7
 10
431.79993
 20
9.9999762
 11
432.3999
 21
9.9999762
  0
LINE
  8
0
  6
PHANTOM
 62
     7
 10
319.99969
 20
219
 11
318.99973
 21
219.99998
  0
LINE
  8
0
  6
PHANTOM
 62
     7
 10
310.49982
 20
219.99994
 11
309.99979
 21
219.49991
  0
LINE
  8
0
  6
PHANTOM
 62
     7
 10
159
 20
220.00002
 11
319.99976
 21
220.00002
  0
LINE
  8
0
  6
PHANTOM
 62
     7
 10
309.99976
 20
219.49983
 11
309.99976
 21
207.49983
  0
LINE
  8
0
  6
PHANTOM
 62
     7
 10
319.99976
 20
219
 11
319.99976
 21
207
  0
LINE
  8
0
  6
PHANTOM
 62
     7
 10
150.00012
 20
222.50002
 11
150.00012
 21
220.00002
  0
LINE
  8
0
  6
PHANTOM
 62
     7
 10
150.00012
 20
222.50002
 11
319.99976
 21
222.50002
  0
LINE
  8
0
  6
PHANTOM
 62
     7
 10
319.99976
 20
220.00002
 11
319.99976
 21
222.50002
  0
LINE
  8
0
  6
PHANTOM
 62
     7
 10
210.29968
 20
224.00002
 11
257.69983
 21
224.00002
  0
LINE
  8
0
  6
PHANTOM
 62
     7
 10
210.29968
 20
224.00002
 11
210.29968
 21
209.39995
  0
LINE
  8
0
  6
PHANTOM
 62
     7
 10
257.69983
 20
224.00002
 11
257.69983
 21
209.40001
  0
LINE
  8
0
  6
PHANTOM
 62
     7
 10
210.29968
 20
207.00002
 11
257.69983
 21
207.00002
  0
LINE
  8
0
  6
PHANTOM
 62
     7
 10
154.00012
 20
270.30005
 11
314.99976
 21
270.30005
  0
LINE
  8
0
  6
PHANTOM
 62
     7
 10
314.99976
 20
270.30005
 11
314.99976
 21
275.30005
  0
LINE
  8
0
  6
PHANTOM
 62
     7
 10
154.00012
 20
270.30005
 11
154.00012
 21
275.30005
  0
LINE
  8
0
  6
PHANTOM
 62
     7
 10
159
 20
275.30005
 11
160.00012
 21
275.30005
  0
LINE
  8
0
  6
CENTER
 62
     7
 10
156.50012
 20
325.96994
 11
156.50012
 21
317.11761
  0
LINE
  8
0
  6
CENTER
 62
     7
 10
312.49976
 20
325.96994
 11
312.49976
 21
317.11761
  0
LINE
  8
0
  6
CONTINUOUS
 62
     7
 10
203.39978
 20
206.2002
 11
264.59973
 21
206.2002
  0
LINE
  8
0
  6
CONTINUOUS
 62
     7
 10
203.39978
 20
206.2002
 11
203.39978
 21
205.0002
  0
LINE
  8
0
  6
CONTINUOUS
 62
     7
 10
140.50012
 20
307.12036
 11
145.00012
 21
307.12036
  0
LINE
  8
0
  6
CONTINUOUS
 62
     7
 10
140.50012
 20
292.87967
 11
145.00012
 21
292.87967
  0
LINE
  8
0
  6
CONTINUOUS
 62
     7
 10
140.50012
 20
292.87961
 11
145.00014
 21
298.63498
  0
LINE
  8
0
  6
CONTINUOUS
 62
     7
 10
140.50009
 20
298.63501
 11
145.00009
 21
292.87967
  0
LINE
  8
0
  6
CONTINUOUS
 62
     7
 10
140.50014
 20
301.36496
 11
145.00012
 21
307.12027
  0
LINE
  8
0
  6
CONTINUOUS
 62
     7
 10
140.50011
 20
307.12033
 11
145.00009
 21
301.36499
  0
LINE
  8
0
  6
DASHED
 62
     7
 10
313.56616
 20
280.80008
 11
311.43323
 21
280.80008
  0
LINE
  8
0
  6
DASHED
 62
     7
 10
313.79971
 20
279.30008
 11
313.56619
 21
279.70453
  0
LINE
  8
0
  6
DASHED
 62
     7
 10
313.56653
 20
280.80008
 11
312.49997
 21
281.41586
  0
LINE
  8
0
  6
DASHED
 62
     7
 10
311.43323
 20
275.29996
 11
311.43323
 21
280.80008
  0
LINE
  8
0
  6
DASHED
 62
     7
 10
311.19992
 20
279.30026
 11
311.43338
 21
279.70462
  0
LINE
  8
0
  6
DASHED
 62
     7
 10
311.43344
 20
280.79999
 11
312.5
 21
281.41577
  0
LINE
  8
0
  6
DASHED
 62
     7
 10
311.19971
 20
275.29996
 11
311.19971
 21
279.30008
  0
LINE
  8
0
  6
DASHED
 62
     7
 10
313.79968
 20
279.30008
 11
311.19971
 21
279.30008
  0
LINE
  8
0
  6
DASHED
 62
     7
 10
313.56616
 20
275.29996
 11
313.56616
 21
280.80008
  0
LINE
  8
0
  6
DASHED
 62
     7
 10
313.79968
 20
275.29996
 11
313.79968
 21
279.30008
  0
LINE
  8
0
  6
DASHED
 62
     7
 10
157.56653
 20
280.80008
 11
155.43372
 21
280.80008
  0
LINE
  8
0
  6
DASHED
 62
     7
 10
155.19983
 20
279.30011
 11
155.43347
 21
279.70477
  0
LINE
  8
0
  6
DASHED
 62
     7
 10
155.43288
 20
280.79968
 11
156.49976
 21
281.41565
  0
LINE
  8
0
  6
DASHED
 62
     7
 10
157.79948
 20
279.29999
 11
157.56598
 21
279.70444
  0
LINE
  8
0
  6
DASHED
 62
     7
 10
157.56656
 20
280.80026
 11
156.49998
 21
281.41605
  0
LINE
  8
0
  6
DASHED
 62
     7
 10
155.43372
 20
275.29996
 11
155.43372
 21
280.80008
  0
LINE
  8
0
  6
DASHED
 62
     7
 10
155.20007
 20
275.29996
 11
155.20007
 21
279.30008
  0
LINE
  8
0
  6
DASHED
 62
     7
 10
157.80017
 20
279.30008
 11
155.20007
 21
279.30008
  0
LINE
  8
0
  6
DASHED
 62
     7
 10
157.56653
 20
275.29996
 11
157.56653
 21
280.80008
  0
LINE
  8
0
  6
DASHED
 62
     7
 10
157.80017
 20
275.29996
 11
157.80017
 21
279.30008
  0
LINE
  8
0
  6
CENTER
 62
     7
 10
92
 20
9.5199995
 11
92
 21
2.4799998
  0
LINE
  8
0
  6
CENTER
 62
     7
 10
88.47998
 20
6
 11
95.52002
 21
6
  0
LINE
  8
0
  6
CENTER
 62
     7
 10
92
 20
109.52
 11
92
 21
102.48
  0
LINE
  8
0
  6
CENTER
 62
     7
 10
88.47998
 20
106
 11
95.52002
 21
106
  0
LINE
  8
0
  6
CENTER
 62
     7
 10
131.46185
 20
11.999977
 11
123.82153
 21
11.999977
  0
LINE
  8
0
  6
DASHED
 62
     7
 10
131
 20
12.999985
 11
125
 21
12.999985
  0
LINE
  8
0
  6
DASHED
 62
     7
 10
131
 20
10.999969
 11
125
 21
10.999969
  0
LINE
  8
0
  6
DASHED
 62
     7
 10
126.99999
 20
13.29998
 11
126.99999
 21
10.699974
  0
LINE
  8
0
  6
DASHED
 62
     7
 10
131
 20
13.29998
 11
126.99999
 21
13.29998
  0
LINE
  8
0
  6
DASHED
 62
     7
 10
131
 20
10.699974
 11
126.99999
 21
10.699974
  0
LINE
  8
0
  6
DASHED
 62
     7
 10
126.99999
 20
10.699759
 11
126.48038
 21
10.999754
  0
LINE
  8
0
  6
DASHED
 62
     7
 10
125
 20
12.999985
 11
125
 21
10.999969
  0
LINE
  8
0
  6
DASHED
 62
     7
 10
124.42249
 20
11.999701
 11
124.99982
 21
12.999669
  0
LINE
  8
0
  6
DASHED
 62
     7
 10
126.99974
 20
13.299746
 11
126.48025
 21
12.999819
  0
LINE
  8
0
  6
DASHED
 62
     7
 10
124.4223
 20
11.999837
 11
124.99963
 21
10.999869
  0
LINE
  8
0
  6
PHANTOM
 62
     7
 10
309.99976
 20
275.30005
 11
310.49939
 21
275.30005
  0
LINE
  8
0
  6
DASHED
 62
     7
 10
19.200439
 20
97.066528
 11
19.200439
 21
94.933533
  0
LINE
  8
0
  6
DASHED
 62
     7
 10
20.700678
 20
97.30014
 11
20.296314
 21
97.066681
  0
LINE
  8
0
  6
DASHED
 62
     7
 10
24.700195
 20
97.300049
 11
20.700439
 21
97.300049
  0
LINE
  8
0
  6
CENTER
 62
     7
 10
25.970184
 20
96
 11
17.118317
 21
96
  0
LINE
  8
0
  6
DASHED
 62
     7
 10
24.700195
 20
97.066528
 11
19.200439
 21
97.066528
  0
LINE
  8
0
  6
DASHED
 62
     7
 10
20.700439
 20
97.300049
 11
20.700439
 21
94.699951
  0
LINE
  8
0
  6
DASHED
 62
     7
 10
24.700195
 20
94.699951
 11
20.700439
 21
94.699951
  0
LINE
  8
0
  6
DASHED
 62
     7
 10
19.201178
 20
94.933731
 11
18.585302
 21
96.000458
  0
LINE
  8
0
  6
DASHED
 62
     7
 10
20.700882
 20
94.700829
 11
20.296518
 21
94.934288
  0
LINE
  8
0
  6
DASHED
 62
     7
 10
24.700195
 20
94.933533
 11
19.200439
 21
94.933533
  0
LINE
  8
0
  6
DASHED
 62
     7
 10
19.200911
 20
97.067154
 11
18.585127
 21
96.000587
  0
LINE
  8
0
  6
CENTER
 62
     7
 10
-25.969818
 20
96
 11
-17.116455
 21
96
  0
LINE
  8
0
  6
CENTER
 62
     7
 10
-9.7088432
 20
90.291855
 11
-13.626221
 21
86.374481
  0
LINE
  8
0
  6
CENTER
 62
     7
 10
9.7088432
 20
109.70816
 11
13.626199
 21
113.62552
  0
LINE
  8
0
  6
CONTINUOUS
 62
     7
 10
-24.700476
 20
90.499855
 11
-24.992422
 21
90.207909
  0
LINE
  8
0
  6
CONTINUOUS
 62
     7
 10
-25.000488
 20
85.913269
 11
-25.000488
 21
90.200745
  0
LINE
  8
0
  6
CONTINUOUS
 62
     7
 10
24.999756
 20
85.913269
 11
24.999756
 21
90.199707
  0
LINE
  8
0
  6
CONTINUOUS
 62
     7
 10
24.699699
 20
90.499374
 11
24.999563
 21
90.199509
  0
LINE
  8
0
  6
CENTER
 62
     7
 10
9.7088432
 20
90.291817
 11
13.626199
 21
86.374458
  0
LINE
  8
0
  6
CENTER
 62
     7
 10
-9.7088213
 20
109.70815
 11
-13.626221
 21
113.62554
  0
LINE
  8
0
  6
CONTINUOUS
 62
     7
 10
-22.75106
 20
90.278542
 11
-21.500864
 21
89.55674
  0
LINE
  8
0
  6
CONTINUOUS
 62
     7
 10
-21.501032
 20
92.443657
 11
-20.250834
 21
91.721855
  0
LINE
  8
0
  6
CONTINUOUS
 62
     7
 10
-21.500561
 20
89.557228
 11
-20.250681
 21
90.278847
  0
LINE
  8
0
  6
CONTINUOUS
 62
     7
 10
-22.750622
 20
91.722404
 11
-21.500742
 21
92.444023
  0
LINE
  8
0
  6
CONTINUOUS
 62
     7
 10
-22.750488
 20
91.721741
 11
-22.750488
 21
90.27832
  0
LINE
  8
0
  6
CONTINUOUS
 62
     7
 10
-20.250366
 20
91.72168
 11
-20.250366
 21
90.27832
  0
LINE
  8
0
  6
CENTER
 62
     7
 10
-13.269989
 20
100
 11
13.269989
 21
100
  0
LINE
  8
0
  6
CONTINUOUS
 62
     7
 10
-7.1203547
 20
98.634392
 11
-1.3649267
 21
92.878967
  0
LINE
  8
0
  6
CONTINUOUS
 62
     7
 10
1.3649267
 20
107.11967
 11
7.1203547
 21
101.36425
  0
LINE
  8
0
  6
CONTINUOUS
 62
     7
 10
1.3649267
 20
92.878967
 11
7.1203547
 21
98.634392
  0
LINE
  8
0
  6
CONTINUOUS
 62
     7
 10
-7.1203547
 20
101.36425
 11
-1.3649267
 21
107.11967
  0
LINE
  8
0
  6
CONTINUOUS
 62
     7
 10
23.08667
 20
84
 11
5.4993896
 21
84
  0
LINE
  8
0
  6
CONTINUOUS
 62
     7
 10
4.9996276
 20
84.499512
 11
5.49966
 21
83.999481
  0
LINE
  8
0
  6
CONTINUOUS
 62
     7
 10
-5.5008545
 20
84
 11
-23.087036
 21
84
  0
LINE
  8
0
  6
CONTINUOUS
 62
     7
 10
-5.0004044
 20
84.499931
 11
-5.5003724
 21
83.999962
  0
LINE
  8
0
  6
CONTINUOUS
 62
     7
 10
-22.700317
 20
122.5
 11
22.699951
 21
122.5
  0
LINE
  8
0
  6
CENTER
 62
     7
 10
-21.500244
 20
98.980042
 11
-21.500244
 21
105.02002
  0
LINE
  8
0
  6
CENTER
 62
     7
 10
-24.520233
 20
102
 11
-18.480255
 21
102
  0
LINE
  8
0
  6
CENTER
 62
     7
 10
-24.520233
 20
91
 11
-18.480255
 21
91
  0
LINE
  8
0
  6
CENTER
 62
     7
 10
-21.500244
 20
87.97998
 11
-21.500244
 21
94.02002
  0
LINE
  8
0
  6
CENTER
 62
     7
 10
21.499878
 20
98.980042
 11
21.499878
 21
105.02002
  0
LINE
  8
0
  6
CENTER
 62
     7
 10
18.479889
 20
102
 11
24.519867
 21
102
  0
LINE
  8
0
  6
CENTER
 62
     7
 10
21.499878
 20
87.97998
 11
21.499878
 21
94.02002
  0
LINE
  8
0
  6
CENTER
 62
     7
 10
18.479889
 20
91
 11
24.519867
 21
91
  0
LINE
  8
0
  6
CENTER
 62
     7
 10
0
 20
123.77002
 11
0
 21
82.730042
  0
LINE
  8
0
  6
CONTINUOUS
 62
     7
 10
-24.700195
 20
120.5
 11
-24.700195
 21
86.5
  0
LINE
  8
0
  6
CONTINUOUS
 62
     7
 10
24.699829
 20
120.5
 11
24.699829
 21
86.5
  0
LINE
  8
0
  6
CONTINUOUS
 62
     7
 10
-22.700317
 20
84.5
 11
22.699951
 21
84.5
  0
LINE
  8
0
  6
CONTINUOUS
 62
     7
 10
-13.800049
 20
23.699989
 11
-13.800049
 21
23.299995
  0
LINE
  8
0
  6
CONTINUOUS
 62
     7
 10
-13.800049
 20
23.299995
 11
-10.200195
 21
23.299995
  0
LINE
  8
0
  6
CONTINUOUS
 62
     7
 10
-13.800049
 20
23.699989
 11
-10.200195
 21
23.699989
  0
LINE
  8
0
  6
CONTINUOUS
 62
     7
 10
-10.199971
 20
23.299955
 11
-8.0000181
 21
23.049961
  0
LINE
  8
0
  6
CONTINUOUS
 62
     7
 10
-8
 20
23.049988
 11
-8
 21
22.499985
  0
LINE
  8
0
  6
CONTINUOUS
 62
     7
 10
-16
 20
23.049988
 11
-16
 21
22.499985
  0
LINE
  8
0
  6
CONTINUOUS
 62
     7
 10
-16
 20
23.049988
 11
-8
 21
23.049988
  0
LINE
  8
0
  6
CONTINUOUS
 62
     7
 10
-10.200195
 20
23.699989
 11
-10.200195
 21
23.299995
  0
LINE
  8
0
  6
CONTINUOUS
 62
     7
 10
-13.800125
 20
23.299965
 11
-16.000078
 21
23.049971
  0
LINE
  8
0
  6
CONTINUOUS
 62
     7
 10
13.799805
 20
23.699989
 11
10.199951
 21
23.699989
  0
LINE
  8
0
  6
CONTINUOUS
 62
     7
 10
16
 20
23.049988
 11
8
 21
23.049988
  0
LINE
  8
0
  6
CONTINUOUS
 62
     7
 10
10.199784
 20
23.299963
 11
7.9998317
 21
23.049969
  0
LINE
  8
0
  6
CONTINUOUS
 62
     7
 10
8
 20
23.049988
 11
8
 21
22.499985
  0
LINE
  8
0
  6
CENTER
 62
     7
 10
27.5
 20
5.7299924
 11
27.5
 21
25.269983
  0
LINE
  8
0
  6
CONTINUOUS
 62
     7
 10
13.799805
 20
23.299995
 11
10.199951
 21
23.299995
  0
LINE
  8
0
  6
CONTINUOUS
 62
     7
 10
16
 20
23.049988
 11
16
 21
22.499985
  0
LINE
  8
0
  6
CONTINUOUS
 62
     7
 10
13.799938
 20
23.299957
 11
15.99989
 21
23.049963
  0
LINE
  8
0
  6
CONTINUOUS
 62
     7
 10
13.799805
 20
23.699989
 11
13.799805
 21
23.299995
  0
LINE
  8
0
  6
CENTER
 62
     3
 10
12
 20
23.999985
 11
12
 21
16.999977
  0
LINE
  8
0
  6
CONTINUOUS
 62
     7
 10
10.199951
 20
23.699989
 11
10.199951
 21
23.299995
  0
LINE
  8
0
  6
CONTINUOUS
 62
     7
 10
-31.000187
 20
7.9998846
 11
-30.00012
 21
6.9998188
  0
LINE
  8
0
  6
CONTINUOUS
 62
     7
 10
-31
 20
7.9999771
 11
-31
 21
23.999985
  0
LINE
  8
0
  6
CENTER
 62
     7
 10
-27.5
 20
5.7299924
 11
-27.5
 21
25.269983
  0
LINE
  8
0
  6
CONTINUOUS
 62
     7
 10
-31
 20
23.999985
 11
-23.5
 21
23.999985
  0
LINE
  8
0
  6
CONTINUOUS
 62
     7
 10
-23.5
 20
22.333168
 11
-23.5
 21
23.999985
  0
LINE
  8
0
  6
CONTINUOUS
 62
     7
 10
30.999754
 20
7.9999723
 11
29.999773
 21
6.9999928
  0
LINE
  8
0
  6
CONTINUOUS
 62
     7
 10
31
 20
7.9999771
 11
31
 21
23.999985
  0
LINE
  8
0
  6
CONTINUOUS
 62
     7
 10
23.5
 20
22.333008
 11
23.5
 21
23.999985
  0
LINE
  8
0
  6
CONTINUOUS
 62
     7
 10
29.999756
 20
6.9999924
 11
24.699829
 21
6.9999924
  0
LINE
  8
0
  6
CONTINUOUS
 62
     7
 10
-30.000244
 20
6.9999924
 11
-24.700195
 21
6.9999924
  0
LINE
  8
0
  6
CONTINUOUS
 62
     7
 10
31
 20
23.999985
 11
23.5
 21
23.999985
  0
LINE
  8
0
  6
CENTER
 62
     3
 10
-12
 20
23.999985
 11
-12
 21
16.999977
  0
LINE
  8
0
  6
CONTINUOUS
 62
     7
 10
177.29999
 20
120
 11
222.70001
 21
120
  0
LINE
  8
0
  6
CONTINUOUS
 62
     7
 10
177.29999
 20
122.5
 11
222.70001
 21
122.5
  0
LINE
  8
0
  6
CENTER
 62
     7
 10
225.97
 20
96
 11
217.1178
 21
96
  0
LINE
  8
0
  6
DASHED
 62
     7
 10
180.79999
 20
97.066528
 11
180.79999
 21
94.933594
  0
LINE
  8
0
  6
DASHED
 62
     7
 10
179.30002
 20
97.300034
 11
179.70448
 21
97.066513
  0
LINE
  8
0
  6
DASHED
 62
     7
 10
180.79984
 20
97.066895
 11
181.41562
 21
96.000328
  0
LINE
  8
0
  6
DASHED
 62
     7
 10
175.29999
 20
94.933594
 11
180.79999
 21
94.933594
  0
LINE
  8
0
  6
DASHED
 62
     7
 10
179.29984
 20
94.700127
 11
179.70432
 21
94.933647
  0
LINE
  8
0
  6
DASHED
 62
     7
 10
180.7998
 20
94.933517
 11
181.41565
 21
96.000198
  0
LINE
  8
0
  6
DASHED
 62
     7
 10
175.29999
 20
94.700073
 11
179.29999
 21
94.700073
  0
LINE
  8
0
  6
DASHED
 62
     7
 10
179.29999
 20
97.300049
 11
179.29999
 21
94.700073
  0
LINE
  8
0
  6
DASHED
 62
     7
 10
175.29999
 20
97.066528
 11
180.79999
 21
97.066528
  0
LINE
  8
0
  6
CENTER
 62
     7
 10
174.03
 20
96
 11
182.88202
 21
96
  0
LINE
  8
0
  6
DASHED
 62
     7
 10
175.29999
 20
97.300049
 11
179.29999
 21
97.300049
  0
LINE
  8
0
  6
CONTINUOUS
 62
     7
 10
215.50006
 20
109.45008
 11
214.95004
 21
110.00009
  0
LINE
  8
0
  6
CONTINUOUS
 62
     7
 10
224.69983
 20
90.500084
 11
224.99969
 21
90.200218
  0
LINE
  8
0
  6
CONTINUOUS
 62
     7
 10
224.99997
 20
85.91333
 11
224.99997
 21
90.199707
  0
LINE
  8
0
  6
CONTINUOUS
 62
     7
 10
175.2997
 20
90.500458
 11
175.00772
 21
90.208488
  0
LINE
  8
0
  6
CONTINUOUS
 62
     7
 10
175
 20
85.91333
 11
175
 21
90.200806
  0
LINE
  8
0
  6
CONTINUOUS
 62
     7
 10
223.20006
 20
108.00006
 11
224.70006
 21
106.50005
  0
LINE
  8
0
  6
CONTINUOUS
 62
     7
 10
218
 20
108
 11
218
 21
85
  0
LINE
  8
0
  6
CONTINUOUS
 62
     7
 10
182
 20
108
 11
182
 21
85
  0
LINE
  8
0
  6
CONTINUOUS
 62
     7
 10
223.20012
 20
85.000084
 11
224.70009
 21
86.500053
  0
LINE
  8
0
  6
CONTINUOUS
 62
     7
 10
176.80009
 20
85.000061
 11
175.30008
 21
86.500069
  0
LINE
  8
0
  6
CONTINUOUS
 62
     7
 10
176.80003
 20
108.00005
 11
175.30006
 21
106.50008
  0
LINE
  8
0
  6
CONTINUOUS
 62
     7
 10
184.50003
 20
109.4501
 11
185.04999
 21
110.00007
  0
LINE
  8
0
  6
CONTINUOUS
 62
     7
 10
214.95001
 20
110
 11
208.30002
 21
110
  0
LINE
  8
0
  6
CONTINUOUS
 62
     7
 10
224.70001
 20
120.5
 11
224.70001
 21
86.5
  0
LINE
  8
0
  6
CONTINUOUS
 62
     7
 10
175.29999
 20
120.5
 11
175.29999
 21
86.5
  0
LINE
  8
0
  6
CONTINUOUS
 62
     7
 10
176.79999
 20
108
 11
223.20001
 21
108
  0
LINE
  8
0
  6
CONTINUOUS
 62
     7
 10
215.5
 20
109.45007
 11
215.5
 21
108
  0
LINE
  8
0
  6
CENTER
 62
     7
 10
212.5
 20
111.15527
 11
212.5
 21
98.77478
  0
LINE
  8
0
  6
CONTINUOUS
 62
     7
 10
208.30003
 20
110.00009
 11
207.40001
 21
109.10007
  0
LINE
  8
0
  6
CONTINUOUS
 62
     7
 10
184.5
 20
109.1001
 11
215.5
 21
109.1001
  0
LINE
  8
0
  6
CONTINUOUS
 62
     7
 10
191.70004
 20
110.00011
 11
192.60007
 21
109.10008
  0
LINE
  8
0
  6
CENTER
 62
     7
 10
187.5
 20
111.15527
 11
187.5
 21
98.77478
  0
LINE
  8
0
  6
CONTINUOUS
 62
     7
 10
185.04999
 20
110
 11
191.70001
 21
110
  0
LINE
  8
0
  6
CONTINUOUS
 62
     7
 10
184.5
 20
109.45007
 11
184.5
 21
108
  0
LINE
  8
0
  6
CENTER
 62
     7
 10
221.5
 20
106.02002
 11
221.5
 21
97.980103
  0
LINE
  8
0
  6
CONTINUOUS
 62
     7
 10
177.25003
 20
91.72168
 11
177.25003
 21
90.27832
  0
LINE
  8
0
  6
CONTINUOUS
 62
     7
 10
177.24986
 20
90.27845
 11
178.49989
 21
89.55674
  0
LINE
  8
0
  6
CONTINUOUS
 62
     7
 10
178.49986
 20
92.443512
 11
179.74989
 21
91.721802
  0
LINE
  8
0
  6
CONTINUOUS
 62
     7
 10
178.49986
 20
89.5569
 11
179.74986
 21
90.278595
  0
LINE
  8
0
  6
CONTINUOUS
 62
     7
 10
177.24988
 20
91.721985
 11
178.49986
 21
92.443657
  0
LINE
  8
0
  6
CONTINUOUS
 62
     7
 10
179.75
 20
91.72168
 11
179.75
 21
90.27832
  0
LINE
  8
0
  6
CENTER
 62
     7
 10
217.48001
 20
91
 11
225.52002
 21
91
  0
LINE
  8
0
  6
CENTER
 62
     7
 10
182.51999
 20
102
 11
174.47998
 21
102
  0
LINE
  8
0
  6
CENTER
 62
     7
 10
217.48001
 20
102
 11
225.52002
 21
102
  0
LINE
  8
0
  6
CENTER
 62
     7
 10
178.5
 20
95.02002
 11
178.5
 21
86.980103
  0
LINE
  8
0
  6
CENTER
 62
     7
 10
174.48001
 20
91
 11
182.52002
 21
91
  0
LINE
  8
0
  6
CENTER
 62
     7
 10
221.5
 20
95.02002
 11
221.5
 21
86.980103
  0
LINE
  8
0
  6
CENTER
 62
     7
 10
178.5
 20
106.02002
 11
178.5
 21
97.980103
  0
LINE
  8
0
  6
CONTINUOUS
 62
     7
 10
201.5428
 20
102.67224
 11
201.25011
 21
102.16528
  0
LINE
  8
0
  6
CONTINUOUS
 62
     7
 10
203.08545
 20
100
 11
202.49997
 21
100
  0
LINE
  8
0
  6
CONTINUOUS
 62
     7
 10
202.58829
 20
96.763069
 11
201.75015
 21
98.21476
  0
LINE
  8
0
  6
CONTINUOUS
 62
     7
 10
198.45741
 20
102.67216
 11
198.75014
 21
102.16515
  0
LINE
  8
0
  6
CONTINUOUS
 62
     7
 10
197.41199
 20
96.763184
 11
198.25009
 21
98.214821
  0
LINE
  8
0
  6
CONTINUOUS
 62
     7
 10
196.91455
 20
100
 11
197.5
 21
100
  0
LINE
  8
0
  6
CONTINUOUS
 62
     7
 10
205.49969
 20
84
 11
223.08679
 21
84
  0
LINE
  8
0
  6
CENTER
 62
     7
 10
193.23001
 20
100
 11
206.76999
 21
100
  0
LINE
  8
0
  6
CENTER
 62
     7
 10
200
 20
110
 11
200
 21
82.730103
  0
LINE
  8
0
  6
CONTINUOUS
 62
     7
 10
176.79999
 20
85
 11
223.20001
 21
85
  0
LINE
  8
0
  6
CONTINUOUS
 62
     7
 10
176.91327
 20
84
 11
194.49936
 21
84
  0
LINE
  8
0
  6
CONTINUOUS
 62
     7
 10
204.99977
 20
84.500092
 11
205.49973
 21
84.000145
  0
LINE
  8
0
  6
CONTINUOUS
 62
     7
 10
194.99983
 20
84.500412
 11
194.49985
 21
84.00042
  0
LINE
  8
0
  6
CONTINUOUS
 62
     7
 10
204.99969
 20
84.5
 11
194.99939
 21
84.5
  0
LINE
  8
0
  6
CONTINUOUS
 62
     4
 10
177.5
 20
20.499985
 11
177.5
 21
21.499969
  0
LINE
  8
0
  6
CONTINUOUS
 62
     7
 10
186.19995
 20
23.699982
 11
186.19995
 21
23.299988
  0
LINE
  8
0
  6
CONTINUOUS
 62
     7
 10
186.19995
 20
23.299988
 11
189.7998
 21
23.299988
  0
LINE
  8
0
  6
CONTINUOUS
 62
     4
 10
180.5
 20
19.999969
 11
180.5
 21
21.199974
  0
LINE
  8
0
  6
CONTINUOUS
 62
     4
 10
219.5
 20
19.999969
 11
219.5
 21
21.199974
  0
LINE
  8
0
  6
CONTINUOUS
 62
     4
 10
219.5
 20
21.199974
 11
216
 21
21.199974
  0
LINE
  8
0
  6
CONTINUOUS
 62
     4
 10
192
 20
21.199974
 11
208
 21
21.199974
  0
LINE
  8
0
  6
CONTINUOUS
 62
     4
 10
180.5
 20
21.199974
 11
184
 21
21.199974
  0
LINE
  8
0
  6
CONTINUOUS
 62
     7
 10
211.99992
 20
22.199844
 11
211.69991
 21
22.499889
  0
LINE
  8
0
  6
CONTINUOUS
 62
     7
 10
208.99982
 20
22.199835
 11
208.69978
 21
22.49988
  0
LINE
  8
0
  6
CONTINUOUS
 62
     7
 10
208.99986
 20
22.199804
 11
209.2999
 21
22.499842
  0
LINE
  8
0
  6
CONTINUOUS
 62
     7
 10
205.99983
 20
22.199955
 11
205.69998
 21
22.499826
  0
LINE
  8
0
  6
CONTINUOUS
 62
     7
 10
205.99988
 20
22.199846
 11
206.29987
 21
22.499842
  0
LINE
  8
0
  6
CONTINUOUS
 62
     7
 10
211.99985
 20
22.199846
 11
212.29984
 21
22.499842
  0
LINE
  8
0
  6
CONTINUOUS
 62
     7
 10
202.9998
 20
22.19989
 11
203.29985
 21
22.499928
  0
LINE
  8
0
  6
CONTINUOUS
 62
     7
 10
181.99998
 20
22.199804
 11
181.69994
 21
22.499842
  0
LINE
  8
0
  6
CONTINUOUS
 62
     7
 10
181.99998
 20
22.199814
 11
182.29997
 21
22.499815
  0
LINE
  8
0
  6
CONTINUOUS
 62
     7
 10
202.99994
 20
22.199816
 11
202.69992
 21
22.499859
  0
LINE
  8
0
  6
CONTINUOUS
 62
     7
 10
186.19995
 20
23.699982
 11
189.7998
 21
23.699982
  0
LINE
  8
0
  6
CONTINUOUS
 62
     4
 10
208
 20
19.999969
 11
208
 21
21.199974
  0
LINE
  8
0
  6
CONTINUOUS
 62
     4
 10
184
 20
19.999969
 11
184
 21
21.199974
  0
LINE
  8
0
  6
CONTINUOUS
 62
     4
 10
192
 20
19.999969
 11
192
 21
21.199974
  0
LINE
  8
0
  6
CONTINUOUS
 62
     4
 10
216
 20
19.999969
 11
216
 21
21.199974
  0
LINE
  8
0
  6
CONTINUOUS
 62
     7
 10
189.80003
 20
23.299948
 11
191.99998
 21
23.049953
  0
LINE
  8
0
  6
CONTINUOUS
 62
     7
 10
192
 20
23.04998
 11
192
 21
22.499977
  0
LINE
  8
0
  6
CONTINUOUS
 62
     7
 10
184
 20
23.04998
 11
184
 21
22.499977
  0
LINE
  8
0
  6
CONTINUOUS
 62
     7
 10
184
 20
23.04998
 11
192
 21
23.04998
  0
LINE
  8
0
  6
CONTINUOUS
 62
     7
 10
189.7998
 20
23.699982
 11
189.7998
 21
23.299988
  0
LINE
  8
0
  6
CONTINUOUS
 62
     7
 10
186.19987
 20
23.299959
 11
183.99992
 21
23.049963
  0
LINE
  8
0
  6
CONTINUOUS
 62
     7
 10
213.7998
 20
23.699982
 11
210.19995
 21
23.699982
  0
LINE
  8
0
  6
CONTINUOUS
 62
     7
 10
216
 20
23.04998
 11
208
 21
23.04998
  0
LINE
  8
0
  6
CONTINUOUS
 62
     7
 10
210.19978
 20
23.299957
 11
207.99983
 21
23.049963
  0
LINE
  8
0
  6
CONTINUOUS
 62
     7
 10
208
 20
23.04998
 11
208
 21
22.499977
  0
LINE
  8
0
  6
CENTER
 62
     7
 10
227.5
 20
5.7299848
 11
227.5
 21
25.269976
  0
LINE
  8
0
  6
CONTINUOUS
 62
     7
 10
213.7998
 20
23.299988
 11
210.19995
 21
23.299988
  0
LINE
  8
0
  6
CONTINUOUS
 62
     4
 10
222.5
 20
20.499985
 11
222.5
 21
21.499969
  0
LINE
  8
0
  6
CONTINUOUS
 62
     4
 10
217.99985
 20
22.199907
 11
217.69983
 21
22.499952
  0
LINE
  8
0
  6
CONTINUOUS
 62
     4
 10
217.99989
 20
22.19976
 11
218.29988
 21
22.499754
  0
LINE
  8
0
  6
CONTINUOUS
 62
     7
 10
214.99979
 20
22.199942
 11
214.69992
 21
22.499813
  0
LINE
  8
0
  6
CONTINUOUS
 62
     7
 10
214.99986
 20
22.19976
 11
215.2999
 21
22.499798
  0
LINE
  8
0
  6
CONTINUOUS
 62
     7
 10
216
 20
23.04998
 11
216
 21
22.499977
  0
LINE
  8
0
  6
CONTINUOUS
 62
     7
 10
213.79994
 20
23.29995
 11
215.99989
 21
23.049955
  0
LINE
  8
0
  6
CONTINUOUS
 62
     7
 10
213.7998
 20
23.699982
 11
213.7998
 21
23.299988
  0
LINE
  8
0
  6
CENTER
 62
     3
 10
212
 20
23.999977
 11
212
 21
16.999969
  0
LINE
  8
0
  6
CONTINUOUS
 62
     7
 10
210.19995
 20
23.699982
 11
210.19995
 21
23.299988
  0
LINE
  8
0
  6
CONTINUOUS
 62
     7
 10
191.00002
 20
22.19976
 11
190.69998
 21
22.499798
  0
LINE
  8
0
  6
CONTINUOUS
 62
     7
 10
193.99982
 20
22.19989
 11
193.69995
 21
22.499754
  0
LINE
  8
0
  6
CONTINUOUS
 62
     7
 10
196.99985
 20
22.199936
 11
197.29984
 21
22.499937
  0
LINE
  8
0
  6
CONTINUOUS
 62
     7
 10
196.99985
 20
22.19989
 11
196.69981
 21
22.499928
  0
LINE
  8
0
  6
CONTINUOUS
 62
     7
 10
194.00003
 20
22.19973
 11
194.30002
 21
22.499733
  0
LINE
  8
0
  6
CONTINUOUS
 62
     7
 10
200
 20
22.199797
 11
200.29994
 21
22.499756
  0
LINE
  8
0
  6
CONTINUOUS
 62
     7
 10
168.99982
 20
7.9998755
 11
169.99988
 21
6.9998097
  0
LINE
  8
0
  6
CONTINUOUS
 62
     7
 10
169
 20
7.9999695
 11
169
 21
23.999977
  0
LINE
  8
0
  6
CONTINUOUS
 62
     7
 10
199.99988
 20
22.19989
 11
199.69983
 21
22.499928
  0
LINE
  8
0
  6
CONTINUOUS
 62
     7
 10
184.99997
 20
22.199846
 11
185.29996
 21
22.499847
  0
LINE
  8
0
  6
CONTINUOUS
 62
     7
 10
187.99994
 20
22.199881
 11
188.29993
 21
22.499882
  0
LINE
  8
0
  6
CONTINUOUS
 62
     7
 10
187.99998
 20
22.19976
 11
187.69995
 21
22.499798
  0
LINE
  8
0
  6
CONTINUOUS
 62
     7
 10
190.99992
 20
22.199913
 11
191.29991
 21
22.499914
  0
LINE
  8
0
  6
CONTINUOUS
 62
     7
 10
184.99997
 20
22.19976
 11
184.69992
 21
22.499798
  0
LINE
  8
0
  6
CENTER
 62
     7
 10
172.5
 20
5.7299848
 11
172.5
 21
25.269976
  0
LINE
  8
0
  6
CONTINUOUS
 62
     7
 10
169
 20
23.999977
 11
176.5
 21
23.999977
  0
LINE
  8
0
  6
CONTINUOUS
 62
     7
 10
176.5
 20
22.333036
 11
176.5
 21
23.999977
  0
LINE
  8
0
  6
CONTINUOUS
 62
     7
 10
230.99976
 20
7.9999557
 11
229.99977
 21
6.9999762
  0
LINE
  8
0
  6
CONTINUOUS
 62
     7
 10
231
 20
7.9999695
 11
231
 21
23.999977
  0
LINE
  8
0
  6
CONTINUOUS
 62
     7
 10
223.5
 20
22.333036
 11
223.5
 21
23.999977
  0
LINE
  8
0
  6
CONTINUOUS
 62
     7
 10
229.99976
 20
6.9999847
 11
224.70001
 21
6.9999847
  0
LINE
  8
0
  6
CONTINUOUS
 62
     7
 10
169.99976
 20
6.9999847
 11
175.29999
 21
6.9999847
  0
LINE
  8
0
  6
CONTINUOUS
 62
     7
 10
231
 20
23.999977
 11
223.5
 21
23.999977
  0
LINE
  8
0
  6
CENTER
 62
     3
 10
188
 20
23.999977
 11
188
 21
16.999969
  0
LINE
  8
0
  6
CONTINUOUS
 62
     7
 10
303.99976
 20
296
 11
264.99963
 21
296
  0
LINE
  8
0
  6
PHANTOM
 62
     7
 10
299.59985
 20
265.80008
 11
302.60034
 21
265.80008
  0
LINE
  8
0
  6
PHANTOM
 62
     7
 10
299.59985
 20
268.30005
 11
302.60034
 21
268.30005
  0
LINE
  8
0
  6
PHANTOM
 62
     7
 10
274.59985
 20
264.30005
 11
299.59985
 21
264.30005
  0
LINE
  8
0
  6
PHANTOM
 62
     7
 10
299.59985
 20
270.30005
 11
299.59985
 21
264.30005
  0
LINE
  8
0
  6
PHANTOM
 62
     7
 10
297.59985
 20
270.30005
 11
297.59985
 21
264.30005
  0
LINE
  8
0
  6
PHANTOM
 62
     7
 10
274.59985
 20
270.30005
 11
274.59985
 21
264.30005
  0
LINE
  8
0
  6
PHANTOM
 62
     7
 10
177.3999
 20
265.80008
 11
174.39941
 21
265.80008
  0
LINE
  8
0
  6
PHANTOM
 62
     7
 10
177.3999
 20
268.30005
 11
174.39941
 21
268.30005
  0
LINE
  8
0
  6
PHANTOM
 62
     7
 10
202.3999
 20
264.30005
 11
177.3999
 21
264.30005
  0
LINE
  8
0
  6
PHANTOM
 62
     7
 10
177.3999
 20
270.30005
 11
177.3999
 21
264.30005
  0
LINE
  8
0
  6
PHANTOM
 62
     7
 10
179.3999
 20
270.30005
 11
179.3999
 21
264.30005
  0
LINE
  8
0
  6
PHANTOM
 62
     7
 10
202.3999
 20
270.30005
 11
202.3999
 21
264.30005
  0
LINE
  8
0
  6
PHANTOM
 62
     7
 10
249.59985
 20
265.80008
 11
252.60034
 21
265.80008
  0
LINE
  8
0
  6
PHANTOM
 62
     7
 10
249.59985
 20
268.30005
 11
252.60034
 21
268.30005
  0
LINE
  8
0
  6
PHANTOM
 62
     7
 10
224.59985
 20
264.30005
 11
249.59985
 21
264.30005
  0
LINE
  8
0
  6
PHANTOM
 62
     7
 10
249.59985
 20
270.30005
 11
249.59985
 21
264.30005
  0
LINE
  8
0
  6
PHANTOM
 62
     7
 10
247.59985
 20
270.30005
 11
247.59985
 21
264.30005
  0
LINE
  8
0
  6
PHANTOM
 62
     7
 10
224.59985
 20
270.30005
 11
224.59985
 21
264.30005
  0
LINE
  8
0
  6
PHANTOM
 62
     7
 10
226.49988
 20
263.00006
 11
241.49988
 21
263.00006
  0
LINE
  8
0
  6
PHANTOM
 62
     7
 10
226.49988
 20
284.30005
 11
226.49988
 21
263.00006
  0
LINE
  8
0
  6
PHANTOM
 62
     7
 10
241.49988
 20
284.30005
 11
241.49988
 21
263.00006
  0
LINE
  8
0
  6
PHANTOM
 62
     7
 10
226.49988
 20
292.00006
 11
241.49988
 21
292.00006
  0
LINE
  8
0
  6
DASHED
 62
     7
 10
241.19983
 20
406.75
 11
241.19983
 21
393.25
  0
LINE
  8
0
  6
DASHED
 62
     7
 10
257.19983
 20
406.75
 11
257.19983
 21
393.25
  0
LINE
  8
0
  6
DASHED
 62
     7
 10
257.19983
 20
393.25
 11
241.19983
 21
393.25
  0
LINE
  8
0
  6
DASHED
 62
     7
 10
257.19983
 20
406.75
 11
241.19983
 21
406.75
  0
LINE
  8
0
  6
CENTER
 62
     7
 10
113.27002
 20
421.50009
 11
98.72998
 21
421.50009
  0
LINE
  8
0
  6
CENTER
 62
     7
 10
113.27002
 20
378.5
 11
98.72998
 21
378.5
  0
LINE
  8
0
  6
DASHED
 62
     7
 10
169
 20
396.5
 11
169
 21
396
  0
LINE
  8
0
  6
DASHED
 62
     7
 10
164
 20
396.5
 11
164
 21
396
  0
LINE
  8
0
  6
DASHED
 62
     7
 10
163
 20
404.25
 11
162
 21
404.25
  0
LINE
  8
0
  6
DASHED
 62
     7
 10
163
 20
395.75
 11
162
 21
395.75
  0
LINE
  8
0
  6
DASHED
 62
     7
 10
163
 20
404.25
 11
163
 21
395.75
  0
LINE
  8
0
  6
CENTER
 62
     7
 10
195
 20
417.77008
 11
195
 21
407.23007
  0
LINE
  8
0
  6
CENTER
 62
     7
 10
189.72998
 20
412.50009
 11
200.27002
 21
412.50009
  0
LINE
  8
0
  6
CENTER
 62
     7
 10
189.72998
 20
387.5
 11
200.27002
 21
387.5
  0
LINE
  8
0
  6
CENTER
 62
     7
 10
195
 20
392.77002
 11
195
 21
382.23001
  0
LINE
  8
0
  6
CONTINUOUS
 62
     7
 10
140.50009
 20
398.63501
 11
145.00009
 21
392.87967
  0
LINE
  8
0
  6
CONTINUOUS
 62
     7
 10
145.49982
 20
395.30002
 11
145.19978
 21
395
  0
LINE
  8
0
  6
CONTINUOUS
 62
     7
 10
140.50012
 20
407.12036
 11
145.00012
 21
407.12036
  0
LINE
  8
0
  6
DASHED
 62
     7
 10
239.09973
 20
397
 11
239.09973
 21
403
  0
LINE
  8
0
  6
DASHED
 62
     7
 10
257.69983
 20
392
 11
244.09973
 21
392
  0
LINE
  8
0
  6
DASHED
 62
     7
 10
253.79016
 20
394.3074
 11
255.89249
 21
396.40973
  0
LINE
  8
0
  6
DASHED
 62
     7
 10
257.69983
 20
408
 11
244.09973
 21
408
  0
LINE
  8
0
  6
CENTER
 62
     7
 10
156.50012
 20
425.96994
 11
156.50012
 21
417.11761
  0
LINE
  8
0
  6
CENTER
 62
     7
 10
156.50012
 20
374.03006
 11
156.50012
 21
382.88239
  0
LINE
  8
0
  6
CENTER
 62
     7
 10
312.49976
 20
425.96994
 11
312.49976
 21
417.11761
  0
LINE
  8
0
  6
CENTER
 62
     7
 10
312.49976
 20
374.03006
 11
312.49976
 21
382.88239
  0
LINE
  8
0
  6
DASHED
 62
     7
 10
202.99963
 20
410.25009
 11
202.99963
 21
415.70004
  0
LINE
  8
0
  6
CONTINUOUS
 62
     7
 10
309.99976
 20
423.20004
 11
315.49976
 21
423.20004
  0
LINE
  8
0
  6
CONTINUOUS
 62
     7
 10
309.99976
 20
376.80005
 11
315.49976
 21
376.80005
  0
LINE
  8
0
  6
CONTINUOUS
 62
     7
 10
303.99979
 20
405.49994
 11
309.99973
 21
394.50003
  0
LINE
  8
0
  6
CONTINUOUS
 62
     7
 10
303.99979
 20
394.49997
 11
309.99979
 21
405.49997
  0
LINE
  8
0
  6
DASHED
 62
     7
 10
203.39978
 20
405.75
 11
201.89978
 21
405.75
  0
LINE
  8
0
  6
DASHED
 62
     7
 10
201.89978
 20
406.24997
 11
200.14978
 21
406.24997
  0
LINE
  8
0
  6
CENTER
 62
     7
 10
206.13123
 20
408.00009
 11
196.93201
 21
408.00009
  0
LINE
  8
0
  6
DASHED
 62
     7
 10
201.89978
 20
409.74985
 11
200.14978
 21
409.74985
  0
LINE
  8
0
  6
DASHED
 62
     7
 10
201.89978
 20
410.25009
 11
201.89978
 21
405.75
  0
LINE
  8
0
  6
DASHED
 62
     7
 10
203.39978
 20
410.25009
 11
201.89978
 21
410.25009
  0
LINE
  8
0
  6
DASHED
 62
     7
 10
303.99976
 20
404
 11
264.99963
 21
404
  0
LINE
  8
0
  6
DASHED
 62
     7
 10
303.99976
 20
403.23999
 11
264.99963
 21
403.23999
  0
LINE
  8
0
  6
DASHED
 62
     7
 10
303.99976
 20
396.76001
 11
264.99963
 21
396.76001
  0
LINE
  8
0
  6
DASHED
 62
     7
 10
160.00012
 20
417.62302
 11
203.39978
 21
417.62302
  0
LINE
  8
0
  6
DASHED
 62
     7
 10
264.59973
 20
417.62302
 11
309.99976
 21
417.62302
  0
LINE
  8
0
  6
DASHED
 62
     7
 10
264.59973
 20
382.37695
 11
309.99976
 21
382.37695
  0
LINE
  8
0
  6
DASHED
 62
     7
 10
160.00012
 20
382.37695
 11
203.39978
 21
382.37695
  0
LINE
  8
0
  6
CONTINUOUS
 62
     7
 10
140.50012
 20
397.40601
 11
139.59412
 21
397.40601
  0
LINE
  8
0
  6
CONTINUOUS
 62
     7
 10
140.50011
 20
407.12033
 11
145.00009
 21
401.36499
  0
LINE
  8
0
  6
DASHED
 62
     7
 10
309.99976
 20
405.5
 11
303.99976
 21
405.5
  0
LINE
  8
0
  6
DASHED
 62
     7
 10
309.99976
 20
394.5
 11
303.99976
 21
394.5
  0
LINE
  8
0
  6
CONTINUOUS
 62
     7
 10
160.00012
 20
422.63681
 11
210.29968
 21
422.63681
  0
LINE
  8
0
  6
CONTINUOUS
 62
     7
 10
160.00012
 20
377.36304
 11
210.29968
 21
377.36304
  0
LINE
  8
0
  6
CENTER
 62
     7
 10
269.72998
 20
387.5
 11
280.27002
 21
387.5
  0
LINE
  8
0
  6
CENTER
 62
     7
 10
275
 20
392.77002
 11
275
 21
382.23001
  0
LINE
  8
0
  6
CENTER
 62
     7
 10
269.72998
 20
412.50009
 11
280.27002
 21
412.50009
  0
LINE
  8
0
  6
CENTER
 62
     7
 10
275
 20
417.77008
 11
275
 21
407.23007
  0
LINE
  8
0
  6
CENTER
 62
     7
 10
248.99988
 20
390.77002
 11
248.99988
 21
384.23001
  0
LINE
  8
0
  6
CENTER
 62
     7
 10
245.72998
 20
412.50009
 11
252.2699
 21
412.50009
  0
LINE
  8
0
  6
CENTER
 62
     7
 10
248.99988
 20
415.77008
 11
248.99988
 21
409.23007
  0
LINE
  8
0
  6
CENTER
 62
     7
 10
245.72998
 20
387.5
 11
252.2699
 21
387.5
  0
LINE
  8
0
  6
DASHED
 62
     7
 10
162.60022
 20
406.49277
 11
162
 21
406.49277
  0
LINE
  8
0
  6
DASHED
 62
     7
 10
162.60022
 20
388.30688
 11
162
 21
388.30688
  0
LINE
  8
0
  6
DASHED
 62
     7
 10
162.60022
 20
393.50708
 11
162
 21
393.50708
  0
LINE
  8
0
  6
DASHED
 62
     7
 10
162.60022
 20
393.50708
 11
162.60022
 21
388.30688
  0
LINE
  8
0
  6
DASHED
 62
     7
 10
162.60022
 20
411.69296
 11
162
 21
411.69296
  0
LINE
  8
0
  6
DASHED
 62
     7
 10
162.60022
 20
411.69296
 11
162.60022
 21
406.49277
  0
LINE
  8
0
  6
DASHED
 62
     7
 10
318.99976
 20
417.99985
 11
315.99976
 21
417.99985
  0
LINE
  8
0
  6
DASHED
 62
     7
 10
318.99976
 20
382
 11
315.99976
 21
382
  0
LINE
  8
0
  6
DASHED
 62
     7
 10
303.99976
 20
408.00009
 11
303.99976
 21
392
  0
LINE
  8
0
  6
DASHED
 62
     7
 10
172.99976
 20
386.5
 11
162
 21
386.5
  0
LINE
  8
0
  6
DASHED
 62
     7
 10
172.99976
 20
413.49985
 11
162
 21
413.49985
  0
LINE
  8
0
  6
DASHED
 62
     7
 10
242.50731
 20
403.59018
 11
244.60968
 21
405.69257
  0
LINE
  8
0
  6
DASHED
 62
     7
 10
172.99976
 20
413.49985
 11
172.99976
 21
404
  0
LINE
  8
0
  6
DASHED
 62
     7
 10
172.99976
 20
396
 11
172.99976
 21
386.5
  0
LINE
  8
0
  6
CONTINUOUS
 62
     7
 10
242.79016
 20
403.30734
 11
244.89255
 21
405.4097
  0
LINE
  8
0
  6
CONTINUOUS
 62
     7
 10
315.99976
 20
375.5
 11
315.49976
 21
375.5
  0
LINE
  8
0
  6
DASHED
 62
     7
 10
253.50729
 20
394.59015
 11
255.60966
 21
396.69254
  0
LINE
  8
0
  6
DASHED
 62
     7
 10
315.99976
 20
418.50009
 11
315.99976
 21
422.5
  0
LINE
  8
0
  6
DASHED
 62
     7
 10
315.99976
 20
418.50009
 11
315.49976
 21
418.50009
  0
LINE
  8
0
  6
CONTINUOUS
 62
     7
 10
315.99976
 20
424.50009
 11
315.49976
 21
424.50009
  0
LINE
  8
0
  6
DASHED
 62
     7
 10
315.99976
 20
381.5
 11
315.49976
 21
381.5
  0
LINE
  8
0
  6
DASHED
 62
     7
 10
150
 20
377.5
 11
150
 21
375.30005
  0
LINE
  8
0
  6
DASHED
 62
     7
 10
315.99976
 20
381.5
 11
315.99976
 21
377.5
  0
LINE
  8
0
  6
DASHED
 62
     7
 10
150
 20
424.50009
 11
149.50012
 21
424.50009
  0
LINE
  8
0
  6
DASHED
 62
     7
 10
150
 20
418.50009
 11
149.50012
 21
418.50009
  0
LINE
  8
0
  6
DASHED
 62
     7
 10
150
 20
375.5
 11
149.50012
 21
375.5
  0
LINE
  8
0
  6
DASHED
 62
     7
 10
150
 20
381.5
 11
149.50012
 21
381.5
  0
LINE
  8
0
  6
CONTINUOUS
 62
     7
 10
149.50012
 20
424.70004
 11
149.50012
 21
375.30005
  0
LINE
  8
0
  6
DASHED
 62
     7
 10
202.99963
 20
384.30005
 11
202.99963
 21
405.75
  0
LINE
  8
0
  6
DASHED
 62
     7
 10
201.99963
 20
416.6998
 11
201.99963
 21
417.14987
  0
LINE
  8
0
  6
DASHED
 62
     7
 10
201.99973
 20
383.30005
 11
202.99969
 21
384.30005
  0
LINE
  8
0
  6
DASHED
 62
     7
 10
202.99983
 20
415.69995
 11
201.99977
 21
416.70001
  0
LINE
  8
0
  6
DASHED
 62
     7
 10
201.99963
 20
382.8501
 11
201.99963
 21
383.30005
  0
LINE
  8
0
  6
DASHED
 62
     7
 10
265.99969
 20
383.30005
 11
264.99963
 21
384.30014
  0
LINE
  8
0
  6
DASHED
 62
     7
 10
264.99963
 20
384.30005
 11
264.99963
 21
415.70004
  0
LINE
  8
0
  6
DASHED
 62
     7
 10
265.99963
 20
416.6998
 11
265.99963
 21
417.14987
  0
LINE
  8
0
  6
DASHED
 62
     7
 10
264.99973
 20
415.70001
 11
265.99979
 21
416.70007
  0
LINE
  8
0
  6
DASHED
 62
     7
 10
203.39978
 20
420.16196
 11
210.29968
 21
420.16196
  0
LINE
  8
0
  6
DASHED
 62
     7
 10
203.39978
 20
415.70004
 11
210.29968
 21
415.70004
  0
LINE
  8
0
  6
DASHED
 62
     7
 10
203.39978
 20
384.30005
 11
210.29968
 21
384.30005
  0
LINE
  8
0
  6
DASHED
 62
     7
 10
203.39978
 20
379.83789
 11
210.29968
 21
379.83789
  0
LINE
  8
0
  6
DASHED
 62
     7
 10
264.59973
 20
379.83789
 11
264.59973
 21
420.16196
  0
LINE
  8
0
  6
DASHED
 62
     7
 10
203.39978
 20
379.83789
 11
203.39978
 21
420.16196
  0
LINE
  8
0
  6
DASHED
 62
     7
 10
265.99963
 20
382.8501
 11
265.99963
 21
383.30005
  0
LINE
  8
0
  6
CENTER
 62
     7
 10
218.99988
 20
390.77002
 11
218.99988
 21
384.23001
  0
LINE
  8
0
  6
CONTINUOUS
 62
     7
 10
210.29968
 20
369
 11
210.29968
 21
377.5
  0
LINE
  8
0
  6
CENTER
 62
     7
 10
215.72998
 20
387.5
 11
222.2699
 21
387.5
  0
LINE
  8
0
  6
CENTER
 62
     7
 10
215.72998
 20
412.50009
 11
222.2699
 21
412.50009
  0
LINE
  8
0
  6
CENTER
 62
     7
 10
218.99988
 20
415.77008
 11
218.99988
 21
409.23007
  0
LINE
  8
0
  6
CONTINUOUS
 62
     7
 10
257.69983
 20
369
 11
257.69983
 21
377.5
  0
LINE
  8
0
  6
DASHED
 62
     7
 10
169
 20
403.5
 11
164
 21
403.5
  0
LINE
  8
0
  6
DASHED
 62
     7
 10
164
 20
404
 11
163
 21
404
  0
LINE
  8
0
  6
DASHED
 62
     7
 10
169
 20
396.5
 11
164
 21
396.5
  0
LINE
  8
0
  6
DASHED
 62
     7
 10
164
 20
396
 11
163
 21
396
  0
LINE
  8
0
  6
CONTINUOUS
 62
     7
 10
140.50012
 20
401.36499
 11
145.00012
 21
401.36499
  0
LINE
  8
0
  6
CENTER
 62
     7
 10
142.79993
 20
402.44995
 11
142.79993
 21
397.55005
  0
LINE
  8
0
  6
CONTINUOUS
 62
     7
 10
140.50012
 20
398.63501
 11
145.00012
 21
398.63501
  0
LINE
  8
0
  6
CONTINUOUS
 62
     7
 10
140.50014
 20
392.87961
 11
145.00015
 21
398.63498
  0
LINE
  8
0
  6
CONTINUOUS
 62
     7
 10
129.80017
 20
402.5
 11
129.80017
 21
397.5
  0
LINE
  8
0
  6
CONTINUOUS
 62
     7
 10
129.49956
 20
397.80023
 11
129.79967
 21
397.50012
  0
LINE
  8
0
  6
DASHED
 62
     7
 10
315.99963
 20
418.5499
 11
316.69971
 21
418.5499
  0
LINE
  8
0
  6
DASHED
 62
     7
 10
315.49976
 20
418.50009
 11
315.49976
 21
422.5
  0
LINE
  8
0
  6
DASHED
 62
     7
 10
315.49976
 20
381.5
 11
315.49976
 21
377.5
  0
LINE
  8
0
  6
DASHED
 62
     7
 10
319.69971
 20
418.74985
 11
316.69971
 21
418.74985
  0
LINE
  8
0
  6
DASHED
 62
     7
 10
315.99963
 20
381.44995
 11
316.69971
 21
381.44995
  0
LINE
  8
0
  6
CONTINUOUS
 62
     7
 10
319.69971
 20
424.24997
 11
316.69971
 21
424.24997
  0
LINE
  8
0
  6
CONTINUOUS
 62
     7
 10
319.69971
 20
424.24997
 11
319.69971
 21
422.5
  0
LINE
  8
0
  6
DASHED
 62
     7
 10
316.69971
 20
418.5499
 11
316.69971
 21
422.5
  0
LINE
  8
0
  6
CONTINUOUS
 62
     7
 10
315.99963
 20
375.55005
 11
316.69971
 21
375.55005
  0
LINE
  8
0
  6
DASHED
 62
     7
 10
316.69971
 20
381.44995
 11
316.69971
 21
377.5
  0
LINE
  8
0
  6
CONTINUOUS
 62
     7
 10
319.69971
 20
375.75
 11
316.69971
 21
375.75
  0
LINE
  8
0
  6
CONTINUOUS
 62
     7
 10
315.99963
 20
424.44992
 11
316.69971
 21
424.44992
  0
LINE
  8
0
  6
DASHED
 62
     7
 10
319.69971
 20
381.25
 11
316.69971
 21
381.25
  0
LINE
  8
0
  6
DASHED
 62
     7
 10
319.69971
 20
381.25
 11
319.69971
 21
377.5
  0
LINE
  8
0
  6
CONTINUOUS
 62
     7
 10
140.50015
 20
401.36496
 11
145.00012
 21
407.1203
  0
LINE
  8
0
  6
DASHED
 62
     7
 10
165.09998
 20
411.34286
 11
165.09998
 21
406.84286
  0
LINE
  8
0
  6
CENTER
 62
     7
 10
165.09998
 20
409.09286
 11
154.00012
 21
409.09286
  0
LINE
  8
0
  6
DASHED
 62
     7
 10
165.09998
 20
411.34286
 11
162.60022
 21
411.34286
  0
LINE
  8
0
  6
DASHED
 62
     7
 10
165.09998
 20
406.84286
 11
162.60022
 21
406.84286
  0
LINE
  8
0
  6
CONTINUOUS
 62
     7
 10
310.49963
 20
375.30005
 11
314.99963
 21
375.30005
  0
LINE
  8
0
  6
DASHED
 62
     7
 10
264.59973
 20
382.8501
 11
309.99976
 21
382.8501
  0
LINE
  8
0
  6
DASHED
 62
     7
 10
264.59973
 20
417.14987
 11
309.99976
 21
417.14987
  0
LINE
  8
0
  6
DASHED
 62
     7
 10
162
 20
412.99997
 11
160.00012
 21
412.99997
  0
LINE
  8
0
  6
DASHED
 62
     7
 10
162
 20
387
 11
160.00012
 21
387
  0
LINE
  8
0
  6
CONTINUOUS
 62
     7
 10
310.49963
 20
424.70004
 11
314.99963
 21
424.70004
  0
LINE
  8
0
  6
DASHED
 62
     7
 10
149.50012
 20
424.44992
 11
148.79993
 21
424.44992
  0
LINE
  8
0
  6
DASHED
 62
     7
 10
148.79993
 20
418.5499
 11
148.79993
 21
424.44992
  0
LINE
  8
0
  6
DASHED
 62
     7
 10
149.50012
 20
418.5499
 11
148.79993
 21
418.5499
  0
LINE
  8
0
  6
DASHED
 62
     7
 10
149.50012
 20
375.55005
 11
148.79993
 21
375.55005
  0
LINE
  8
0
  6
DASHED
 62
     7
 10
149.50012
 20
381.44995
 11
148.79993
 21
381.44995
  0
LINE
  8
0
  6
DASHED
 62
     7
 10
148.79993
 20
381.44995
 11
148.79993
 21
375.55005
  0
LINE
  8
0
  6
CONTINUOUS
 62
     7
 10
319.99976
 20
422.5
 11
319.99976
 21
377.5
  0
LINE
  8
0
  6
CENTER
 62
     7
 10
319.49963
 20
378.5
 11
304.99976
 21
378.5
  0
LINE
  8
0
  6
CENTER
 62
     7
 10
319.49963
 20
421.50009
 11
304.99976
 21
421.50009
  0
LINE
  8
0
  6
CONTINUOUS
 62
     7
 10
145.99988
 20
387.5
 11
112
 21
387.5
  0
LINE
  8
0
  6
CONTINUOUS
 62
     7
 10
145.99988
 20
412.50009
 11
112
 21
412.50009
  0
LINE
  8
0
  6
DASHED
 62
     7
 10
113.99988
 20
414.99985
 11
112.99976
 21
414.99985
  0
LINE
  8
0
  6
DASHED
 62
     7
 10
148.99988
 20
385
 11
144
 21
385
  0
LINE
  8
0
  6
DASHED
 62
     7
 10
112
 20
375.30005
 11
112
 21
384
  0
LINE
  8
0
  6
CONTINUOUS
 62
     7
 10
144
 20
414.99985
 11
113.99988
 21
414.99985
  0
LINE
  8
0
  6
CONTINUOUS
 62
     7
 10
140.50012
 20
405
 11
113.99988
 21
405
  0
LINE
  8
0
  6
CONTINUOUS
 62
     7
 10
112
 20
412.99997
 11
112
 21
387
  0
LINE
  8
0
  6
CONTINUOUS
 62
     7
 10
140.50012
 20
395
 11
113.99988
 21
395
  0
LINE
  8
0
  6
CONTINUOUS
 62
     7
 10
160.00012
 20
424.99997
 11
210.29968
 21
424.99997
  0
LINE
  8
0
  6
CONTINUOUS
 62
     7
 10
160.00012
 20
375
 11
210.29968
 21
375
  0
LINE
  8
0
  6
DASHED
 62
     7
 10
150
 20
424.70004
 11
150
 21
422.5
  0
LINE
  8
0
  6
DASHED
 62
     7
 10
165.09998
 20
388.65698
 11
162.60022
 21
388.65698
  0
LINE
  8
0
  6
DASHED
 62
     7
 10
172.99976
 20
405.99985
 11
162
 21
405.99985
  0
LINE
  8
0
  6
CENTER
 62
     7
 10
165.09998
 20
390.90698
 11
154.00012
 21
390.90698
  0
LINE
  8
0
  6
DASHED
 62
     7
 10
165.09998
 20
388.65698
 11
165.09998
 21
393.15698
  0
LINE
  8
0
  6
DASHED
 62
     7
 10
165.09998
 20
393.15698
 11
162.60022
 21
393.15698
  0
LINE
  8
0
  6
DASHED
 62
     7
 10
172.99976
 20
394
 11
162
 21
394
  0
LINE
  8
0
  6
DASHED
 62
     7
 10
145.79993
 20
381.25
 11
145.79993
 21
375.75
  0
LINE
  8
0
  6
DASHED
 62
     7
 10
145.79993
 20
375.75
 11
148.79993
 21
375.75
  0
LINE
  8
0
  6
DASHED
 62
     7
 10
145.79993
 20
381.25
 11
148.79993
 21
381.25
  0
LINE
  8
0
  6
DASHED
 62
     7
 10
145.79993
 20
418.74985
 11
148.79993
 21
418.74985
  0
LINE
  8
0
  6
DASHED
 62
     7
 10
148.99988
 20
414.99985
 11
144
 21
414.99985
  0
LINE
  8
0
  6
DASHED
 62
     7
 10
145.79993
 20
424.24997
 11
148.79993
 21
424.24997
  0
LINE
  8
0
  6
DASHED
 62
     7
 10
145.79993
 20
424.24997
 11
145.79993
 21
418.74985
  0
LINE
  8
0
  6
CENTER
 62
     7
 10
165.49988
 20
421.50009
 11
145.79993
 21
421.50009
  0
LINE
  8
0
  6
CENTER
 62
     7
 10
165.49988
 20
378.5
 11
145.79993
 21
378.5
  0
LINE
  8
0
  6
CONTINUOUS
 62
     7
 10
144
 20
385
 11
113.99988
 21
385
  0
LINE
  8
0
  6
DASHED
 62
     7
 10
112
 20
424.70004
 11
112
 21
415.99997
  0
LINE
  8
0
  6
CONTINUOUS
 62
     7
 10
100
 20
423.69992
 11
100
 21
376.30005
  0
LINE
  8
0
  6
CONTINUOUS
 62
     7
 10
129.80017
 20
397.5
 11
139.5
 21
397.5
  0
LINE
  8
0
  6
CONTINUOUS
 62
     7
 10
129.7995
 20
402.50027
 11
129.49951
 21
402.20029
  0
LINE
  8
0
  6
CONTINUOUS
 62
     7
 10
129.49988
 20
402.19995
 11
129.49988
 21
397.80005
  0
LINE
  8
0
  6
CONTINUOUS
 62
     7
 10
129.80017
 20
402.5
 11
139.5
 21
402.5
  0
LINE
  8
0
  6
CONTINUOUS
 62
     7
 10
140.50012
 20
407.25009
 11
140.50012
 21
392.75
  0
LINE
  8
0
  6
CONTINUOUS
 62
     7
 10
139.99988
 20
403
 11
139.99988
 21
397
  0
LINE
  8
0
  6
CONTINUOUS
 62
     7
 10
139.49951
 20
397.50021
 11
139.99982
 21
396.99991
  0
LINE
  8
0
  6
CONTINUOUS
 62
     7
 10
139.99963
 20
403.00015
 11
139.4996
 21
402.50009
  0
LINE
  8
0
  6
CONTINUOUS
 62
     7
 10
139.5
 20
402.5
 11
139.5
 21
397.5
  0
LINE
  8
0
  6
CONTINUOUS
 62
     7
 10
145.00012
 20
392.75
 11
145.00012
 21
407.25009
  0
LINE
  8
0
  6
CONTINUOUS
 62
     7
 10
140.50012
 20
407.25009
 11
145.00012
 21
407.25009
  0
LINE
  8
0
  6
CONTINUOUS
 62
     7
 10
140.50012
 20
392.75
 11
145.00012
 21
392.75
  0
LINE
  8
0
  6
CONTINUOUS
 62
     7
 10
145.00012
 20
395
 11
145.20007
 21
395
  0
LINE
  8
0
  6
CONTINUOUS
 62
     7
 10
145.00012
 20
405
 11
145.20007
 21
405
  0
LINE
  8
0
  6
CONTINUOUS
 62
     7
 10
145.5
 20
404.69995
 11
145.5
 21
395.30005
  0
LINE
  8
0
  6
CONTINUOUS
 62
     7
 10
145.99988
 20
404
 11
145.5
 21
404
  0
LINE
  8
0
  6
CONTINUOUS
 62
     7
 10
159.99998
 20
409.38068
 11
161.99997
 21
390.6188
  0
LINE
  8
0
  6
CONTINUOUS
 62
     7
 10
159.99992
 20
390.61905
 11
161.99991
 21
409.38095
  0
LINE
  8
0
  6
DASHED
 62
     7
 10
162
 20
409.38107
 11
160.00012
 21
409.38107
  0
LINE
  8
0
  6
DASHED
 62
     7
 10
162
 20
390.6189
 11
160.00012
 21
390.6189
  0
LINE
  8
0
  6
DASHED
 62
     7
 10
162
 20
413.49985
 11
162
 21
386.5
  0
LINE
  8
0
  6
DASHED
 62
     7
 10
169
 20
404
 11
169
 21
403.5
  0
LINE
  8
0
  6
DASHED
 62
     7
 10
164
 20
404
 11
164
 21
403.5
  0
LINE
  8
0
  6
CONTINUOUS
 62
     7
 10
140.50012
 20
402.59399
 11
139.59412
 21
402.59399
  0
LINE
  8
0
  6
CONTINUOUS
 62
     7
 10
145.19974
 20
405.00009
 11
145.49986
 21
404.69995
  0
LINE
  8
0
  6
CONTINUOUS
 62
     7
 10
145.99988
 20
396
 11
145.5
 21
396
  0
LINE
  8
0
  6
CONTINUOUS
 62
     7
 10
139.99988
 20
397
 11
140.50012
 21
397
  0
LINE
  8
0
  6
CONTINUOUS
 62
     7
 10
139.99988
 20
403
 11
140.50012
 21
403
  0
LINE
  8
0
  6
CONTINUOUS
 62
     7
 10
140.50012
 20
392.87967
 11
145.00012
 21
392.87967
  0
LINE
  8
0
  6
CONTINUOUS
 62
     7
 10
145.99988
 20
412.99997
 11
145.99988
 21
387
  0
LINE
  8
0
  6
DASHED
 62
     7
 10
160.00012
 20
417.14987
 11
203.39978
 21
417.14987
  0
LINE
  8
0
  6
CONTINUOUS
 62
     7
 10
160.00012
 20
424.70004
 11
210.29968
 21
424.70004
  0
LINE
  8
0
  6
CONTINUOUS
 62
     7
 10
100.99976
 20
424.70004
 11
159
 21
424.70004
  0
LINE
  8
0
  6
DASHED
 62
     7
 10
160.00012
 20
382.8501
 11
203.39978
 21
382.8501
  0
LINE
  8
0
  6
CONTINUOUS
 62
     7
 10
160.00012
 20
375.30005
 11
210.29968
 21
375.30005
  0
LINE
  8
0
  6
CONTINUOUS
 62
     7
 10
100.99976
 20
375.30005
 11
159
 21
375.30005
  0
LINE
  8
0
  6
CENTER
 62
     7
 10
321.26965
 20
400
 11
98.72998
 21
400
  0
LINE
  8
0
  6
CONTINUOUS
 62
     7
 10
160.00012
 20
424.99997
 11
160.00012
 21
422.5
  0
LINE
  8
0
  6
DASHED
 62
     7
 10
309.99976
 20
392
 11
303.99976
 21
392
  0
LINE
  8
0
  6
DASHED
 62
     7
 10
309.99976
 20
408.00009
 11
303.99976
 21
408.00009
  0
LINE
  8
0
  6
DASHED
 62
     7
 10
202.99963
 20
396
 11
169
 21
396
  0
LINE
  8
0
  6
DASHED
 62
     7
 10
202.99963
 20
396.76001
 11
163
 21
396.76001
  0
LINE
  8
0
  6
DASHED
 62
     7
 10
202.99963
 20
404
 11
169
 21
404
  0
LINE
  8
0
  6
DASHED
 62
     7
 10
202.99963
 20
403.23999
 11
163
 21
403.23999
  0
LINE
  8
0
  6
CONTINUOUS
 62
     7
 10
309.99976
 20
424.99997
 11
309.99976
 21
422.5
  0
LINE
  8
0
  6
PHANTOM
 62
     7
 10
154.00012
 20
370.30005
 11
314.99976
 21
370.30005
  0
LINE
  8
0
  6
PHANTOM
 62
     7
 10
314.99976
 20
370.30005
 11
314.99976
 21
375.30005
  0
LINE
  8
0
  6
PHANTOM
 62
     7
 10
154.00012
 20
370.30005
 11
154.00012
 21
375.30005
  0
LINE
  8
0
  6
PHANTOM
 62
     7
 10
159
 20
375.30005
 11
160.00012
 21
375.30005
  0
LINE
  8
0
  6
DASHED
 62
     7
 10
313.56616
 20
380.80008
 11
311.43323
 21
380.80008
  0
LINE
  8
0
  6
DASHED
 62
     7
 10
313.79971
 20
379.30008
 11
313.56622
 21
379.70453
  0
LINE
  8
0
  6
DASHED
 62
     7
 10
313.56653
 20
380.80005
 11
312.49997
 21
381.41583
  0
LINE
  8
0
  6
DASHED
 62
     7
 10
311.43323
 20
375.29996
 11
311.43323
 21
380.80008
  0
LINE
  8
0
  6
DASHED
 62
     7
 10
311.19995
 20
379.30023
 11
311.43341
 21
379.70462
  0
LINE
  8
0
  6
DASHED
 62
     7
 10
311.43344
 20
380.79999
 11
312.5
 21
381.41577
  0
LINE
  8
0
  6
DASHED
 62
     7
 10
311.19971
 20
375.29996
 11
311.19971
 21
379.30008
  0
LINE
  8
0
  6
DASHED
 62
     7
 10
313.79968
 20
379.30008
 11
311.19971
 21
379.30008
  0
LINE
  8
0
  6
DASHED
 62
     7
 10
313.56616
 20
375.29996
 11
313.56616
 21
380.80008
  0
LINE
  8
0
  6
DASHED
 62
     7
 10
313.79968
 20
375.29996
 11
313.79968
 21
379.30008
  0
LINE
  8
0
  6
DASHED
 62
     7
 10
157.56653
 20
380.80008
 11
155.43372
 21
380.80008
  0
LINE
  8
0
  6
DASHED
 62
     7
 10
155.19983
 20
379.30008
 11
155.43347
 21
379.70477
  0
LINE
  8
0
  6
DASHED
 62
     7
 10
155.43288
 20
380.79968
 11
156.49976
 21
381.41565
  0
LINE
  8
0
  6
DASHED
 62
     7
 10
157.79948
 20
379.29999
 11
157.56598
 21
379.70444
  0
LINE
  8
0
  6
DASHED
 62
     7
 10
157.56656
 20
380.80026
 11
156.49998
 21
381.41605
  0
LINE
  8
0
  6
DASHED
 62
     7
 10
155.43372
 20
375.29996
 11
155.43372
 21
380.80008
  0
LINE
  8
0
  6
DASHED
 62
     7
 10
155.20007
 20
375.29996
 11
155.20007
 21
379.30008
  0
LINE
  8
0
  6
DASHED
 62
     7
 10
157.80017
 20
379.30008
 11
155.20007
 21
379.30008
  0
LINE
  8
0
  6
DASHED
 62
     7
 10
157.56653
 20
375.29996
 11
157.56653
 21
380.80008
  0
LINE
  8
0
  6
DASHED
 62
     7
 10
157.80017
 20
375.29996
 11
157.80017
 21
379.30008
  0
LINE
  8
0
  6
PHANTOM
 62
     7
 10
309.99976
 20
375.30005
 11
310.49939
 21
375.30005
  0
LINE
  8
0
  6
DASHED
 62
     7
 10
303.99976
 20
396
 11
264.99963
 21
396
  0
LINE
  8
0
  6
CONTINUOUS
 62
     7
 10
319.99976
 20
377.5
 11
150.00012
 21
377.5
  0
LINE
  8
0
  6
CONTINUOUS
 62
     7
 10
319.99976
 20
422.5
 11
150.00012
 21
422.5
  0
LINE
  8
0
  6
CONTINUOUS
 62
     7
 10
150.00012
 20
422.5
 11
150.00012
 21
377.5
  0
LINE
  8
0
  6
CONTINUOUS
 62
     7
 10
257.69983
 20
369
 11
210.29968
 21
369
  0
LINE
  8
0
  6
CONTINUOUS
 62
     7
 10
257.69983
 20
431
 11
210.29968
 21
431
  0
LINE
  8
0
  6
CONTINUOUS
 62
     7
 10
257.69983
 20
424.99997
 11
309.99976
 21
424.99997
  0
LINE
  8
0
  6
CONTINUOUS
 62
     7
 10
257.69983
 20
424.70004
 11
309.99976
 21
424.70004
  0
LINE
  8
0
  6
CONTINUOUS
 62
     7
 10
257.69983
 20
422.63681
 11
309.99976
 21
422.63681
  0
LINE
  8
0
  6
DASHED
 62
     7
 10
257.69983
 20
420.16196
 11
264.59973
 21
420.16196
  0
LINE
  8
0
  6
DASHED
 62
     7
 10
257.69983
 20
415.70004
 11
264.59973
 21
415.70004
  0
LINE
  8
0
  6
DASHED
 62
     7
 10
257.69983
 20
384.30005
 11
264.59973
 21
384.30005
  0
LINE
  8
0
  6
DASHED
 62
     7
 10
257.69983
 20
379.83789
 11
264.59973
 21
379.83789
  0
LINE
  8
0
  6
CONTINUOUS
 62
     7
 10
257.69983
 20
375.30005
 11
309.99976
 21
375.30005
  0
LINE
  8
0
  6
CONTINUOUS
 62
     7
 10
257.69983
 20
375
 11
309.99976
 21
375
  0
LINE
  8
0
  6
CONTINUOUS
 62
     7
 10
257.69983
 20
377.36304
 11
309.99976
 21
377.36304
  0
LINE
  8
0
  6
CONTINUOUS
 62
     7
 10
257.69983
 20
423.5
 11
210.29968
 21
423.5
  0
LINE
  8
0
  6
CONTINUOUS
 62
     7
 10
257.69983
 20
376.5
 11
210.29968
 21
376.5
  0
LINE
  8
0
  6
CONTINUOUS
 62
     7
 10
160.00012
 20
377.5
 11
160.00012
 21
375
  0
LINE
  8
0
  6
DASHED
 62
     7
 10
160.00012
 20
422.5
 11
160.00012
 21
377.5
  0
LINE
  8
0
  6
DASHED
 62
     7
 10
309.99976
 20
422.5
 11
309.99976
 21
377.5
  0
LINE
  8
0
  6
CONTINUOUS
 62
     7
 10
309.99976
 20
377.5
 11
309.99976
 21
375
  0
LINE
  8
0
  6
CONTINUOUS
 62
     7
 10
315.49976
 20
377.5
 11
315.49976
 21
375.5
  0
LINE
  8
0
  6
CONTINUOUS
 62
     7
 10
316.69971
 20
377.5
 11
316.69971
 21
375.55005
  0
LINE
  8
0
  6
CONTINUOUS
 62
     7
 10
319.69971
 20
377.5
 11
319.69971
 21
375.75
  0
LINE
  8
0
  6
CONTINUOUS
 62
     7
 10
315.99976
 20
377.5
 11
315.99976
 21
375.5
  0
LINE
  8
0
  6
CONTINUOUS
 62
     7
 10
315.49976
 20
422.5
 11
315.49976
 21
424.50009
  0
LINE
  8
0
  6
CONTINUOUS
 62
     7
 10
315.99976
 20
422.5
 11
315.99976
 21
424.50009
  0
LINE
  8
0
  6
CONTINUOUS
 62
     7
 10
316.69971
 20
422.5
 11
316.69971
 21
424.44992
  0
LINE
  8
0
  6
DASHED
 62
     7
 10
319.69971
 20
422.5
 11
319.69971
 21
418.74985
  0
LINE
  8
0
  6
DASHED
 62
     7
 10
257.69983
 20
377.5
 11
257.69983
 21
422.5
  0
LINE
  8
0
  6
DASHED
 62
     7
 10
210.29968
 20
377.5
 11
210.29968
 21
422.5
  0
LINE
  8
0
  6
CONTINUOUS
 62
     7
 10
210.29968
 20
422.5
 11
210.29968
 21
431
  0
LINE
  8
0
  6
CONTINUOUS
 62
     7
 10
257.69983
 20
422.5
 11
257.69983
 21
431
  0
LINE
  8
0
  6
PHANTOM
 62
     7
 10
304.49988
 20
368.50006
 11
307.49988
 21
368.50006
  0
LINE
  8
0
  6
PHANTOM
 62
     7
 10
304.49988
 20
365.50006
 11
307.49988
 21
365.50006
  0
LINE
  8
0
  6
PHANTOM
 62
     7
 10
278.69983
 20
369.90005
 11
272.29993
 21
369.90005
  0
LINE
  8
0
  6
PHANTOM
 62
     7
 10
299.49988
 20
368.30005
 11
278.69983
 21
368.30005
  0
LINE
  8
0
  6
PHANTOM
 62
     7
 10
304.49988
 20
369.90005
 11
304.49988
 21
363.70004
  0
LINE
  8
0
  6
PHANTOM
 62
     7
 10
299.69983
 20
369.90005
 11
299.69983
 21
363.70004
  0
LINE
  8
0
  6
PHANTOM
 62
     7
 10
304.49988
 20
363.70004
 11
272.29993
 21
363.70004
  0
LINE
  8
0
  6
PHANTOM
 62
     7
 10
272.29993
 20
369.90005
 11
272.29993
 21
363.70004
  0
LINE
  8
0
  6
PHANTOM
 62
     7
 10
284.29993
 20
363.70004
 11
284.29993
 21
362.80005
  0
LINE
  8
0
  6
PHANTOM
 62
     7
 10
272.69983
 20
363.70004
 11
272.69983
 21
362.80005
  0
LINE
  8
0
  6
PHANTOM
 62
     7
 10
299.49988
 20
370.30005
 11
299.49988
 21
368.30005
  0
LINE
  8
0
  6
PHANTOM
 62
     7
 10
278.69983
 20
370.30005
 11
278.69983
 21
368.30005
  0
LINE
  8
0
  6
PHANTOM
 62
     7
 10
304.49988
 20
369.90005
 11
299.49988
 21
369.90005
  0
LINE
  8
0
  6
PHANTOM
 62
     7
 10
284.29993
 20
362.80005
 11
272.69983
 21
362.80005
  0
LINE
  8
0
  6
PHANTOM
 62
     7
 10
296.29993
 20
362.70004
 11
292.69983
 21
362.70004
  0
LINE
  8
0
  6
PHANTOM
 62
     7
 10
172.49988
 20
368.50006
 11
169.49988
 21
368.50006
  0
LINE
  8
0
  6
PHANTOM
 62
     7
 10
172.49988
 20
365.50006
 11
169.49988
 21
365.50006
  0
LINE
  8
0
  6
PHANTOM
 62
     7
 10
198.29993
 20
369.90005
 11
204.69983
 21
369.90005
  0
LINE
  8
0
  6
PHANTOM
 62
     7
 10
177.49988
 20
368.30005
 11
198.29993
 21
368.30005
  0
LINE
  8
0
  6
PHANTOM
 62
     7
 10
172.49988
 20
369.90005
 11
172.49988
 21
363.70004
  0
LINE
  8
0
  6
PHANTOM
 62
     7
 10
177.29993
 20
369.90005
 11
177.29993
 21
363.70004
  0
LINE
  8
0
  6
PHANTOM
 62
     7
 10
172.49988
 20
363.70004
 11
204.69983
 21
363.70004
  0
LINE
  8
0
  6
PHANTOM
 62
     7
 10
204.69983
 20
369.90005
 11
204.69983
 21
363.70004
  0
LINE
  8
0
  6
PHANTOM
 62
     7
 10
192.69983
 20
363.70004
 11
192.69983
 21
362.80005
  0
LINE
  8
0
  6
PHANTOM
 62
     7
 10
204.29993
 20
363.70004
 11
204.29993
 21
362.80005
  0
LINE
  8
0
  6
PHANTOM
 62
     7
 10
177.49988
 20
370.30005
 11
177.49988
 21
368.30005
  0
LINE
  8
0
  6
PHANTOM
 62
     7
 10
198.29993
 20
370.30005
 11
198.29993
 21
368.30005
  0
LINE
  8
0
  6
PHANTOM
 62
     7
 10
172.49988
 20
369.90005
 11
177.49988
 21
369.90005
  0
LINE
  8
0
  6
PHANTOM
 62
     7
 10
192.69983
 20
362.80005
 11
204.29993
 21
362.80005
  0
LINE
  8
0
  6
PHANTOM
 62
     7
 10
180.69983
 20
362.70004
 11
184.29993
 21
362.70004
  0
LINE
  8
0
  6
PHANTOM
 62
     7
 10
226.49988
 20
369
 11
226.49988
 21
361.10001
  0
LINE
  8
0
  6
PHANTOM
 62
     7
 10
241.49988
 20
369
 11
241.49988
 21
361.10001
  0
LINE
  8
0
  6
PHANTOM
 62
     7
 10
241.49988
 20
361.10001
 11
226.49988
 21
361.10001
  0
LINE
  8
0
  6
PHANTOM
 62
     7
 10
241.49988
 20
368.20001
 11
226.49988
 21
368.20001
  0
LINE
  8
0
  6
CENTER
 62
     7
 10
238.24968
 20
366.60004
 11
238.24968
 21
376.17847
  0
LINE
  8
0
  6
CENTER
 62
     7
 10
229.74966
 20
366.60004
 11
229.74966
 21
376.17847
  0
LINE
  8
0
  6
CENTER
 62
     7
 10
238.24968
 20
431.46185
 11
238.24968
 21
423.82153
  0
LINE
  8
0
  6
CENTER
 62
     7
 10
229.74966
 20
431.46185
 11
229.74966
 21
423.82153
  0
LINE
  8
0
  6
PHANTOM
 62
     7
 10
228.74966
 20
366.60004
 11
230.74966
 21
366.60004
  0
LINE
  8
0
  6
PHANTOM
 62
     7
 10
231.74966
 20
368.20001
 11
231.74966
 21
367.60004
  0
LINE
  8
0
  6
PHANTOM
 62
     7
 10
227.74966
 20
368.20001
 11
227.74966
 21
367.60004
  0
LINE
  8
0
  6
PHANTOM
 62
     7
 10
237.24966
 20
366.60004
 11
239.24966
 21
366.60004
  0
LINE
  8
0
  6
PHANTOM
 62
     7
 10
240.24966
 20
368.20001
 11
240.24966
 21
367.60004
  0
LINE
  8
0
  6
PHANTOM
 62
     7
 10
236.24966
 20
368.20001
 11
236.24966
 21
367.60004
  0
LINE
  8
0
  6
CONTINUOUS
 62
     7
 10
140.50012
 20
207.12036
 11
145.00012
 21
207.12036
  0
LINE
  8
0
  6
CONTINUOUS
 62
     7
 10
140.50009
 20
207.12035
 11
145.00009
 21
201.36499
  0
LINE
  8
0
  6
CONTINUOUS
 62
     7
 10
140.50012
 20
201.36499
 11
145.00012
 21
201.36499
  0
LINE
  8
0
  6
CONTINUOUS
 62
     7
 10
140.50015
 20
201.36496
 11
145.00012
 21
207.12029
  0
LINE
  8
0
  6
CENTER
 62
     7
 10
218.99976
 20
375.42001
 11
218.99976
 21
369.57999
  0
LINE
  8
0
  6
CENTER
 62
     7
 10
216.07976
 20
372.5
 11
221.91975
 21
372.5
  0
LINE
  8
0
  6
CENTER
 62
     7
 10
216.07976
 20
427.5
 11
221.91975
 21
427.5
  0
LINE
  8
0
  6
CENTER
 62
     7
 10
218.99976
 20
424.57999
 11
218.99976
 21
430.42001
  0
LINE
  8
0
  6
CENTER
 62
     7
 10
251.91975
 20
427.5
 11
246.07976
 21
427.5
  0
LINE
  8
0
  6
CENTER
 62
     7
 10
248.99976
 20
424.57999
 11
248.99976
 21
430.42001
  0
LINE
  8
0
  6
CENTER
 62
     7
 10
251.91975
 20
372.5
 11
246.07976
 21
372.5
  0
LINE
  8
0
  6
CENTER
 62
     7
 10
248.99976
 20
375.42001
 11
248.99976
 21
369.57999
  0
LINE
  8
0
  6
PHANTOM
 62
     7
 10
435.69995
 20
-7.1525574E-006
 11
435.69995
 21
-8.0000067
  0
LINE
  8
0
  6
DASHED
 62
     7
 10
237.24968
 20
369
 11
237.24968
 21
373
  0
LINE
  8
0
  6
DASHED
 62
     7
 10
239.24968
 20
369
 11
239.24968
 21
373
  0
LINE
  8
0
  6
DASHED
 62
     7
 10
239.03317
 20
369
 11
239.03317
 21
375
  0
LINE
  8
0
  6
DASHED
 62
     7
 10
237.46619
 20
369
 11
237.46619
 21
375
  0
LINE
  8
0
  6
DASHED
 62
     7
 10
237.46619
 20
375
 11
239.03317
 21
375
  0
LINE
  8
0
  6
DASHED
 62
     7
 10
237.24968
 20
373
 11
239.24968
 21
373
  0
LINE
  8
0
  6
DASHED
 62
     7
 10
237.24968
 20
373
 11
237.46619
 21
373.375
  0
LINE
  8
0
  6
DASHED
 62
     7
 10
237.46617
 20
375
 11
238.24968
 21
375.45236
  0
LINE
  8
0
  6
DASHED
 62
     7
 10
239.03319
 20
375
 11
238.24968
 21
375.45236
  0
LINE
  8
0
  6
DASHED
 62
     7
 10
239.24966
 20
373
 11
239.03317
 21
373.37497
  0
ARC
  8
0
  6
CENTER
 62
     7
 10
0
 20
0
 40
16.5
 50
35.370227
 51
54.630445
  0
ARC
  8
0
  6
CONTINUOUS
 62
     7
 10
244.09973
 20
303
 40
5
 50
90.000003
 51
180.00001
  0
ARC
  8
0
  6
CONTINUOUS
 62
     7
 10
22.699951
 20
-13.5
 40
1.9999995
 50
270.00002
 51
360
  0
ARC
  8
0
  6
CONTINUOUS
 62
     7
 10
-22.700317
 20
-13.5
 40
1.9999995
 50
179.99996
 51
270
  0
CIRCLE
  8
0
  6
CONTINUOUS
 62
     7
 10
0
 20
0
 40
12
  0
CIRCLE
  8
0
  6
CONTINUOUS
 62
     7
 10
0
 20
0
 40
3
  0
ARC
  8
0
  6
CONTINUOUS
 62
     7
 10
0
 20
0
 40
7.2499995
 50
79.148396
 51
100.85157
  0
ARC
  8
0
  6
CONTINUOUS
 62
     7
 10
0
 20
0
 40
7.2499995
 50
169.14838
 51
190.85155
  0
ARC
  8
0
  6
CONTINUOUS
 62
     7
 10
0
 20
0
 40
7.2499995
 50
259.14843
 51
280.8516
  0
ARC
  8
0
  6
CONTINUOUS
 62
     7
 10
0
 20
0
 40
7.2499995
 50
349.14843
 51
10.851577
  0
ARC
  8
0
  6
CONTINUOUS
 62
     7
 10
-22.700317
 20
20.5
 40
1.9999995
 50
89.999982
 51
179.99996
  0
ARC
  8
0
  6
CONTINUOUS
 62
     7
 10
22.699951
 20
20.5
 40
1.9999995
 50
360
 51
89.999982
  0
CIRCLE
  8
0
  6
CONTINUOUS
 62
     7
 10
-21.500244
 20
-9
 40
1.7500005
  0
ARC
  8
0
  6
CONTINUOUS
 62
     7
 10
100.99976
 20
221.50002
 40
1
 50
89.999982
 51
179.99996
  0
ARC
  8
0
  6
CONTINUOUS
 62
     7
 10
100.99976
 20
185.50002
 40
1
 50
179.99996
 51
270
  0
ARC
  8
0
  6
CONTINUOUS
 62
     7
 10
159
 20
219
 40
1
 50
0
 51
89.999982
  0
ARC
  8
0
  6
CONTINUOUS
 62
     7
 10
159
 20
185.50002
 40
1
 50
270.00002
 51
0
  0
ARC
  8
0
  6
CONTINUOUS
 62
     7
 10
148.5
 20
221.50002
 40
1
 50
0
 51
89.999982
  0
ARC
  8
0
  6
CONTINUOUS
 62
     7
 10
112.99976
 20
211.5
 40
1
 50
89.999982
 51
179.99996
  0
ARC
  8
0
  6
CONTINUOUS
 62
     7
 10
110.99988
 20
185.50002
 40
1
 50
270.00002
 51
0
  0
ARC
  8
0
  6
CONTINUOUS
 62
     7
 10
147
 20
185.50002
 40
1
 50
179.99998
 51
270.00003
  0
ARC
  8
0
  6
CONTINUOUS
 62
     7
 10
100.99976
 20
323.69992
 40
1
 50
89.999982
 51
179.99996
  0
ARC
  8
0
  6
CONTINUOUS
 62
     7
 10
100.99976
 20
276.30005
 40
1
 50
179.99996
 51
270
  0
ARC
  8
0
  6
CONTINUOUS
 62
     7
 10
159
 20
276.30005
 40
1
 50
270.00002
 51
0
  0
ARC
  8
0
  6
CONTINUOUS
 62
     7
 10
159
 20
323.69992
 40
1
 50
0
 51
89.999982
  0
ARC
  8
0
  6
CONTINUOUS
 62
     7
 10
113.99988
 20
312.99997
 40
1.9999995
 50
89.999982
 51
179.99996
  0
ARC
  8
0
  6
CONTINUOUS
 62
     7
 10
113.99988
 20
287
 40
1.9999995
 50
179.99996
 51
270
  0
ARC
  8
0
  6
CONTINUOUS
 62
     7
 10
144
 20
287
 40
1.9999995
 50
270.00002
 51
0
  0
ARC
  8
0
  6
CONTINUOUS
 62
     7
 10
144
 20
312.99997
 40
1.9999995
 50
0
 51
89.999982
  0
ARC
  8
0
  6
CONTINUOUS
 62
     7
 10
113.99988
 20
303
 40
1.9999995
 50
89.999982
 51
179.99996
  0
ARC
  8
0
  6
CONTINUOUS
 62
     7
 10
113.99988
 20
297
 40
1.9999995
 50
179.99996
 51
270
  0
ARC
  8
0
  6
DASHED
 62
     7
 10
112.99976
 20
315.99997
 40
1
 50
179.99996
 51
270
  0
ARC
  8
0
  6
DASHED
 62
     7
 10
112.99976
 20
284
 40
1
 50
89.999982
 51
179.99996
  0
CIRCLE
  8
0
  6
CONTINUOUS
 62
     7
 10
0
 20
0
 40
2.5000005
  0
ARC
  8
0
  6
CONTINUOUS
 62
     7
 10
222.15002
 20
-13.149902
 40
3
 50
288.19488
 51
341.80513
  0
ARC
  8
0
  6
CONTINUOUS
 62
     7
 10
177.85001
 20
-13.149902
 40
3
 50
198.19489
 51
251.80516
  0
ARC
  8
0
  6
CONTINUOUS
 62
     7
 10
-22.150269
 20
-13.149963
 40
3
 50
198.19489
 51
251.80516
  0
ARC
  8
0
  6
CONTINUOUS
 62
     7
 10
22.149902
 20
-13.149963
 40
3
 50
288.19488
 51
341.80513
  0
CIRCLE
  8
0
  6
CONTINUOUS
 62
     7
 10
200
 20
0
 40
5.5000005
  0
CIRCLE
  8
0
  6
CONTINUOUS
 62
     7
 10
200
 20
0
 40
2.5000005
  0
ARC
  8
0
  6
CONTINUOUS
 62
     7
 10
200
 20
0
 40
4.5
 50
312.69317
 51
227.3068
  0
ARC
  8
0
  6
CONTINUOUS
 62
     7
 10
200
 20
0
 40
3.3999996
 50
125.55341
 51
174.44653
  0
ARC
  8
0
  6
CONTINUOUS
 62
     7
 10
197.1521
 20
-3.0869141
 40
0.29999998
 50
227.30686
 51
330
  0
ARC
  8
0
  6
CONTINUOUS
 62
     7
 10
198.19748
 20
2.5220947
 40
0.29999998
 50
30.000004
 51
125.55341
  0
ARC
  8
0
  6
CONTINUOUS
 62
     7
 10
196.91455
 20
0.30004883
 40
0.29999998
 50
174.44653
 51
270
  0
ARC
  8
0
  6
CONTINUOUS
 62
     7
 10
202.84787
 20
-3.0869141
 40
0.29999998
 50
210.00003
 51
312.69317
  0
ARC
  8
0
  6
CONTINUOUS
 62
     7
 10
203.08545
 20
0.30004883
 40
0.29999998
 50
270.00002
 51
5.553445
  0
ARC
  8
0
  6
CONTINUOUS
 62
     7
 10
200
 20
0
 40
3.3999996
 50
5.553445
 51
54.446563
  0
ARC
  8
0
  6
CONTINUOUS
 62
     7
 10
201.80252
 20
2.5220947
 40
0.29999998
 50
54.446563
 51
149.99998
  0
CIRCLE
  8
0
  6
CONTINUOUS
 62
     7
 10
200
 20
0
 40
2.1999993
  0
CIRCLE
  8
0
  6
CONTINUOUS
 62
     7
 10
178.5
 20
-9
 40
2.7499995
  0
CIRCLE
  8
0
  6
CONTINUOUS
 62
     7
 10
0
 20
0
 40
2.1999993
  0
ARC
  8
0
  6
DASHED
 62
     7
 10
148.99988
 20
315.99997
 40
1
 50
270.00002
 51
0
  0
ARC
  8
0
  6
DASHED
 62
     7
 10
148.99988
 20
284
 40
1
 50
0
 51
89.999982
  0
ARC
  8
0
  6
CONTINUOUS
 62
     7
 10
204.49988
 20
207.80002
 40
0.50000006
 50
89.999982
 51
179.99996
  0
ARC
  8
0
  6
CONTINUOUS
 62
     7
 10
263.49963
 20
207.80002
 40
0.50000006
 50
0
 51
89.999982
  0
ARC
  8
0
  6
CONTINUOUS
 62
     7
 10
318.99976
 20
283
 40
1
 50
270.00002
 51
0
  0
ARC
  8
0
  6
CONTINUOUS
 62
     7
 10
314.99963
 20
275.80005
 40
0.50000006
 50
270.00002
 51
0
  0
ARC
  8
0
  6
CONTINUOUS
 62
     7
 10
315.99976
 20
281.5
 40
0.50000006
 50
89.999982
 51
179.99996
  0
ARC
  8
0
  6
CONTINUOUS
 62
     7
 10
314.99963
 20
324.1998
 40
0.50000006
 50
0
 51
89.999982
  0
ARC
  8
0
  6
CONTINUOUS
 62
     7
 10
315.99976
 20
318.50009
 40
0.50000006
 50
180.00004
 51
270.00002
  0
ARC
  8
0
  6
CONTINUOUS
 62
     7
 10
318.99976
 20
317.00009
 40
1
 50
0
 51
89.999982
  0
CIRCLE
  8
0
  6
CONTINUOUS
 62
     7
 10
218.99988
 20
287.5
 40
1.6000056
  0
CIRCLE
  8
0
  6
CONTINUOUS
 62
     7
 10
218.99988
 20
287.5
 40
1.9999995
  0
ARC
  8
0
  6
CONTINUOUS
 62
     7
 10
84.649902
 20
91.999985
 40
1.9999995
 50
179.99996
 51
270
  0
ARC
  8
0
  6
CONTINUOUS
 62
     7
 10
78.299805
 20
102.15018
 40
3
 50
108.19484
 51
179.99996
  0
ARC
  8
0
  6
CONTINUOUS
 62
     7
 10
121.69995
 20
102.15018
 40
3
 50
0
 51
71.805123
  0
ARC
  8
0
  6
CONTINUOUS
 62
     7
 10
77.849854
 20
86.849983
 40
3
 50
198.19489
 51
251.80516
  0
ARC
  8
0
  6
CONTINUOUS
 62
     7
 10
122.1499
 20
86.849983
 40
3
 50
288.19488
 51
341.80513
  0
ARC
  8
0
  6
CONTINUOUS
 62
     7
 10
115.34985
 20
91.999985
 40
1.9999995
 50
270.00002
 51
8.6514214E-006
  0
ARC
  8
0
  6
CONTINUOUS
 62
     7
 10
85.299805
 20
107.8
 40
0.50000006
 50
89.999982
 51
179.99996
  0
ARC
  8
0
  6
CONTINUOUS
 62
     7
 10
114.69995
 20
107.8
 40
0.50000006
 50
359.99999
 51
89.999982
  0
CIRCLE
  8
0
  6
CONTINUOUS
 62
     7
 10
92
 20
106
 40
1.7500001
  0
CIRCLE
  8
0
  6
CONTINUOUS
 62
     7
 10
100
 20
100
 40
4.5
  0
ARC
  8
0
  6
CONTINUOUS
 62
     7
 10
85.299805
 20
105.80037
 40
0.50000006
 50
270.00002
 51
0
  0
ARC
  8
0
  6
CONTINUOUS
 62
     7
 10
86.299805
 20
107.5
 40
0.50000006
 50
89.999982
 51
179.99996
  0
ARC
  8
0
  6
CONTINUOUS
 62
     7
 10
83.149902
 20
92.699997
 40
0.50000006
 50
179.99996
 51
270
  0
ARC
  8
0
  6
CONTINUOUS
 62
     7
 10
116.84985
 20
92.699997
 40
0.50000006
 50
270.00002
 51
0
  0
ARC
  8
0
  6
CONTINUOUS
 62
     7
 10
114.69995
 20
105.80037
 40
0.50000006
 50
180.00004
 51
270.00002
  0
ARC
  8
0
  6
CONTINUOUS
 62
     7
 10
113.69995
 20
107.5
 40
0.50000006
 50
0
 51
89.999982
  0
CIRCLE
  8
0
  6
CONTINUOUS
 62
     7
 10
87.499512
 20
97.999985
 40
2.25
  0
CIRCLE
  8
0
  6
CONTINUOUS
 62
     7
 10
112.50024
 20
97.999985
 40
2.25
  0
CIRCLE
  8
0
  6
CONTINUOUS
 62
     7
 10
87.499512
 20
97.999985
 40
1.9999995
  0
CIRCLE
  8
0
  6
CONTINUOUS
 62
     7
 10
112.50024
 20
97.999985
 40
1.9999995
  0
CIRCLE
  8
0
  6
CONTINUOUS
 62
     7
 10
233.99988
 20
288
 40
1.1999998
  0
CIRCLE
  8
0
  6
CONTINUOUS
 62
     7
 10
233.99988
 20
288
 40
1.5
  0
CIRCLE
  8
0
  6
CONTINUOUS
 62
     7
 10
233.99988
 20
288
 40
2.7000003
  0
ARC
  8
0
  6
CONTINUOUS
 62
     7
 10
88
 20
91.199997
 40
0.50000006
 50
36.869897
 51
143.13006
  0
ARC
  8
0
  6
CONTINUOUS
 62
     7
 10
74.999756
 20
91.849976
 40
0.50000006
 50
306.8699
 51
53.130102
  0
ARC
  8
0
  6
CONTINUOUS
 62
     7
 10
81.649902
 20
104.15018
 40
1
 50
0
 51
58.211462
  0
ARC
  8
0
  6
CONTINUOUS
 62
     7
 10
118.34985
 20
104.15018
 40
1
 50
121.7885
 51
179.99996
  0
ARC
  8
0
  6
CONTINUOUS
 62
     7
 10
81.449951
 20
94.679985
 40
0.29999998
 50
179.99996
 51
270
  0
ARC
  8
0
  6
CONTINUOUS
 62
     7
 10
81.649902
 20
93.065773
 40
1
 50
0
 51
4.5919908
  0
ARC
  8
0
  6
CONTINUOUS
 62
     7
 10
116.94263
 20
94.557327
 40
1.4699993
 50
286.21811
 51
342.39003
  0
ARC
  8
0
  6
CONTINUOUS
 62
     7
 10
118.82031
 20
102.03863
 40
0.50000006
 50
197.61001
 51
225
  0
ARC
  8
0
  6
CONTINUOUS
 62
     7
 10
116.94263
 20
101.44264
 40
1.4699993
 50
17.609969
 51
73.781889
  0
ARC
  8
0
  6
CONTINUOUS
 62
     7
 10
118.82031
 20
93.961342
 40
0.50000006
 50
135
 51
162.38999
  0
ARC
  8
0
  6
CONTINUOUS
 62
     7
 10
83.057129
 20
94.557327
 40
1.4699993
 50
197.61001
 51
253.78193
  0
ARC
  8
0
  6
CONTINUOUS
 62
     7
 10
81.179443
 20
93.961342
 40
0.50000006
 50
17.609973
 51
45.000001
  0
ARC
  8
0
  6
CONTINUOUS
 62
     7
 10
83.057129
 20
101.44264
 40
1.4699993
 50
106.21807
 51
162.38999
  0
ARC
  8
0
  6
CONTINUOUS
 62
     7
 10
81.179443
 20
102.03863
 40
0.50000006
 50
315
 51
342.39003
  0
ARC
  8
0
  6
CONTINUOUS
 62
     7
 10
81.649902
 20
102.9342
 40
1
 50
355.40756
 51
0
  0
ARC
  8
0
  6
CONTINUOUS
 62
     7
 10
118.34985
 20
102.9342
 40
1
 50
180.00004
 51
184.59249
  0
ARC
  8
0
  6
CONTINUOUS
 62
     7
 10
118.5498
 20
94.679985
 40
0.29999998
 50
270.00002
 51
0
  0
ARC
  8
0
  6
CONTINUOUS
 62
     7
 10
118.5498
 20
101.32001
 40
0.29999998
 50
0
 51
89.999982
  0
ARC
  8
0
  6
CONTINUOUS
 62
     7
 10
81.449951
 20
101.32001
 40
0.29999998
 50
89.999982
 51
179.99996
  0
ARC
  8
0
  6
CONTINUOUS
 62
     7
 10
118.34985
 20
93.065773
 40
1
 50
175.408
 51
179.99996
  0
ARC
  8
0
  6
CONTINUOUS
 62
     7
 10
200.14978
 20
206
 40
1.7500005
 50
89.999982
 51
214.84196
  0
ARC
  8
0
  6
CONTINUOUS
 62
     7
 10
200.14978
 20
308.00009
 40
1.7500005
 50
89.999982
 51
270
  0
CIRCLE
  8
0
  6
CONTINUOUS
 62
     7
 10
-11.66748
 20
-11.667236
 40
1.5
  0
CIRCLE
  8
0
  6
CONTINUOUS
 62
     7
 10
-11.66748
 20
-11.667236
 40
1.2294998
  0
ARC
  8
0
  6
CONTINUOUS
 62
     7
 10
244.09973
 20
297
 40
5
 50
179.99999
 51
270
  0
ARC
  8
0
  6
CONTINUOUS
 62
     7
 10
310.49963
 20
275.80005
 40
0.50000006
 50
180.00004
 51
270.00002
  0
ARC
  8
0
  6
CONTINUOUS
 62
     7
 10
310.49963
 20
324.1998
 40
0.50000006
 50
89.999982
 51
179.99996
  0
ARC
  8
0
  6
CONTINUOUS
 62
     7
 10
148.99988
 20
211.5
 40
1
 50
0
 51
89.999982
  0
ARC
  8
0
  6
CONTINUOUS
 62
     7
 10
151.00012
 20
185.50002
 40
1
 50
180.00002
 51
270
  0
CIRCLE
  8
0
  6
CONTINUOUS
 62
     7
 10
156.50012
 20
196.00002
 40
1.0565004
  0
CIRCLE
  8
0
  6
CONTINUOUS
 62
     7
 10
156.50012
 20
196.00002
 40
1.3000002
  0
CIRCLE
  8
0
  6
CONTINUOUS
 62
     7
 10
275
 20
287.5
 40
2.25
  0
CIRCLE
  8
0
  6
CONTINUOUS
 62
     7
 10
275
 20
287.5
 40
4.0000005
  0
ARC
  8
0
  6
CONTINUOUS
 62
     7
 10
177.29999
 20
20.5
 40
2
 50
90.000009
 51
180.00001
  0
ARC
  8
0
  6
CONTINUOUS
 62
     7
 10
222.70001
 20
20.5
 40
2
 50
2.5044783E-006
 51
90.000003
  0
ARC
  8
0
  6
CONTINUOUS
 62
     7
 10
177.29999
 20
18
 40
2
 50
107.1145
 51
162.8855
  0
ARC
  8
0
  6
CONTINUOUS
 62
     7
 10
222.70001
 20
18
 40
2
 50
17.119003
 51
72.880994
  0
CIRCLE
  8
0
  6
CONTINUOUS
 62
     7
 10
92
 20
106
 40
2.25
  0
ARC
  8
0
  6
CENTER
 62
     7
 10
0
 20
0
 40
16.5
 50
125.36956
 51
144.62977
  0
ARC
  8
0
  6
CENTER
 62
     7
 10
0
 20
0
 40
16.5
 50
215.37023
 51
234.63044
  0
ARC
  8
0
  6
CENTER
 62
     7
 10
0
 20
0
 40
16.5
 50
305.36955
 51
324.62977
  0
CIRCLE
  8
0
  6
CONTINUOUS
 62
     7
 10
243.69983
 20
304.5
 40
1.5
  0
CIRCLE
  8
0
  6
CONTINUOUS
 62
     7
 10
254.69983
 20
295.5
 40
1.5
  0
ARC
  8
0
  6
CONTINUOUS
 62
     7
 10
318.34985
 20
93.065773
 40
1
 50
175.408
 51
179.99996
  0
ARC
  8
0
  6
CONTINUOUS
 62
     7
 10
318.5498
 20
101.32001
 40
0.29999998
 50
0
 51
89.999982
  0
ARC
  8
0
  6
CONTINUOUS
 62
     7
 10
318.5498
 20
94.679985
 40
0.29999998
 50
270.00002
 51
0
  0
ARC
  8
0
  6
CONTINUOUS
 62
     7
 10
318.34985
 20
102.9342
 40
1
 50
180.00004
 51
184.59249
  0
ARC
  8
0
  6
CONTINUOUS
 62
     7
 10
318.82031
 20
93.961342
 40
0.50000006
 50
135
 51
162.38999
  0
ARC
  8
0
  6
CONTINUOUS
 62
     7
 10
316.94263
 20
101.44264
 40
1.4699993
 50
17.609969
 51
73.781889
  0
ARC
  8
0
  6
CONTINUOUS
 62
     7
 10
318.82031
 20
102.03863
 40
0.50000006
 50
197.61001
 51
225
  0
ARC
  8
0
  6
CONTINUOUS
 62
     7
 10
316.94263
 20
94.557327
 40
1.4699993
 50
286.21811
 51
342.39003
  0
ARC
  8
0
  6
CONTINUOUS
 62
     7
 10
318.34985
 20
104.15018
 40
1
 50
121.7885
 51
179.99996
  0
CIRCLE
  8
0
  6
CONTINUOUS
 62
     7
 10
312.50024
 20
97.999985
 40
1.9999995
  0
CIRCLE
  8
0
  6
CONTINUOUS
 62
     7
 10
312.50024
 20
97.999985
 40
2.25
  0
ARC
  8
0
  6
CONTINUOUS
 62
     7
 10
313.69995
 20
107.5
 40
0.50000006
 50
0
 51
89.999982
  0
ARC
  8
0
  6
CONTINUOUS
 62
     7
 10
314.69995
 20
105.80037
 40
0.50000006
 50
180.00004
 51
270.00002
  0
ARC
  8
0
  6
CONTINUOUS
 62
     7
 10
316.84985
 20
92.699997
 40
0.50000006
 50
270.00002
 51
0
  0
ARC
  8
0
  6
CONTINUOUS
 62
     7
 10
300
 20
100
 40
4.5
 50
270
 51
90.000003
  0
ARC
  8
0
  6
CONTINUOUS
 62
     7
 10
314.69995
 20
107.8
 40
0.50000006
 50
359.99999
 51
89.999982
  0
ARC
  8
0
  6
CONTINUOUS
 62
     7
 10
315.34985
 20
91.999985
 40
1.9999995
 50
270.00002
 51
8.6514214E-006
  0
ARC
  8
0
  6
CONTINUOUS
 62
     7
 10
322.1499
 20
86.849983
 40
3
 50
288.19488
 51
341.80513
  0
ARC
  8
0
  6
CONTINUOUS
 62
     7
 10
321.69995
 20
102.15018
 40
3
 50
0
 51
71.805123
  0
ARC
  8
0
  6
PHANTOM
 62
     7
 10
329.40002
 20
99.699989
 40
0.30000001
 50
360
 51
90.000003
  0
ARC
  8
0
  6
PHANTOM
 62
     7
 10
326.79993
 20
98.599998
 40
0.30000001
 50
90.000003
 51
180.00001
  0
ARC
  8
0
  6
PHANTOM
 62
     7
 10
329.19995
 20
93.549995
 40
0.30000001
 50
90.000003
 51
180.00001
  0
ARC
  8
0
  6
PHANTOM
 62
     7
 10
328.59998
 20
93.400002
 40
0.30000001
 50
269.99999
 51
6.8324622E-007
  0
ARC
  8
0
  6
PHANTOM
 62
     7
 10
326.19995
 20
93.549995
 40
0.30000001
 50
360
 51
90.000003
  0
ARC
  8
0
  6
PHANTOM
 62
     7
 10
329.40002
 20
93.549995
 40
0.30000001
 50
360
 51
90.000003
  0
ARC
  8
0
  6
PHANTOM
 62
     7
 10
329.19995
 20
98.449989
 40
0.30000001
 50
179.99999
 51
270
  0
ARC
  8
0
  6
PHANTOM
 62
     7
 10
326.79993
 20
93.400002
 40
0.30000001
 50
179.99999
 51
270
  0
ARC
  8
0
  6
PHANTOM
 62
     7
 10
325.79993
 20
94.150002
 40
0.30000001
 50
179.99999
 51
270
  0
ARC
  8
0
  6
PHANTOM
 62
     7
 10
329.40002
 20
98.449989
 40
0.30000001
 50
269.99999
 51
6.8324622E-007
  0
ARC
  8
0
  6
PHANTOM
 62
     7
 10
325.79993
 20
97.849998
 40
0.30000001
 50
90.000003
 51
180.00001
  0
ARC
  8
0
  6
PHANTOM
 62
     7
 10
328.59998
 20
98.599998
 40
0.30000001
 50
360
 51
90.000003
  0
ARC
  8
0
  6
PHANTOM
 62
     7
 10
326.19995
 20
98.449989
 40
0.30000001
 50
269.99999
 51
6.8324622E-007
  0
ARC
  8
0
  6
PHANTOM
 62
     7
 10
325
 20
99.699989
 40
0.30000001
 50
90.000003
 51
180.00001
  0
ARC
  8
0
  6
CONTINUOUS
 62
     7
 10
325
 20
92.299995
 40
0.30000001
 50
179.99999
 51
270
  0
ARC
  8
0
  6
PHANTOM
 62
     7
 10
329.40002
 20
92.299995
 40
0.30000001
 50
269.99999
 51
6.8324622E-007
  0
ARC
  8
0
  6
CONTINUOUS
 62
     7
 10
418.34985
 20
93.065773
 40
1
 50
175.408
 51
179.99996
  0
ARC
  8
0
  6
CONTINUOUS
 62
     7
 10
418.5498
 20
101.32001
 40
0.29999998
 50
0
 51
89.999982
  0
ARC
  8
0
  6
CONTINUOUS
 62
     7
 10
418.5498
 20
94.679985
 40
0.29999998
 50
270.00002
 51
0
  0
ARC
  8
0
  6
CONTINUOUS
 62
     7
 10
418.34985
 20
102.9342
 40
1
 50
180.00004
 51
184.59249
  0
ARC
  8
0
  6
CONTINUOUS
 62
     7
 10
418.82031
 20
93.961342
 40
0.50000006
 50
135
 51
162.38999
  0
ARC
  8
0
  6
CONTINUOUS
 62
     7
 10
416.94263
 20
101.44264
 40
1.4699993
 50
17.609969
 51
73.781889
  0
ARC
  8
0
  6
CONTINUOUS
 62
     7
 10
418.82031
 20
102.03863
 40
0.50000006
 50
197.61001
 51
225
  0
ARC
  8
0
  6
CONTINUOUS
 62
     7
 10
416.94263
 20
94.557327
 40
1.4699993
 50
286.21811
 51
342.39003
  0
ARC
  8
0
  6
CONTINUOUS
 62
     7
 10
418.34985
 20
104.15018
 40
1
 50
121.7885
 51
179.99996
  0
CIRCLE
  8
0
  6
CONTINUOUS
 62
     7
 10
412.50024
 20
97.999985
 40
1.9999995
  0
CIRCLE
  8
0
  6
CONTINUOUS
 62
     7
 10
412.50024
 20
97.999985
 40
2.25
  0
ARC
  8
0
  6
CONTINUOUS
 62
     7
 10
413.69995
 20
107.5
 40
0.50000006
 50
0
 51
89.999982
  0
ARC
  8
0
  6
CONTINUOUS
 62
     7
 10
414.69995
 20
105.80037
 40
0.50000006
 50
180.00004
 51
270.00002
  0
ARC
  8
0
  6
CONTINUOUS
 62
     7
 10
416.84985
 20
92.699997
 40
0.50000006
 50
270.00002
 51
0
  0
ARC
  8
0
  6
CONTINUOUS
 62
     7
 10
400
 20
100
 40
4.5
 50
270
 51
90.000003
  0
ARC
  8
0
  6
CONTINUOUS
 62
     7
 10
414.69995
 20
107.8
 40
0.50000006
 50
359.99999
 51
89.999982
  0
ARC
  8
0
  6
CONTINUOUS
 62
     7
 10
415.34985
 20
91.999985
 40
1.9999995
 50
270.00002
 51
8.6514214E-006
  0
ARC
  8
0
  6
CONTINUOUS
 62
     7
 10
422.1499
 20
86.849983
 40
3
 50
288.19488
 51
341.80513
  0
ARC
  8
0
  6
CONTINUOUS
 62
     7
 10
421.69995
 20
102.15018
 40
3
 50
0
 51
71.805123
  0
ARC
  8
0
  6
PHANTOM
 62
     7
 10
429.40002
 20
99.699989
 40
0.30000001
 50
360
 51
90.000003
  0
ARC
  8
0
  6
PHANTOM
 62
     7
 10
426.79993
 20
98.599998
 40
0.30000001
 50
90.000003
 51
180.00001
  0
ARC
  8
0
  6
PHANTOM
 62
     7
 10
429.19995
 20
93.549995
 40
0.30000001
 50
90.000003
 51
180.00001
  0
ARC
  8
0
  6
PHANTOM
 62
     7
 10
428.59998
 20
93.400002
 40
0.30000001
 50
269.99999
 51
6.8324622E-007
  0
ARC
  8
0
  6
PHANTOM
 62
     7
 10
426.19995
 20
93.549995
 40
0.30000001
 50
360
 51
90.000003
  0
ARC
  8
0
  6
PHANTOM
 62
     7
 10
429.40002
 20
93.549995
 40
0.30000001
 50
360
 51
90.000003
  0
ARC
  8
0
  6
PHANTOM
 62
     7
 10
429.19995
 20
98.449989
 40
0.30000001
 50
179.99999
 51
270
  0
ARC
  8
0
  6
PHANTOM
 62
     7
 10
426.79993
 20
93.400002
 40
0.30000001
 50
179.99999
 51
270
  0
ARC
  8
0
  6
PHANTOM
 62
     7
 10
425.79993
 20
94.150002
 40
0.30000001
 50
179.99999
 51
270
  0
ARC
  8
0
  6
PHANTOM
 62
     7
 10
429.40002
 20
98.449989
 40
0.30000001
 50
269.99999
 51
6.8324622E-007
  0
ARC
  8
0
  6
PHANTOM
 62
     7
 10
425.79993
 20
97.849998
 40
0.30000001
 50
90.000003
 51
180.00001
  0
ARC
  8
0
  6
PHANTOM
 62
     7
 10
428.59998
 20
98.599998
 40
0.30000001
 50
360
 51
90.000003
  0
ARC
  8
0
  6
PHANTOM
 62
     7
 10
426.19995
 20
98.449989
 40
0.30000001
 50
269.99999
 51
6.8324622E-007
  0
ARC
  8
0
  6
PHANTOM
 62
     7
 10
425
 20
99.699989
 40
0.30000001
 50
90.000003
 51
180.00001
  0
ARC
  8
0
  6
CONTINUOUS
 62
     7
 10
425
 20
92.299995
 40
0.30000001
 50
179.99999
 51
270
  0
ARC
  8
0
  6
PHANTOM
 62
     7
 10
429.40002
 20
92.299995
 40
0.30000001
 50
269.99999
 51
6.8324622E-007
  0
ARC
  8
0
  6
PHANTOM
 62
     7
 10
337.69995
 20
109.09998
 40
0.80000001
 50
0
 51
90.000003
  0
ARC
  8
0
  6
PHANTOM
 62
     7
 10
436.69995
 20
109.09998
 40
0.80000001
 50
0
 51
90.000003
  0
CIRCLE
  8
0
  6
CONTINUOUS
 62
     7
 10
92
 20
6
 40
2.25
  0
ARC
  8
0
  6
CONTINUOUS
 62
     7
 10
118.34985
 20
-6.934227
 40
1
 50
175.408
 51
179.99996
  0
ARC
  8
0
  6
CONTINUOUS
 62
     7
 10
81.449951
 20
1.3200073
 40
0.29999998
 50
89.999982
 51
179.99996
  0
ARC
  8
0
  6
CONTINUOUS
 62
     7
 10
118.5498
 20
1.3200073
 40
0.29999998
 50
0
 51
89.999982
  0
ARC
  8
0
  6
CONTINUOUS
 62
     7
 10
118.5498
 20
-5.320015
 40
0.29999998
 50
270.00002
 51
0
  0
ARC
  8
0
  6
CONTINUOUS
 62
     7
 10
118.34985
 20
2.9341965
 40
1
 50
180.00004
 51
184.59249
  0
ARC
  8
0
  6
CONTINUOUS
 62
     7
 10
81.649902
 20
2.9341965
 40
1
 50
355.40756
 51
360
  0
ARC
  8
0
  6
CONTINUOUS
 62
     7
 10
81.179443
 20
2.0386276
 40
0.50000006
 50
315
 51
342.39003
  0
ARC
  8
0
  6
CONTINUOUS
 62
     7
 10
83.057129
 20
1.4426422
 40
1.4699993
 50
106.21807
 51
162.38999
  0
ARC
  8
0
  6
CONTINUOUS
 62
     7
 10
81.179443
 20
-6.0386581
 40
0.50000006
 50
17.609973
 51
45.000001
  0
ARC
  8
0
  6
CONTINUOUS
 62
     7
 10
83.057129
 20
-5.4426727
 40
1.4699993
 50
197.61001
 51
253.78193
  0
ARC
  8
0
  6
CONTINUOUS
 62
     7
 10
118.82031
 20
-6.0386581
 40
0.50000006
 50
135
 51
162.38999
  0
ARC
  8
0
  6
CONTINUOUS
 62
     7
 10
116.94263
 20
1.4426422
 40
1.4699993
 50
17.609969
 51
73.781889
  0
ARC
  8
0
  6
CONTINUOUS
 62
     7
 10
118.82031
 20
2.0386276
 40
0.50000006
 50
197.61001
 51
225
  0
ARC
  8
0
  6
CONTINUOUS
 62
     7
 10
116.94263
 20
-5.4426727
 40
1.4699993
 50
286.21811
 51
342.39003
  0
ARC
  8
0
  6
CONTINUOUS
 62
     7
 10
81.649902
 20
-6.934227
 40
1
 50
0
 51
4.5919908
  0
ARC
  8
0
  6
CONTINUOUS
 62
     7
 10
81.449951
 20
-5.320015
 40
0.29999998
 50
179.99996
 51
270
  0
ARC
  8
0
  6
CONTINUOUS
 62
     7
 10
118.34985
 20
4.150177
 40
1
 50
121.7885
 51
179.99996
  0
ARC
  8
0
  6
CONTINUOUS
 62
     7
 10
81.649902
 20
4.150177
 40
1
 50
0
 51
58.211462
  0
ARC
  8
0
  6
CONTINUOUS
 62
     7
 10
74.999756
 20
-8.1500244
 40
0.50000006
 50
306.8699
 51
53.130102
  0
ARC
  8
0
  6
CONTINUOUS
 62
     7
 10
88
 20
-8.8000031
 40
0.50000006
 50
36.869897
 51
143.13006
  0
CIRCLE
  8
0
  6
CONTINUOUS
 62
     7
 10
112.50024
 20
-2.0000153
 40
1.9999995
  0
CIRCLE
  8
0
  6
CONTINUOUS
 62
     7
 10
87.499512
 20
-2.0000153
 40
1.9999995
  0
CIRCLE
  8
0
  6
CONTINUOUS
 62
     7
 10
112.50024
 20
-2.0000153
 40
2.25
  0
CIRCLE
  8
0
  6
CONTINUOUS
 62
     7
 10
87.499512
 20
-2.0000153
 40
2.25
  0
ARC
  8
0
  6
CONTINUOUS
 62
     7
 10
113.69995
 20
7.5
 40
0.50000006
 50
0
 51
89.999982
  0
ARC
  8
0
  6
CONTINUOUS
 62
     7
 10
114.69995
 20
5.8003693
 40
0.50000006
 50
180.00004
 51
270.00002
  0
ARC
  8
0
  6
CONTINUOUS
 62
     7
 10
116.84985
 20
-7.3000031
 40
0.50000006
 50
270.00002
 51
0
  0
ARC
  8
0
  6
CONTINUOUS
 62
     7
 10
83.149902
 20
-7.3000031
 40
0.50000006
 50
179.99996
 51
270
  0
ARC
  8
0
  6
CONTINUOUS
 62
     7
 10
86.299805
 20
7.5
 40
0.50000006
 50
89.999982
 51
179.99996
  0
ARC
  8
0
  6
CONTINUOUS
 62
     7
 10
85.299805
 20
5.8003693
 40
0.50000006
 50
270.00002
 51
0
  0
CIRCLE
  8
0
  6
CONTINUOUS
 62
     7
 10
100
 20
0
 40
4.5
  0
CIRCLE
  8
0
  6
CONTINUOUS
 62
     7
 10
92
 20
6
 40
1.7500001
  0
ARC
  8
0
  6
CONTINUOUS
 62
     7
 10
114.69995
 20
7.7999954
 40
0.50000006
 50
359.99999
 51
89.999982
  0
ARC
  8
0
  6
CONTINUOUS
 62
     7
 10
85.299805
 20
7.7999954
 40
0.50000006
 50
89.999982
 51
179.99996
  0
ARC
  8
0
  6
CONTINUOUS
 62
     7
 10
115.34985
 20
-8.0000153
 40
1.9999995
 50
270.00002
 51
8.6514214E-006
  0
ARC
  8
0
  6
CONTINUOUS
 62
     7
 10
122.1499
 20
-13.150017
 40
3
 50
288.19488
 51
341.80513
  0
ARC
  8
0
  6
CONTINUOUS
 62
     7
 10
77.849854
 20
-13.150017
 40
3
 50
198.19489
 51
251.80516
  0
ARC
  8
0
  6
CONTINUOUS
 62
     7
 10
121.69995
 20
2.1501846
 40
3
 50
0
 51
71.805123
  0
ARC
  8
0
  6
CONTINUOUS
 62
     7
 10
78.299805
 20
2.1501846
 40
3
 50
108.19484
 51
179.99996
  0
ARC
  8
0
  6
CONTINUOUS
 62
     7
 10
84.649902
 20
-8.0000153
 40
1.9999995
 50
179.99996
 51
270
  0
ARC
  8
0
  6
CONTINUOUS
 62
     4
 10
122
 20
20.499985
 40
0.50000006
 50
270.00002
 51
0
  0
ARC
  8
0
  6
CONTINUOUS
 62
     4
 10
78
 20
20.499985
 40
0.50000006
 50
180.00004
 51
270.00002
  0
ARC
  8
0
  6
CONTINUOUS
 62
     4
 10
78.5
 20
21.499969
 40
1
 50
89.999982
 51
179.99996
  0
ARC
  8
0
  6
CONTINUOUS
 62
     4
 10
121.5
 20
21.499969
 40
1
 50
0
 51
89.999982
  0
ARC
  8
0
  6
CONTINUOUS
 62
     7
 10
85
 20
9.4999847
 40
0.5
 50
90.000003
 51
180.00001
  0
ARC
  8
0
  6
CONTINUOUS
 62
     7
 10
115
 20
9.4999847
 40
0.5
 50
0
 51
90.000003
  0
ARC
  8
0
  6
CONTINUOUS
 62
     7
 10
318.34985
 20
-6.934227
 40
1
 50
175.408
 51
179.99996
  0
ARC
  8
0
  6
CONTINUOUS
 62
     7
 10
318.5498
 20
1.3200073
 40
0.29999998
 50
0
 51
89.999982
  0
ARC
  8
0
  6
CONTINUOUS
 62
     7
 10
318.5498
 20
-5.320015
 40
0.29999998
 50
270.00002
 51
0
  0
ARC
  8
0
  6
CONTINUOUS
 62
     7
 10
318.34985
 20
2.9341965
 40
1
 50
180.00004
 51
184.59249
  0
ARC
  8
0
  6
CONTINUOUS
 62
     7
 10
318.82031
 20
-6.0386581
 40
0.50000006
 50
135
 51
162.38999
  0
ARC
  8
0
  6
CONTINUOUS
 62
     7
 10
316.94263
 20
1.4426422
 40
1.4699993
 50
17.609969
 51
73.781889
  0
ARC
  8
0
  6
CONTINUOUS
 62
     7
 10
318.82031
 20
2.0386276
 40
0.50000006
 50
197.61001
 51
225
  0
ARC
  8
0
  6
CONTINUOUS
 62
     7
 10
316.94263
 20
-5.4426727
 40
1.4699993
 50
286.21811
 51
342.39003
  0
ARC
  8
0
  6
CONTINUOUS
 62
     7
 10
318.34985
 20
4.150177
 40
1
 50
121.7885
 51
179.99996
  0
CIRCLE
  8
0
  6
CONTINUOUS
 62
     7
 10
312.50024
 20
-2.0000153
 40
1.9999995
  0
CIRCLE
  8
0
  6
CONTINUOUS
 62
     7
 10
312.50024
 20
-2.0000153
 40
2.25
  0
ARC
  8
0
  6
CONTINUOUS
 62
     7
 10
313.69995
 20
7.5
 40
0.50000006
 50
0
 51
89.999982
  0
ARC
  8
0
  6
CONTINUOUS
 62
     7
 10
314.69995
 20
5.8003693
 40
0.50000006
 50
180.00004
 51
270.00002
  0
ARC
  8
0
  6
CONTINUOUS
 62
     7
 10
316.84985
 20
-7.3000031
 40
0.50000006
 50
270.00002
 51
0
  0
ARC
  8
0
  6
CONTINUOUS
 62
     7
 10
300
 20
0
 40
4.5
 50
270
 51
90.000003
  0
ARC
  8
0
  6
CONTINUOUS
 62
     7
 10
314.69995
 20
7.7999954
 40
0.50000006
 50
359.99999
 51
89.999982
  0
ARC
  8
0
  6
CONTINUOUS
 62
     7
 10
315.34985
 20
-8.0000153
 40
1.9999995
 50
270.00002
 51
8.6514214E-006
  0
ARC
  8
0
  6
CONTINUOUS
 62
     7
 10
322.1499
 20
-13.150017
 40
3
 50
288.19488
 51
341.80513
  0
ARC
  8
0
  6
CONTINUOUS
 62
     7
 10
321.69995
 20
2.1501846
 40
3
 50
0
 51
71.805123
  0
ARC
  8
0
  6
CONTINUOUS
 62
     4
 10
321.5
 20
21.499969
 40
1
 50
0
 51
89.999982
  0
ARC
  8
0
  6
CONTINUOUS
 62
     4
 10
322
 20
20.499985
 40
0.50000006
 50
270.00002
 51
0
  0
ARC
  8
0
  6
CONTINUOUS
 62
     7
 10
315
 20
9.4999847
 40
0.5
 50
0
 51
90.000003
  0
ARC
  8
0
  6
PHANTOM
 62
     7
 10
329.40002
 20
-0.3000102
 40
0.30000001
 50
360
 51
90.000003
  0
ARC
  8
0
  6
PHANTOM
 62
     7
 10
326.79993
 20
-1.400001
 40
0.30000001
 50
90.000003
 51
180.00001
  0
ARC
  8
0
  6
PHANTOM
 62
     7
 10
329.19995
 20
-6.4500041
 40
0.30000001
 50
90.000003
 51
180.00001
  0
ARC
  8
0
  6
PHANTOM
 62
     7
 10
328.59998
 20
-6.599998
 40
0.30000001
 50
269.99999
 51
6.8324537E-007
  0
ARC
  8
0
  6
PHANTOM
 62
     7
 10
326.19995
 20
-6.4500041
 40
0.30000001
 50
360
 51
90.000003
  0
ARC
  8
0
  6
PHANTOM
 62
     7
 10
329.40002
 20
-6.4500041
 40
0.30000001
 50
360
 51
90.000003
  0
ARC
  8
0
  6
PHANTOM
 62
     7
 10
329.19995
 20
-1.5500102
 40
0.30000001
 50
179.99999
 51
270
  0
ARC
  8
0
  6
PHANTOM
 62
     7
 10
326.79993
 20
-6.599998
 40
0.30000001
 50
179.99999
 51
270
  0
ARC
  8
0
  6
PHANTOM
 62
     7
 10
325.79993
 20
-5.849998
 40
0.30000001
 50
179.99999
 51
270
  0
ARC
  8
0
  6
PHANTOM
 62
     7
 10
329.40002
 20
-1.5500102
 40
0.30000001
 50
269.99999
 51
6.8324533E-007
  0
ARC
  8
0
  6
PHANTOM
 62
     7
 10
325.79993
 20
-2.150001
 40
0.30000001
 50
90.000003
 51
180.00001
  0
ARC
  8
0
  6
PHANTOM
 62
     7
 10
328.59998
 20
-1.400001
 40
0.30000001
 50
360
 51
90.000003
  0
ARC
  8
0
  6
PHANTOM
 62
     7
 10
326.19995
 20
-1.5500102
 40
0.30000001
 50
269.99999
 51
6.8324533E-007
  0
ARC
  8
0
  6
PHANTOM
 62
     7
 10
325
 20
-0.3000102
 40
0.30000001
 50
90.000003
 51
180.00001
  0
ARC
  8
0
  6
CONTINUOUS
 62
     7
 10
325
 20
-7.7000041
 40
0.30000001
 50
179.99999
 51
270
  0
ARC
  8
0
  6
PHANTOM
 62
     7
 10
329.40002
 20
-7.7000041
 40
0.30000001
 50
269.99999
 51
6.8324537E-007
  0
ARC
  8
0
  6
PHANTOM
 62
     7
 10
429.40002
 20
-0.3000102
 40
0.30000001
 50
360
 51
90.000003
  0
ARC
  8
0
  6
PHANTOM
 62
     7
 10
426.79993
 20
-1.400001
 40
0.30000001
 50
90.000003
 51
180.00001
  0
ARC
  8
0
  6
PHANTOM
 62
     7
 10
429.19995
 20
-6.4500041
 40
0.30000001
 50
90.000003
 51
180.00001
  0
ARC
  8
0
  6
PHANTOM
 62
     7
 10
428.59998
 20
-6.599998
 40
0.30000001
 50
269.99999
 51
6.8324537E-007
  0
ARC
  8
0
  6
PHANTOM
 62
     7
 10
426.19995
 20
-6.4500041
 40
0.30000001
 50
360
 51
90.000003
  0
ARC
  8
0
  6
PHANTOM
 62
     7
 10
429.40002
 20
-6.4500041
 40
0.30000001
 50
360
 51
90.000003
  0
ARC
  8
0
  6
PHANTOM
 62
     7
 10
429.19995
 20
-1.5500102
 40
0.30000001
 50
179.99999
 51
270
  0
ARC
  8
0
  6
PHANTOM
 62
     7
 10
426.79993
 20
-6.599998
 40
0.30000001
 50
179.99999
 51
270
  0
ARC
  8
0
  6
PHANTOM
 62
     7
 10
425.79993
 20
-5.849998
 40
0.30000001
 50
179.99999
 51
270
  0
ARC
  8
0
  6
PHANTOM
 62
     7
 10
429.40002
 20
-1.5500102
 40
0.30000001
 50
269.99999
 51
6.8324533E-007
  0
ARC
  8
0
  6
PHANTOM
 62
     7
 10
425.79993
 20
-2.150001
 40
0.30000001
 50
90.000003
 51
180.00001
  0
ARC
  8
0
  6
PHANTOM
 62
     7
 10
428.59998
 20
-1.400001
 40
0.30000001
 50
360
 51
90.000003
  0
ARC
  8
0
  6
PHANTOM
 62
     7
 10
426.19995
 20
-1.5500102
 40
0.30000001
 50
269.99999
 51
6.8324533E-007
  0
ARC
  8
0
  6
PHANTOM
 62
     7
 10
425
 20
-0.3000102
 40
0.30000001
 50
90.000003
 51
180.00001
  0
ARC
  8
0
  6
CONTINUOUS
 62
     7
 10
425
 20
-7.7000041
 40
0.30000001
 50
179.99999
 51
270
  0
ARC
  8
0
  6
PHANTOM
 62
     7
 10
429.40002
 20
-7.7000041
 40
0.30000001
 50
269.99999
 51
6.8324537E-007
  0
ARC
  8
0
  6
CONTINUOUS
 62
     7
 10
418.34985
 20
-6.934227
 40
1
 50
175.408
 51
179.99996
  0
ARC
  8
0
  6
CONTINUOUS
 62
     7
 10
418.5498
 20
1.3200073
 40
0.29999998
 50
0
 51
89.999982
  0
ARC
  8
0
  6
CONTINUOUS
 62
     7
 10
418.5498
 20
-5.320015
 40
0.29999998
 50
270.00002
 51
0
  0
ARC
  8
0
  6
CONTINUOUS
 62
     7
 10
418.34985
 20
2.9341965
 40
1
 50
180.00004
 51
184.59249
  0
ARC
  8
0
  6
CONTINUOUS
 62
     7
 10
418.82031
 20
-6.0386581
 40
0.50000006
 50
135
 51
162.38999
  0
ARC
  8
0
  6
CONTINUOUS
 62
     7
 10
416.94263
 20
1.4426422
 40
1.4699993
 50
17.609969
 51
73.781889
  0
ARC
  8
0
  6
CONTINUOUS
 62
     7
 10
418.82031
 20
2.0386276
 40
0.50000006
 50
197.61001
 51
225
  0
ARC
  8
0
  6
CONTINUOUS
 62
     7
 10
416.94263
 20
-5.4426727
 40
1.4699993
 50
286.21811
 51
342.39003
  0
ARC
  8
0
  6
CONTINUOUS
 62
     7
 10
418.34985
 20
4.150177
 40
1
 50
121.7885
 51
179.99996
  0
CIRCLE
  8
0
  6
CONTINUOUS
 62
     7
 10
412.50024
 20
-2.0000153
 40
1.9999995
  0
CIRCLE
  8
0
  6
CONTINUOUS
 62
     7
 10
412.50024
 20
-2.0000153
 40
2.25
  0
ARC
  8
0
  6
CONTINUOUS
 62
     7
 10
413.69995
 20
7.5
 40
0.50000006
 50
0
 51
89.999982
  0
ARC
  8
0
  6
CONTINUOUS
 62
     7
 10
414.69995
 20
5.8003693
 40
0.50000006
 50
180.00004
 51
270.00002
  0
ARC
  8
0
  6
CONTINUOUS
 62
     7
 10
416.84985
 20
-7.3000031
 40
0.50000006
 50
270.00002
 51
0
  0
ARC
  8
0
  6
CONTINUOUS
 62
     7
 10
400
 20
0
 40
4.5
 50
270
 51
90.000003
  0
ARC
  8
0
  6
CONTINUOUS
 62
     7
 10
414.69995
 20
7.7999954
 40
0.50000006
 50
359.99999
 51
89.999982
  0
ARC
  8
0
  6
CONTINUOUS
 62
     7
 10
415.34985
 20
-8.0000153
 40
1.9999995
 50
270.00002
 51
8.6514214E-006
  0
ARC
  8
0
  6
CONTINUOUS
 62
     7
 10
422.1499
 20
-13.150017
 40
3
 50
288.19488
 51
341.80513
  0
ARC
  8
0
  6
CONTINUOUS
 62
     7
 10
421.69995
 20
2.1501846
 40
3
 50
0
 51
71.805123
  0
ARC
  8
0
  6
CONTINUOUS
 62
     4
 10
421.5
 20
21.499969
 40
1
 50
0
 51
89.999982
  0
ARC
  8
0
  6
CONTINUOUS
 62
     4
 10
422
 20
20.499985
 40
0.50000006
 50
270.00002
 51
0
  0
ARC
  8
0
  6
CONTINUOUS
 62
     7
 10
415
 20
9.4999847
 40
0.5
 50
0
 51
90.000003
  0
ARC
  8
0
  6
PHANTOM
 62
     7
 10
338.09998
 20
6.2999763
 40
0.80000001
 50
0
 51
90.000003
  0
ARC
  8
0
  6
PHANTOM
 62
     7
 10
331.79993
 20
7.0999765
 40
0.80000001
 50
179.99999
 51
270
  0
ARC
  8
0
  6
PHANTOM
 62
     7
 10
332.3999
 20
10.999976
 40
1
 50
270
 51
0
  0
ARC
  8
0
  6
PHANTOM
 62
     7
 10
332.3999
 20
12.999976
 40
1
 50
0
 51
90.000003
  0
ARC
  8
0
  6
PHANTOM
 62
     7
 10
436.59998
 20
6.2999763
 40
0.80000001
 50
0
 51
90.000003
  0
ARC
  8
0
  6
PHANTOM
 62
     7
 10
431.79993
 20
7.0999765
 40
0.80000001
 50
179.99999
 51
270
  0
ARC
  8
0
  6
PHANTOM
 62
     7
 10
432.3999
 20
12.999976
 40
1
 50
0
 51
90.000003
  0
ARC
  8
0
  6
PHANTOM
 62
     7
 10
432.3999
 20
10.999976
 40
1
 50
270
 51
0
  0
ARC
  8
0
  6
CENTER
 62
     7
 10
0
 20
100
 40
16.5
 50
215.37023
 51
234.63044
  0
CIRCLE
  8
0
  6
CONTINUOUS
 62
     7
 10
-11.66748
 20
88.332764
 40
1.2294998
  0
CIRCLE
  8
0
  6
CONTINUOUS
 62
     7
 10
-11.66748
 20
88.332764
 40
1.5
  0
ARC
  8
0
  6
CENTER
 62
     7
 10
0
 20
100
 40
16.5
 50
305.36955
 51
324.62977
  0
CIRCLE
  8
0
  6
CONTINUOUS
 62
     7
 10
0
 20
100
 40
2.1999993
  0
ARC
  8
0
  6
CONTINUOUS
 62
     7
 10
22.149902
 20
86.850037
 40
3
 50
288.19488
 51
341.80513
  0
ARC
  8
0
  6
CONTINUOUS
 62
     7
 10
-22.150269
 20
86.850037
 40
3
 50
198.19489
 51
251.80516
  0
CIRCLE
  8
0
  6
CONTINUOUS
 62
     7
 10
0
 20
100
 40
2.5000005
  0
CIRCLE
  8
0
  6
CONTINUOUS
 62
     7
 10
-21.500244
 20
91
 40
1.7500005
  0
ARC
  8
0
  6
CONTINUOUS
 62
     7
 10
22.699951
 20
120.5
 40
1.9999995
 50
360
 51
89.999982
  0
ARC
  8
0
  6
CONTINUOUS
 62
     7
 10
-22.700317
 20
120.5
 40
1.9999995
 50
89.999982
 51
179.99996
  0
ARC
  8
0
  6
CONTINUOUS
 62
     7
 10
0
 20
100
 40
7.2499995
 50
349.14843
 51
10.851577
  0
ARC
  8
0
  6
CONTINUOUS
 62
     7
 10
0
 20
100
 40
7.2499995
 50
259.14843
 51
280.8516
  0
ARC
  8
0
  6
CONTINUOUS
 62
     7
 10
0
 20
100
 40
7.2499995
 50
169.14838
 51
190.85155
  0
ARC
  8
0
  6
CONTINUOUS
 62
     7
 10
0
 20
100
 40
7.2499995
 50
79.148396
 51
100.85157
  0
CIRCLE
  8
0
  6
CONTINUOUS
 62
     7
 10
0
 20
100
 40
3
  0
CIRCLE
  8
0
  6
CONTINUOUS
 62
     7
 10
0
 20
100
 40
12
  0
ARC
  8
0
  6
CONTINUOUS
 62
     7
 10
-22.700317
 20
86.5
 40
1.9999995
 50
179.99996
 51
270
  0
ARC
  8
0
  6
CONTINUOUS
 62
     7
 10
22.699951
 20
86.5
 40
1.9999995
 50
270.00002
 51
360
  0
ARC
  8
0
  6
CENTER
 62
     7
 10
0
 20
100
 40
16.5
 50
125.36956
 51
144.62977
  0
ARC
  8
0
  6
CENTER
 62
     7
 10
0
 20
100
 40
16.5
 50
35.370227
 51
54.630445
  0
ARC
  8
0
  6
CONTINUOUS
 62
     7
 10
222.70001
 20
118
 40
2
 50
2.5044781E-006
 51
90.000003
  0
ARC
  8
0
  6
CONTINUOUS
 62
     7
 10
177.29999
 20
118
 40
2
 50
90.000009
 51
180.00001
  0
ARC
  8
0
  6
CONTINUOUS
 62
     7
 10
222.70001
 20
120.5
 40
2
 50
2.5044781E-006
 51
90.000003
  0
ARC
  8
0
  6
CONTINUOUS
 62
     7
 10
177.29999
 20
120.5
 40
2
 50
90.000009
 51
180.00001
  0
CIRCLE
  8
0
  6
CONTINUOUS
 62
     7
 10
178.5
 20
91
 40
2.7499995
  0
CIRCLE
  8
0
  6
CONTINUOUS
 62
     7
 10
200
 20
100
 40
2.1999993
  0
ARC
  8
0
  6
CONTINUOUS
 62
     7
 10
201.80252
 20
102.52209
 40
0.29999998
 50
54.446563
 51
149.99998
  0
ARC
  8
0
  6
CONTINUOUS
 62
     7
 10
200
 20
100
 40
3.3999996
 50
5.553445
 51
54.446563
  0
ARC
  8
0
  6
CONTINUOUS
 62
     7
 10
203.08545
 20
100.30005
 40
0.29999998
 50
270.00002
 51
5.553445
  0
ARC
  8
0
  6
CONTINUOUS
 62
     7
 10
202.84787
 20
96.913086
 40
0.29999998
 50
210.00003
 51
312.69317
  0
ARC
  8
0
  6
CONTINUOUS
 62
     7
 10
196.91455
 20
100.30005
 40
0.29999998
 50
174.44653
 51
270
  0
ARC
  8
0
  6
CONTINUOUS
 62
     7
 10
198.19748
 20
102.52209
 40
0.29999998
 50
30.000004
 51
125.55341
  0
ARC
  8
0
  6
CONTINUOUS
 62
     7
 10
197.1521
 20
96.913086
 40
0.29999998
 50
227.30686
 51
330
  0
ARC
  8
0
  6
CONTINUOUS
 62
     7
 10
200
 20
100
 40
3.3999996
 50
125.55341
 51
174.44653
  0
ARC
  8
0
  6
CONTINUOUS
 62
     7
 10
200
 20
100
 40
4.5
 50
312.69317
 51
227.3068
  0
CIRCLE
  8
0
  6
CONTINUOUS
 62
     7
 10
200
 20
100
 40
2.5000005
  0
CIRCLE
  8
0
  6
CONTINUOUS
 62
     7
 10
200
 20
100
 40
5.5000005
  0
ARC
  8
0
  6
CONTINUOUS
 62
     7
 10
177.85001
 20
86.850098
 40
3
 50
198.19489
 51
251.80516
  0
ARC
  8
0
  6
CONTINUOUS
 62
     7
 10
222.15002
 20
86.850098
 40
3
 50
288.19488
 51
341.80513
  0
ARC
  8
0
  6
CONTINUOUS
 62
     4
 10
178
 20
20.499985
 40
0.50000006
 50
180.00004
 51
270.00002
  0
ARC
  8
0
  6
CONTINUOUS
 62
     4
 10
178.5
 20
21.499969
 40
1
 50
89.999982
 51
179.99996
  0
ARC
  8
0
  6
CONTINUOUS
 62
     4
 10
221.5
 20
21.499969
 40
1
 50
0
 51
89.999982
  0
ARC
  8
0
  6
CONTINUOUS
 62
     4
 10
222
 20
20.499985
 40
0.50000006
 50
270.00002
 51
0
  0
CIRCLE
  8
0
  6
DASHED
 62
     7
 10
275
 20
387.5
 40
4.0000005
  0
CIRCLE
  8
0
  6
DASHED
 62
     7
 10
275
 20
387.5
 40
2.25
  0
ARC
  8
0
  6
CONTINUOUS
 62
     7
 10
310.49963
 20
424.1998
 40
0.50000006
 50
89.999982
 51
179.99996
  0
ARC
  8
0
  6
CONTINUOUS
 62
     7
 10
310.49963
 20
375.80005
 40
0.50000006
 50
180.00004
 51
270.00002
  0
ARC
  8
0
  6
DASHED
 62
     7
 10
244.09973
 20
397
 40
5
 50
179.99999
 51
270
  0
ARC
  8
0
  6
DASHED
 62
     7
 10
200.14978
 20
408.00009
 40
1.7500005
 50
89.999982
 51
270
  0
ARC
  8
0
  6
DASHED
 62
     7
 10
318.99976
 20
417.00009
 40
1
 50
0
 51
89.999982
  0
ARC
  8
0
  6
DASHED
 62
     7
 10
315.99976
 20
418.50009
 40
0.50000006
 50
180.00004
 51
270.00002
  0
ARC
  8
0
  6
CONTINUOUS
 62
     7
 10
314.99963
 20
424.1998
 40
0.50000006
 50
0
 51
89.999982
  0
ARC
  8
0
  6
DASHED
 62
     7
 10
315.99976
 20
381.5
 40
0.50000006
 50
89.999982
 51
179.99996
  0
ARC
  8
0
  6
CONTINUOUS
 62
     7
 10
314.99963
 20
375.80005
 40
0.50000006
 50
270.00002
 51
0
  0
ARC
  8
0
  6
DASHED
 62
     7
 10
318.99976
 20
383
 40
1
 50
270.00002
 51
0
  0
ARC
  8
0
  6
DASHED
 62
     7
 10
148.99988
 20
384
 40
1
 50
0
 51
89.999982
  0
ARC
  8
0
  6
DASHED
 62
     7
 10
148.99988
 20
415.99997
 40
1
 50
270.00002
 51
0
  0
ARC
  8
0
  6
DASHED
 62
     7
 10
112.99976
 20
384
 40
1
 50
89.999982
 51
179.99996
  0
ARC
  8
0
  6
DASHED
 62
     7
 10
112.99976
 20
415.99997
 40
1
 50
179.99996
 51
270
  0
ARC
  8
0
  6
CONTINUOUS
 62
     7
 10
113.99988
 20
397
 40
1.9999995
 50
179.99996
 51
270
  0
ARC
  8
0
  6
CONTINUOUS
 62
     7
 10
113.99988
 20
403
 40
1.9999995
 50
89.999982
 51
179.99996
  0
ARC
  8
0
  6
CONTINUOUS
 62
     7
 10
144
 20
412.99997
 40
1.9999995
 50
0
 51
89.999982
  0
ARC
  8
0
  6
CONTINUOUS
 62
     7
 10
144
 20
387
 40
1.9999995
 50
270.00002
 51
0
  0
ARC
  8
0
  6
CONTINUOUS
 62
     7
 10
113.99988
 20
387
 40
1.9999995
 50
179.99996
 51
270
  0
ARC
  8
0
  6
CONTINUOUS
 62
     7
 10
113.99988
 20
412.99997
 40
1.9999995
 50
89.999982
 51
179.99996
  0
ARC
  8
0
  6
CONTINUOUS
 62
     7
 10
159
 20
423.69992
 40
1
 50
0
 51
89.999982
  0
ARC
  8
0
  6
CONTINUOUS
 62
     7
 10
159
 20
376.30005
 40
1
 50
270.00002
 51
0
  0
ARC
  8
0
  6
CONTINUOUS
 62
     7
 10
100.99976
 20
376.30005
 40
1
 50
179.99996
 51
270
  0
ARC
  8
0
  6
CONTINUOUS
 62
     7
 10
100.99976
 20
423.69992
 40
1
 50
89.999982
 51
179.99996
  0
ARC
  8
0
  6
DASHED
 62
     7
 10
244.09973
 20
403
 40
5
 50
90.000003
 51
180.00001
  0
CIRCLE
  8
0
  6
DASHED
 62
     7
 10
243.69983
 20
404.5
 40
1.5
  0
CIRCLE
  8
0
  6
DASHED
 62
     7
 10
254.69983
 20
395.5
 40
1.5
  0
ARC
  8
0
  6
PHANTOM
 62
     7
 10
296.29993
 20
363.70004
 40
1
 50
270
 51
0
  0
ARC
  8
0
  6
PHANTOM
 62
     7
 10
292.69983
 20
363.70004
 40
1
 50
179.99999
 51
270
  0
ARC
  8
0
  6
PHANTOM
 62
     7
 10
180.69983
 20
363.70004
 40
1
 50
179.99999
 51
270
  0
ARC
  8
0
  6
PHANTOM
 62
     7
 10
184.29993
 20
363.70004
 40
1
 50
270
 51
5.0089569E-006
  0
ARC
  8
0
  6
PHANTOM
 62
     7
 10
230.74966
 20
367.60004
 40
1
 50
270
 51
2.5044785E-006
  0
ARC
  8
0
  6
PHANTOM
 62
     7
 10
228.74966
 20
367.60004
 40
1
 50
179.99999
 51
270
  0
ARC
  8
0
  6
PHANTOM
 62
     7
 10
239.24966
 20
367.60004
 40
1
 50
270
 51
2.5044785E-006
  0
ARC
  8
0
  6
PHANTOM
 62
     7
 10
237.24966
 20
367.60004
 40
1
 50
179.99999
 51
270
  0
CIRCLE
  8
0
  6
CONTINUOUS
 62
     7
 10
218.99976
 20
372.5
 40
2
  0
CIRCLE
  8
0
  6
CONTINUOUS
 62
     7
 10
218.99976
 20
372.5
 40
1.65
  0
CIRCLE
  8
0
  6
CONTINUOUS
 62
     7
 10
100
 20
0
 40
4
  0
CIRCLE
  8
0
  6
CONTINUOUS
 62
     7
 10
100
 20
100
 40
4
  0
CIRCLE
  8
0
  6
CONTINUOUS
 62
     7
 10
100
 20
100
 40
3.24
  0
CIRCLE
  8
0
  6
CONTINUOUS
 62
     7
 10
100
 20
0
 40
3.24
  0
ARC
  8
0
  6
CONTINUOUS
 62
     7
 10
300
 20
100
 40
3.24
 50
270
 51
90.000003
  0
ARC
  8
0
  6
CONTINUOUS
 62
     7
 10
300
 20
0
 40
3.24
 50
270
 51
90.000003
  0
ARC
  8
0
  6
CONTINUOUS
 62
     7
 10
400
 20
0
 40
3.24
 50
270
 51
90.000003
  0
ARC
  8
0
  6
CONTINUOUS
 62
     7
 10
400
 20
100
 40
3.24
 50
270
 51
90.000003
  0
ARC
  8
0
  6
CONTINUOUS
 62
     7
 10
400
 20
100
 40
4
 50
270
 51
90.000003
  0
ARC
  8
0
  6
CONTINUOUS
 62
     7
 10
400
 20
0
 40
4
 50
270
 51
90.000003
  0
ARC
  8
0
  6
CONTINUOUS
 62
     7
 10
300
 20
0
 40
4
 50
270
 51
90.000003
  0
ARC
  8
0
  6
CONTINUOUS
 62
     7
 10
300
 20
100
 40
4
 50
270
 51
90.000003
  0
POLYLINE
  8
0
  6
PHANTOM
 62
     7
 66
     1
 10
0
 20
0
  0
VERTEX
  8
0
  6
PHANTOM
 62
     7
 10
302.60034
 20
268.30005
 42
-0.099923188
  0
VERTEX
  8
0
  6
PHANTOM
 62
     7
 10
303.00953
 20
267.92113
 42
-0.37894513
  0
VERTEX
  8
0
  6
PHANTOM
 62
     7
 10
302.99574
 20
267.40516
 42
-0.062962947
  0
VERTEX
  8
0
  6
PHANTOM
 62
     7
 10
302.57739
 20
267.03285
 42
0.086699885
  0
VERTEX
  8
0
  6
PHANTOM
 62
     7
 10
302.16754
 20
266.65225
 42
0.28368636
  0
VERTEX
  8
0
  6
PHANTOM
 62
     7
 10
302.1882
 20
266.11925
 42
0.26556111
  0
VERTEX
  8
0
  6
PHANTOM
 62
     7
 10
302.61874
 20
265.80046
 42
0.24995275
  0
VERTEX
  8
0
  6
PHANTOM
 62
     7
 10
303.03218
 20
266.14431
 42
0.28174801
  0
VERTEX
  8
0
  6
PHANTOM
 62
     7
 10
303.01802
 20
266.67945
 42
0.10687794
  0
VERTEX
  8
0
  6
PHANTOM
 62
     7
 10
302.60034
 20
267.05005
 42
0
  0
SEQEND
  8
0
  0
POLYLINE
  8
0
  6
PHANTOM
 62
     7
 66
     1
 10
0
 20
0
  0
VERTEX
  8
0
  6
PHANTOM
 62
     7
 10
174.39941
 20
268.30005
 42
0.099923188
  0
VERTEX
  8
0
  6
PHANTOM
 62
     7
 10
173.99023
 20
267.92113
 42
0.37894513
  0
VERTEX
  8
0
  6
PHANTOM
 62
     7
 10
174.00401
 20
267.40516
 42
0.062962947
  0
VERTEX
  8
0
  6
PHANTOM
 62
     7
 10
174.42236
 20
267.03285
 42
-0.086699885
  0
VERTEX
  8
0
  6
PHANTOM
 62
     7
 10
174.83222
 20
266.65225
 42
-0.28368636
  0
VERTEX
  8
0
  6
PHANTOM
 62
     7
 10
174.81156
 20
266.11925
 42
-0.26556111
  0
VERTEX
  8
0
  6
PHANTOM
 62
     7
 10
174.38101
 20
265.80046
 42
-0.24995275
  0
VERTEX
  8
0
  6
PHANTOM
 62
     7
 10
173.96757
 20
266.14431
 42
-0.28174801
  0
VERTEX
  8
0
  6
PHANTOM
 62
     7
 10
173.98173
 20
266.67945
 42
-0.10687794
  0
VERTEX
  8
0
  6
PHANTOM
 62
     7
 10
174.39941
 20
267.05005
 42
0
  0
SEQEND
  8
0
  0
POLYLINE
  8
0
  6
PHANTOM
 62
     7
 66
     1
 10
0
 20
0
  0
VERTEX
  8
0
  6
PHANTOM
 62
     7
 10
252.60034
 20
268.30005
 42
-0.099923188
  0
VERTEX
  8
0
  6
PHANTOM
 62
     7
 10
253.00953
 20
267.92113
 42
-0.37894513
  0
VERTEX
  8
0
  6
PHANTOM
 62
     7
 10
252.99574
 20
267.40516
 42
-0.062962947
  0
VERTEX
  8
0
  6
PHANTOM
 62
     7
 10
252.57739
 20
267.03285
 42
0.086699885
  0
VERTEX
  8
0
  6
PHANTOM
 62
     7
 10
252.16754
 20
266.65225
 42
0.28368636
  0
VERTEX
  8
0
  6
PHANTOM
 62
     7
 10
252.1882
 20
266.11925
 42
0.26556111
  0
VERTEX
  8
0
  6
PHANTOM
 62
     7
 10
252.61874
 20
265.80046
 42
0.24995275
  0
VERTEX
  8
0
  6
PHANTOM
 62
     7
 10
253.03218
 20
266.14431
 42
0.28174801
  0
VERTEX
  8
0
  6
PHANTOM
 62
     7
 10
253.01802
 20
266.67945
 42
0.10687794
  0
VERTEX
  8
0
  6
PHANTOM
 62
     7
 10
252.60034
 20
267.05005
 42
0
  0
SEQEND
  8
0
  0
POLYLINE
  8
0
  6
PHANTOM
 62
     7
 66
     1
 10
0
 20
0
  0
VERTEX
  8
0
  6
PHANTOM
 62
     7
 10
307.49988
 20
365.50006
 42
0.10401402
  0
VERTEX
  8
0
  6
PHANTOM
 62
     7
 10
307.91779
 20
365.96532
 42
0.30364234
  0
VERTEX
  8
0
  6
PHANTOM
 62
     7
 10
307.90107
 20
366.56029
 42
0.066453008
  0
VERTEX
  8
0
  6
PHANTOM
 62
     7
 10
307.47591
 20
367.02176
 42
-0.091147952
  0
VERTEX
  8
0
  6
PHANTOM
 62
     7
 10
307.06067
 20
367.49078
 42
-0.22580213
  0
VERTEX
  8
0
  6
PHANTOM
 62
     7
 10
307.07977
 20
368.09878
 42
-0.27695201
  0
VERTEX
  8
0
  6
PHANTOM
 62
     7
 10
307.52012
 20
368.49942
 42
-0.25105624
  0
VERTEX
  8
0
  6
PHANTOM
 62
     7
 10
307.9374
 20
368.06642
 42
-0.22299976
  0
VERTEX
  8
0
  6
PHANTOM
 62
     7
 10
307.92627
 20
367.45598
 42
-0.11234023
  0
VERTEX
  8
0
  6
PHANTOM
 62
     7
 10
307.49988
 20
367.00006
 42
0
  0
SEQEND
  8
0
  0
POLYLINE
  8
0
  6
PHANTOM
 62
     7
 66
     1
 10
0
 20
0
  0
VERTEX
  8
0
  6
PHANTOM
 62
     7
 10
169.49988
 20
365.50006
 42
-0.10401402
  0
VERTEX
  8
0
  6
PHANTOM
 62
     7
 10
169.08197
 20
365.96532
 42
-0.30364234
  0
VERTEX
  8
0
  6
PHANTOM
 62
     7
 10
169.09868
 20
366.56029
 42
-0.066453008
  0
VERTEX
  8
0
  6
PHANTOM
 62
     7
 10
169.52385
 20
367.02176
 42
0.091147952
  0
VERTEX
  8
0
  6
PHANTOM
 62
     7
 10
169.93909
 20
367.49078
 42
0.22580213
  0
VERTEX
  8
0
  6
PHANTOM
 62
     7
 10
169.91999
 20
368.09878
 42
0.27695201
  0
VERTEX
  8
0
  6
PHANTOM
 62
     7
 10
169.47963
 20
368.49942
 42
0.25105624
  0
VERTEX
  8
0
  6
PHANTOM
 62
     7
 10
169.06235
 20
368.06642
 42
0.22299976
  0
VERTEX
  8
0
  6
PHANTOM
 62
     7
 10
169.07348
 20
367.45598
 42
0.11234023
  0
VERTEX
  8
0
  6
PHANTOM
 62
     7
 10
169.49988
 20
367.00006
 42
0
  0
SEQEND
  8
0
  0
TEXT
  8
0
  6
CONTINUOUS
 62
     7
 10
280.4
 20
65.200244
 40
3.5999999
 41
1.0208334
  1
OPTION 04**
  0
TEXT
  8
0
  6
CONTINUOUS
 62
     7
 10
380.4
 20
65.200244
 40
3.5999999
 41
1.0208334
  1
OPTION 07**
  0
TEXT
  8
0
  6
CONTINUOUS
 62
     7
 10
280.4
 20
-34.799756
 40
3.5999999
 41
1.0208334
  1
OPTION 14**
  0
TEXT
  8
0
  6
CONTINUOUS
 62
     7
 10
380.4
 20
-34.799756
 40
3.5999999
 41
1.0208334
  1
OPTION 17**
  0
TEXT
  8
0
  6
CONTINUOUS
 62
     7
 10
65.999999
 20
65.200244
 40
3.5999999
 41
1.0119048
  1
VIEW ON ARROW "B-B"
  0
TEXT
  8
0
  6
CONTINUOUS
 62
     7
 10
65.999999
 20
-34.799756
 40
3.5999999
 41
1.0119048
  1
VIEW ON ARROW "B-B"
  0
TEXT
  8
0
  6
CONTINUOUS
 62
     7
 10
-30.4
 20
65.200244
 40
3.5999999
 41
1.0133334
  1
VIEW ON ARROW "A"
  0
TEXT
  8
0
  6
CONTINUOUS
 62
     7
 10
-30.4
 20
-34.799756
 40
3.5999999
 41
1.0133334
  1
VIEW ON ARROW "A"
  0
TEXT
  8
0
  6
CONTINUOUS
 62
     7
 10
169.6
 20
65.200244
 40
3.5999999
 41
1.0133334
  1
VIEW ON ARROW "C"
  0
TEXT
  8
0
  6
CONTINUOUS
 62
     7
 10
169.6
 20
-34.799756
 40
3.5999999
 41
1.0133334
  1
VIEW ON ARROW "C"
  0
TEXT
  8
0
  6
CONTINUOUS
 62
     7
 10
-1.6
 20
298.99999
 40
3.5999999
 41
1.0125787
  1
KR2602A-150L0-0000
  0
TEXT
  8
0
  6
CONTINUOUS
 62
     7
 10
-1.6
 20
398.99999
 40
3.5999999
 41
1.0125787
  1
KR2602A-150L0-1000
  0
TEXT
  8
0
  6
CONTINUOUS
 62
     7
 10
-1.6
 20
293.59999
 40
3.5999999
 41
1.0175439
  1
 STROKE:69MAX
  0
TEXT
  8
0
  6
CONTINUOUS
 62
     7
 10
-1.6
 20
393.59999
 40
3.5999999
 41
1.0175439
  1
 STROKE:69MAX
  0
TEXT
  8
0
  6
CONTINUOUS
 62
     7
 10
-51.6
 20
98.2
 40
3.5999999
 41
1.0606061
  1
0000
  0
TEXT
  8
0
  6
CONTINUOUS
 62
     7
 10
-51.6
 20
-1.8
 40
3.5999999
 41
1.0606061
  1
1000
  0
LINE
  8
0
  6
CONTINUOUS
 62
     7
 10
184.00012
 20
212.00002
 11
176.00012
 21
212.00002
  0
LINE
  8
0
  6
CONTINUOUS
 62
     7
 10
176.00012
 20
212.00002
 11
180.00159
 21
212.00002
  0
LINE
  8
0
  6
CONTINUOUS
 62
     7
 10
184.00012
 20
212.00002
 11
181.00012
 21
211.00002
  0
LINE
  8
0
  6
CONTINUOUS
 62
     7
 10
184.00012
 20
212.00002
 11
181.00012
 21
213.00002
  0
TEXT
  8
0
  6
CONTINUOUS
 62
     7
 10
176.20159
 20
212.90002
 40
3.5999999
 41
1.3333334
  1
B
  0
LINE
  8
0
  6
CONTINUOUS
 62
     7
 10
184.00012
 20
176.00002
 11
176.00012
 21
176.00002
  0
LINE
  8
0
  6
CONTINUOUS
 62
     7
 10
176.00012
 20
176.00002
 11
180.00159
 21
176.00002
  0
LINE
  8
0
  6
CONTINUOUS
 62
     7
 10
184.00012
 20
176.00002
 11
181.00012
 21
175.00002
  0
LINE
  8
0
  6
CONTINUOUS
 62
     7
 10
184.00012
 20
176.00002
 11
181.00012
 21
177.00002
  0
TEXT
  8
0
  6
CONTINUOUS
 62
     7
 10
176.20159
 20
176.90002
 40
3.5999999
 41
1.3333334
  1
B
  0
LINE
  8
0
  6
CONTINUOUS
 62
     7
 10
95
 20
200
 11
87
 21
200
  0
LINE
  8
0
  6
CONTINUOUS
 62
     7
 10
87
 20
200
 11
91.000977
 21
200
  0
LINE
  8
0
  6
CONTINUOUS
 62
     7
 10
95
 20
200
 11
92
 21
199
  0
LINE
  8
0
  6
CONTINUOUS
 62
     7
 10
95
 20
200
 11
92
 21
201
  0
TEXT
  8
0
  6
CONTINUOUS
 62
     7
 10
87.200977
 20
200.9
 40
3.5999999
 41
1.3333334
  1
A
  0
LINE
  8
0
  6
CONTINUOUS
 62
     7
 10
324.99976
 20
200
 11
332.99976
 21
200
  0
LINE
  8
0
  6
CONTINUOUS
 62
     7
 10
332.99976
 20
200
 11
328.99878
 21
200
  0
LINE
  8
0
  6
CONTINUOUS
 62
     7
 10
324.99976
 20
200
 11
327.99976
 21
201
  0
LINE
  8
0
  6
CONTINUOUS
 62
     7
 10
324.99976
 20
200
 11
327.99976
 21
199
  0
TEXT
  8
0
  6
CONTINUOUS
 62
     7
 10
329.39878
 20
200.9
 40
3.5999999
 41
1.3333334
  1
C
  0
ENDSEC
  0
EOF
