  0
SECTION
  2
HEADER
  0
ENDSEC
  0
SECTION
  2
TABLES
  0
TABLE
  2
LTYPE
 70
    22
  0
LTYPE
  2
CONTINUOUS
 70
    64
  3
Solid line
 72
    65
 73
     0
 40
0.000000
  0
LTYPE
  2
DASHED
 70
    64
  3
__ __ __ __ __ __ __ __ __ __ __ __ __ __ __
 72
    65
 73
     2
 40
3.500000
 49
2.000000
 49
-1.500000
  0
LTYPE
  2
CENTER
 70
    64
  3
____ _ ____ _ ____ _ ____ _ ____ _ ____ _ ____
 72
    65
 73
     4
 40
17.500000
 49
13.000000
 49
-1.500000
 49
1.500000
 49
-1.500000
  0
LTYPE
  2
PHANTOM
 70
    64
  3
_____ _ _ _____ _ _ _____ _ _ _____ _ _ ____  
 72
    65
 73
     6
 40
15.500000
 49
8.000000
 49
-1.500000
 49
1.500000
 49
-1.500000
 49
1.500000
 49
-1.500000
  0
LTYPE
  2
DOT
 70
    64
  3
. . . . . . . . . . . . . . . . . . . . . . . .
 72
    65
 73
     2
 40
0.25
 49
0.0
 49
-0.25
  0
ENDTAB
  0
TABLE
  2
LAYER
 70
     1
  0
LAYER
  2
0
 70
     0
 62
     7
  6
CONTINUOUS
  0
ENDTAB
  0
TABLE
  2
STYLE
 70
     1
  0
STYLE
  2
STANDARD
 70
     0
 40
0.000000
 41
1.000000
 50
0.000000
 71
     0
 42
0.200000
  3
txt
  0
ENDTAB
  0
TABLE
  2
VIEW
 70
     0
  0
ENDTAB
  0
ENDSEC
  0
SECTION
  2
BLOCKS
  0
ENDSEC
  0
SECTION
  2
ENTITIES
  0
LINE
  8
0
  6
CENTER
 62
     7
 10
127.8999176025391
 20
20.81303405761719
 11
127.8999176025391
 21
9.259551048278809
  0
LINE
  8
0
  6
CONTINUOUS
 62
     7
 10
94.80012512207031
 20
20
 11
134.9996490478516
 21
20
  0
LINE
  8
0
  6
CONTINUOUS
 62
     7
 10
84.89988708496094
 20
12.00002956390381
 11
84.89988708496094
 21
3.370003700256348
  0
LINE
  8
0
  6
CONTINUOUS
 62
     7
 10
86.60009765625
 20
19.39999389648438
 11
86.60009765625
 21
3.370003700256348
  0
LINE
  8
0
  6
CONTINUOUS
 62
     7
 10
87.40005493164063
 20
19.49998474121094
 11
87.40005493164063
 21
3.200011253356934
  0
LINE
  8
0
  6
CONTINUOUS
 62
     7
 10
86.60009765625
 20
19.39999389648438
 11
87.40005493164063
 21
19.39999389648438
  0
LINE
  8
0
  6
CONTINUOUS
 62
     7
 10
84.90019226074219
 20
11.99945449829102
 11
86.60030364990234
 21
13.59945869445801
  0
LINE
  8
0
  6
CONTINUOUS
 62
     7
 10
84.89988708496094
 20
3.370003700256348
 11
87.40005493164063
 21
3.370003700256348
  0
LINE
  8
0
  6
CONTINUOUS
 62
     7
 10
50
 20
11.50000953674316
 11
84.89988708496094
 21
11.50000953674316
  0
LINE
  8
0
  6
CONTINUOUS
 62
     7
 10
50
 20
9.289397239685059
 11
84.89988708496094
 21
9.289397239685059
  0
LINE
  8
0
  6
CONTINUOUS
 62
     7
 10
50
 20
7.379393577575684
 11
84.89988708496094
 21
7.379393577575684
  0
LINE
  8
0
  6
CONTINUOUS
 62
     7
 10
50
 20
6.310016632080078
 11
84.89988708496094
 21
6.310016632080078
  0
LINE
  8
0
  6
CONTINUOUS
 62
     7
 10
50
 20
4.240009307861328
 11
84.89988708496094
 21
4.240009307861328
  0
LINE
  8
0
  6
CONTINUOUS
 62
     7
 10
50
 20
-1.095143488782924E-005
 11
209.9998626708984
 21
-1.095143488782924E-005
  0
LINE
  8
0
  6
CONTINUOUS
 62
     7
 10
50
 20
11.50000953674316
 11
50
 21
1.956614141818136E-005
  0
LINE
  8
0
  6
CONTINUOUS
 62
     7
 10
87.40005493164063
 20
19.49998474121094
 11
94.80012512207031
 21
19.49998474121094
  0
LINE
  8
0
  6
CONTINUOUS
 62
     7
 10
87.40005493164063
 20
3.800017356872559
 11
142.3996429443359
 21
3.800017356872559
  0
LINE
  8
0
  6
CONTINUOUS
 62
     7
 10
94.80012512207031
 20
20
 11
94.80012512207031
 21
3.800017356872559
  0
LINE
  8
0
  6
CONTINUOUS
 62
     7
 10
87.40005493164063
 20
3.200011253356934
 11
142.3996429443359
 21
3.200011253356934
  0
LINE
  8
0
  6
CONTINUOUS
 62
     7
 10
94.80012512207031
 20
11.75000953674316
 11
134.9996490478516
 21
11.75000953674316
  0
LINE
  8
0
  6
CONTINUOUS
 62
     7
 10
85.3001708984375
 20
64.75
 11
85.3001708984375
 21
69.24998474121094
  0
LINE
  8
0
  6
CONTINUOUS
 62
     7
 10
85.3001708984375
 20
68.74998474121094
 11
83.3001708984375
 21
68.74998474121094
  0
LINE
  8
0
  6
CONTINUOUS
 62
     7
 10
85.3001708984375
 20
65.25
 11
83.3001708984375
 21
65.25
  0
LINE
  8
0
  6
CONTINUOUS
 62
     7
 10
86.60012817382813
 20
69.24998474121094
 11
85.3001708984375
 21
69.24998474121094
  0
LINE
  8
0
  6
CONTINUOUS
 62
     7
 10
86.60009765625
 20
64.75
 11
85.3001708984375
 21
64.75
  0
LINE
  8
0
  6
CONTINUOUS
 62
     7
 10
81.8001708984375
 20
66.09860229492188
 11
81.8001708984375
 21
67.9013671875
  0
LINE
  8
0
  6
CONTINUOUS
 62
     7
 10
144.8998870849609
 20
3.370003700256348
 11
144.8998870849609
 21
12.00002956390381
  0
LINE
  8
0
  6
CONTINUOUS
 62
     7
 10
143.1996307373047
 20
3.370003700256348
 11
143.1996307373047
 21
19.39999389648438
  0
LINE
  8
0
  6
CONTINUOUS
 62
     7
 10
142.3996429443359
 20
3.200011253356934
 11
142.3996429443359
 21
19.49998474121094
  0
LINE
  8
0
  6
CONTINUOUS
 62
     7
 10
142.3996429443359
 20
19.39999389648438
 11
143.1996307373047
 21
19.39999389648438
  0
LINE
  8
0
  6
CONTINUOUS
 62
     7
 10
143.2002258300781
 20
13.59941005706787
 11
144.9004516601563
 21
11.99943923950195
  0
LINE
  8
0
  6
CONTINUOUS
 62
     7
 10
142.3996429443359
 20
3.370003700256348
 11
144.8998870849609
 21
3.370003700256348
  0
LINE
  8
0
  6
CONTINUOUS
 62
     7
 10
144.8998870849609
 20
11.49997901916504
 11
209.9998626708984
 21
11.49997901916504
  0
LINE
  8
0
  6
CONTINUOUS
 62
     7
 10
144.8998870849609
 20
9.289366722106934
 11
209.9998626708984
 21
9.289366722106934
  0
LINE
  8
0
  6
CONTINUOUS
 62
     7
 10
144.8998870849609
 20
7.379363059997559
 11
209.9998626708984
 21
7.379363059997559
  0
LINE
  8
0
  6
CONTINUOUS
 62
     7
 10
144.8998870849609
 20
6.309986114501953
 11
209.9998626708984
 21
6.309986114501953
  0
LINE
  8
0
  6
CONTINUOUS
 62
     7
 10
144.8998870849609
 20
4.239978790283203
 11
209.9998626708984
 21
4.239978790283203
  0
LINE
  8
0
  6
CONTINUOUS
 62
     7
 10
134.9996490478516
 20
19.49998474121094
 11
142.3996429443359
 21
19.49998474121094
  0
LINE
  8
0
  6
CONTINUOUS
 62
     7
 10
134.9996490478516
 20
3.800017356872559
 11
134.9996490478516
 21
20
  0
LINE
  8
0
  6
CONTINUOUS
 62
     7
 10
50
 20
2.796639442443848
 11
100.3932723999023
 21
2.796639442443848
  0
LINE
  8
0
  6
DASHED
 62
     7
 10
99.90022277832031
 20
12.99996852874756
 11
103.9002227783203
 21
12.99996852874756
  0
LINE
  8
0
  6
CENTER
 62
     7
 10
101.9002227783203
 20
20.81303405761719
 11
101.9002227783203
 21
9.259551048278809
  0
LINE
  8
0
  6
DASHED
 62
     7
 10
103.9002227783203
 20
20
 11
103.9002227783203
 21
12.99997901916504
  0
LINE
  8
0
  6
DASHED
 62
     7
 10
99.90022277832031
 20
20
 11
99.90022277832031
 21
12.99952983856201
  0
LINE
  8
0
  6
DASHED
 62
     7
 10
103.5213165283203
 20
20
 11
103.5213165283203
 21
10.99997901916504
  0
LINE
  8
0
  6
DASHED
 62
     7
 10
100.279296875
 20
20
 11
100.279296875
 21
10.99997901916504
  0
LINE
  8
0
  6
DASHED
 62
     7
 10
100.279296875
 20
10.99997901916504
 11
103.5213165283203
 21
10.99997901916504
  0
LINE
  8
0
  6
DASHED
 62
     7
 10
100.2794494628906
 20
10.99965000152588
 11
101.9004364013672
 21
10.06377506256104
  0
LINE
  8
0
  6
DASHED
 62
     7
 10
101.9001617431641
 20
10.06375312805176
 11
103.5211563110352
 21
10.9996337890625
  0
LINE
  8
0
  6
DASHED
 62
     7
 10
103.9004745483398
 20
12.99962139129639
 11
103.5214767456055
 21
12.34317779541016
  0
LINE
  8
0
  6
DASHED
 62
     7
 10
99.90013122558594
 20
12.99968147277832
 11
100.2791976928711
 21
12.34311866760254
  0
LINE
  8
0
  6
CONTINUOUS
 62
     7
 10
209.9998626708984
 20
-1.095143488782924E-005
 11
209.9998626708984
 21
11.49997901916504
  0
LINE
  8
0
  6
CENTER
 62
     7
 10
70.00015258789063
 20
13.25000953674316
 11
70.00015258789063
 21
-1.749990463256836
  0
LINE
  8
0
  6
DASHED
 62
     7
 10
67.75032043457031
 20
6.200000762939453
 11
67.75032043457031
 21
-1.095143488782924E-005
  0
LINE
  8
0
  6
DASHED
 62
     7
 10
72.25032043457031
 20
6.200000762939453
 11
72.25032043457031
 21
-1.095143488782924E-005
  0
LINE
  8
0
  6
DASHED
 62
     7
 10
66.25032043457031
 20
11.50000953674316
 11
66.25032043457031
 21
6.200000762939453
  0
LINE
  8
0
  6
DASHED
 62
     7
 10
73.75032043457031
 20
11.50000953674316
 11
73.75032043457031
 21
6.200000762939453
  0
LINE
  8
0
  6
DASHED
 62
     7
 10
66.25032043457031
 20
6.200000762939453
 11
73.75032043457031
 21
6.200000762939453
  0
LINE
  8
0
  6
CONTINUOUS
 62
     7
 10
66.25032043457031
 20
11.35000514984131
 11
66.25048828125
 21
11.35000514984131
  0
LINE
  8
0
  6
CONTINUOUS
 62
     7
 10
50
 20
77.5
 11
50
 21
62.5
  0
LINE
  8
0
  6
CONTINUOUS
 62
     7
 10
50
 20
77.5
 11
84.89988708496094
 21
77.5
  0
LINE
  8
0
  6
CONTINUOUS
 62
     7
 10
50
 20
62.5
 11
84.89988708496094
 21
62.5
  0
LINE
  8
0
  6
CONTINUOUS
 62
     7
 10
86.60009765625
 20
84
 11
86.60009765625
 21
53
  0
LINE
  8
0
  6
CONTINUOUS
 62
     7
 10
94.80012512207031
 20
52.5
 11
134.9996490478516
 21
52.5
  0
LINE
  8
0
  6
CONTINUOUS
 62
     7
 10
94.80012512207031
 20
84.5
 11
134.9996490478516
 21
84.5
  0
LINE
  8
0
  6
CONTINUOUS
 62
     7
 10
94.80012512207031
 20
75.59991455078125
 11
134.9996490478516
 21
75.59991455078125
  0
LINE
  8
0
  6
CONTINUOUS
 62
     7
 10
94.80012512207031
 20
69.39988708496094
 11
134.9996490478516
 21
69.39988708496094
  0
LINE
  8
0
  6
CONTINUOUS
 62
     7
 10
94.80012512207031
 20
61.59996032714844
 11
134.9996490478516
 21
61.59996032714844
  0
LINE
  8
0
  6
CONTINUOUS
 62
     7
 10
94.80012512207031
 20
80.39999389648438
 11
134.9996490478516
 21
80.39999389648438
  0
LINE
  8
0
  6
CONTINUOUS
 62
     7
 10
144.8998870849609
 20
77.5
 11
209.9998626708984
 21
77.5
  0
LINE
  8
0
  6
CONTINUOUS
 62
     7
 10
144.8998870849609
 20
62.5
 11
209.9998626708984
 21
62.5
  0
LINE
  8
0
  6
CONTINUOUS
 62
     7
 10
209.9998626708984
 20
77.5
 11
209.9998626708984
 21
62.5
  0
LINE
  8
0
  6
CENTER
 62
     7
 10
48
 20
70
 11
211.9998626708984
 21
70
  0
LINE
  8
0
  6
CONTINUOUS
 62
     7
 10
87.40005493164063
 20
84.14990234375
 11
94.80012512207031
 21
84.14990234375
  0
LINE
  8
0
  6
CONTINUOUS
 62
     7
 10
86.60009765625
 20
84
 11
87.40005493164063
 21
84
  0
LINE
  8
0
  6
CONTINUOUS
 62
     7
 10
87.40005493164063
 20
52.84992980957031
 11
94.80012512207031
 21
52.84992980957031
  0
LINE
  8
0
  6
CONTINUOUS
 62
     7
 10
143.1996307373047
 20
84
 11
143.1996307373047
 21
53
  0
LINE
  8
0
  6
CONTINUOUS
 62
     7
 10
143.1996307373047
 20
53
 11
142.3434448242188
 21
53
  0
LINE
  8
0
  6
CONTINUOUS
 62
     7
 10
142.3997192382813
 20
52.84992980957031
 11
134.9996490478516
 21
52.84992980957031
  0
LINE
  8
0
  6
CONTINUOUS
 62
     7
 10
142.3997192382813
 20
84.14990234375
 11
134.9996490478516
 21
84.14990234375
  0
LINE
  8
0
  6
CONTINUOUS
 62
     7
 10
143.1996307373047
 20
84
 11
142.3435211181641
 21
84
  0
LINE
  8
0
  6
CONTINUOUS
 62
     7
 10
50
 20
74.999755859375
 11
84.89988708496094
 21
74.999755859375
  0
LINE
  8
0
  6
CONTINUOUS
 62
     7
 10
144.8998870849609
 20
74.999755859375
 11
209.9998626708984
 21
74.999755859375
  0
LINE
  8
0
  6
CENTER
 62
     7
 10
127.8999176025391
 20
60.5
 11
127.8999176025391
 21
54.5
  0
LINE
  8
0
  6
CENTER
 62
     7
 10
124.8999176025391
 20
57.5
 11
130.8999328613281
 21
57.5
  0
LINE
  8
0
  6
CENTER
 62
     7
 10
101.9002227783203
 20
60.5
 11
101.9002227783203
 21
54.5
  0
LINE
  8
0
  6
CENTER
 62
     7
 10
98.90022277832031
 20
57.5
 11
104.9002227783203
 21
57.5
  0
LINE
  8
0
  6
CENTER
 62
     7
 10
101.9002227783203
 20
75.5
 11
101.9002227783203
 21
69.5
  0
LINE
  8
0
  6
CENTER
 62
     7
 10
98.90022277832031
 20
72.5
 11
104.9002227783203
 21
72.5
  0
LINE
  8
0
  6
CENTER
 62
     7
 10
127.8999176025391
 20
75.5
 11
127.8999176025391
 21
69.5
  0
LINE
  8
0
  6
CENTER
 62
     7
 10
124.8999176025391
 20
72.5
 11
130.8999328613281
 21
72.5
  0
LINE
  8
0
  6
CONTINUOUS
 62
     7
 10
84.89988708496094
 20
77.99995422363281
 11
84.89988708496094
 21
68.74998474121094
  0
LINE
  8
0
  6
CONTINUOUS
 62
     7
 10
84.89988708496094
 20
77.99996185302734
 11
86.60009002685547
 21
79.59984588623047
  0
LINE
  8
0
  6
CONTINUOUS
 62
     7
 10
84.89987182617188
 20
61.99994277954102
 11
86.60009002685547
 21
60.39998626708984
  0
LINE
  8
0
  6
CONTINUOUS
 62
     7
 10
85.30012512207031
 20
17.24998474121094
 11
83.30012512207031
 21
17.24998474121094
  0
LINE
  8
0
  6
CONTINUOUS
 62
     7
 10
85.30012512207031
 20
13.74999904632568
 11
83.30012512207031
 21
13.74999904632568
  0
LINE
  8
0
  6
CONTINUOUS
 62
     7
 10
81.80012512207031
 20
14.59860134124756
 11
81.80012512207031
 21
16.4013671875
  0
LINE
  8
0
  6
CONTINUOUS
 62
     7
 10
86.2508544921875
 20
13.24999904632568
 11
85.30012512207031
 21
13.24999904632568
  0
LINE
  8
0
  6
CONTINUOUS
 62
     7
 10
86.60009765625
 20
17.74998474121094
 11
85.30012512207031
 21
17.74998474121094
  0
LINE
  8
0
  6
CONTINUOUS
 62
     7
 10
85.30012512207031
 20
13.24999904632568
 11
85.30012512207031
 21
17.74998474121094
  0
LINE
  8
0
  6
CONTINUOUS
 62
     7
 10
84.89988708496094
 20
65.25
 11
84.89988708496094
 21
61.99993896484375
  0
LINE
  8
0
  6
CONTINUOUS
 62
     7
 10
144.8998870849609
 20
61.99994277954102
 11
143.1996307373047
 21
60.39998245239258
  0
LINE
  8
0
  6
CONTINUOUS
 62
     7
 10
144.8998870849609
 20
77.99995422363281
 11
144.8998870849609
 21
61.99993896484375
  0
LINE
  8
0
  6
CONTINUOUS
 62
     7
 10
144.8998870849609
 20
77.99996185302734
 11
143.1996307373047
 21
79.59986114501953
  0
LINE
  8
0
  6
CONTINUOUS
 62
     7
 10
94.80012512207031
 20
84.5
 11
94.80012512207031
 21
52.5
  0
LINE
  8
0
  6
CONTINUOUS
 62
     7
 10
134.9996490478516
 20
84.5
 11
134.9996490478516
 21
52.5
  0
LINE
  8
0
  6
CENTER
 62
     7
 10
70.00015258789063
 20
74.75
 11
70.00015258789063
 21
65.25
  0
LINE
  8
0
  6
CENTER
 62
     7
 10
190.0001525878906
 20
74.75
 11
190.0001525878906
 21
65.25
  0
LINE
  8
0
  6
CONTINUOUS
 62
     7
 10
87.40005493164063
 20
84.14990234375
 11
87.40005493164063
 21
52.84992980957031
  0
LINE
  8
0
  6
CONTINUOUS
 62
     7
 10
-6.699981689453125
 20
0
 11
-2.499884128570557
 21
0
  0
LINE
  8
0
  6
CONTINUOUS
 62
     7
 10
-7.5
 20
9.581499099731445
 11
-7.5
 21
0.8000171184539795
  0
LINE
  8
0
  6
CONTINUOUS
 62
     7
 10
7.5
 20
10.94000244140625
 11
7.5
 21
9.289256095886231
  0
LINE
  8
0
  6
CONTINUOUS
 62
     7
 10
-4.999760627746582
 20
11.5
 11
6.940002918243408
 21
11.5
  0
LINE
  8
0
  6
CONTINUOUS
 62
     7
 10
5
 20
6.309871673583984
 11
5
 21
4.239990234375
  0
LINE
  8
0
  6
CONTINUOUS
 62
     7
 10
7.5
 20
2.796629905700684
 11
7.5
 21
0.7997891902923584
  0
LINE
  8
0
  6
CONTINUOUS
 62
     7
 10
-7.499898910522461
 20
9.581576347351074
 11
-7.254642963409424
 21
9.769767761230469
  0
LINE
  8
0
  6
CONTINUOUS
 62
     7
 10
6.940002918243408
 20
11.5
 11
7.5
 21
10.94000244140625
  0
LINE
  8
0
  6
CONTINUOUS
 62
     7
 10
5
 20
6.309871196746826
 11
5.858476638793945
 21
7.332964420318604
  0
LINE
  8
0
  6
CONTINUOUS
 62
     7
 10
-7.5
 20
0.8000169992446899
 11
-6.699981689453125
 21
-1.348576290638448E-007
  0
LINE
  8
0
  6
CONTINUOUS
 62
     7
 10
7.5
 20
0.7997890710830689
 11
6.700209617614746
 21
-1.350113336684444E-007
  0
LINE
  8
0
  6
CONTINUOUS
 62
     7
 10
2.500004053115845
 20
0
 11
6.700209617614746
 21
0
  0
LINE
  8
0
  6
CONTINUOUS
 62
     7
 10
-2.499884128570557
 20
0
 11
-1.999884009361267
 21
0.5000000596046448
  0
LINE
  8
0
  6
CONTINUOUS
 62
     7
 10
2.000004053115845
 20
0.5000000596046448
 11
2.500004053115845
 21
0
  0
LINE
  8
0
  6
CONTINUOUS
 62
     7
 10
-1.999884009361267
 20
0.5
 11
2.000004053115845
 21
0.5
  0
LINE
  8
0
  6
CONTINUOUS
 62
     7
 10
-5.358182430267334
 20
11.22497272491455
 11
-4.999904632568359
 21
11.4998893737793
  0
LINE
  8
0
  6
CONTINUOUS
 62
     7
 10
7.37945032119751
 20
9.145589828491211
 11
7.5
 21
9.289255142211914
  0
LINE
  8
0
  6
CONTINUOUS
 62
     7
 10
-13.89990234375
 20
20
 11
-10.39990234375
 21
20
  0
LINE
  8
0
  6
CONTINUOUS
 62
     7
 10
-14.5
 20
19.39999389648438
 11
-14.5
 21
13.75
  0
LINE
  8
0
  6
CONTINUOUS
 62
     7
 10
17.5
 20
19.39999389648438
 11
17.5
 21
11.75
  0
LINE
  8
0
  6
CONTINUOUS
 62
     7
 10
17.25
 20
11.5
 11
17.25
 21
4.599995613098145
  0
LINE
  8
0
  6
CONTINUOUS
 62
     7
 10
-14.25
 20
13.5
 11
-14.25
 21
10.08999633789063
  0
LINE
  8
0
  6
CONTINUOUS
 62
     7
 10
-10
 20
19.5999755859375
 11
-6
 21
19.5999755859375
  0
LINE
  8
0
  6
CONTINUOUS
 62
     7
 10
1
 20
19.5999755859375
 11
8
 21
19.5999755859375
  0
LINE
  8
0
  6
CONTINUOUS
 62
     7
 10
8.000000953674316
 20
19.59997177124023
 11
8.400014877319336
 21
19.99998664855957
  0
LINE
  8
0
  6
CONTINUOUS
 62
     7
 10
-5.9999098777771
 20
19.59993171691895
 11
-5.59990406036377
 21
19.99993705749512
  0
LINE
  8
0
  6
CONTINUOUS
 62
     7
 10
0.6001131534576416
 20
19.9998950958252
 11
1.000046968460083
 21
19.59996032714844
  0
LINE
  8
0
  6
CONTINUOUS
 62
     7
 10
-10.39998912811279
 20
19.99999237060547
 11
-9.999943733215332
 21
19.59994697570801
  0
LINE
  8
0
  6
CONTINUOUS
 62
     7
 10
-5.599934577941895
 20
20
 11
0.60009765625
 21
20
  0
LINE
  8
0
  6
CONTINUOUS
 62
     7
 10
8.400065422058106
 20
20
 11
16.90005493164063
 21
20
  0
LINE
  8
0
  6
CONTINUOUS
 62
     7
 10
17.25007438659668
 20
11.49991893768311
 11
17.50006866455078
 21
11.74991416931152
  0
LINE
  8
0
  6
CONTINUOUS
 62
     7
 10
-14.49994468688965
 20
13.74995136260986
 11
-14.24997138977051
 21
13.49997806549072
  0
LINE
  8
0
  6
CONTINUOUS
 62
     7
 10
-13.89996528625488
 20
19.99998474121094
 11
-14.49996566772461
 21
19.39998054504395
  0
LINE
  8
0
  6
CONTINUOUS
 62
     7
 10
16.90008926391602
 20
19.9998893737793
 11
17.50004768371582
 21
19.39993095397949
  0
LINE
  8
0
  6
CONTINUOUS
 62
     7
 10
16.02000427246094
 20
3.369985103607178
 11
17.25002098083496
 21
4.600003719329834
  0
LINE
  8
0
  6
CONTINUOUS
 62
     7
 10
-14.24989795684815
 20
10.08990859985352
 11
-12.95997333526611
 21
8.79998779296875
  0
LINE
  8
0
  6
CENTER
 62
     7
 10
0
 20
20.87225341796875
 11
0
 21
-0.9647013545036316
  0
LINE
  8
0
  6
CONTINUOUS
 62
     7
 10
-13.19987010955811
 20
19.39999389648438
 11
16.19999694824219
 21
19.39999389648438
  0
LINE
  8
0
  6
CONTINUOUS
 62
     7
 10
-14
 20
18.5999755859375
 11
-14
 21
9.840011596679688
  0
LINE
  8
0
  6
CONTINUOUS
 62
     7
 10
-12.95997333526611
 20
8.79998779296875
 11
-7.5
 21
8.79998779296875
  0
LINE
  8
0
  6
CONTINUOUS
 62
     7
 10
6.506998062133789
 20
3.36998462677002
 11
16.01998901367188
 21
3.36998462677002
  0
LINE
  8
0
  6
CONTINUOUS
 62
     7
 10
-13.99988842010498
 20
18.59989738464356
 11
-13.199875831604
 21
19.3998966217041
  0
LINE
  8
0
  6
CONTINUOUS
 62
     7
 10
17
 20
18.59999084472656
 11
17
 21
4.349982261657715
  0
LINE
  8
0
  6
CONTINUOUS
 62
     7
 10
-3.634518623352051
 20
13.59999561309815
 11
1.375325202941895
 21
13.59999561309815
  0
LINE
  8
0
  6
CONTINUOUS
 62
     7
 10
7.809906005859375
 20
13.59995365142822
 11
9.313733100891113
 21
12.0961275100708
  0
LINE
  8
0
  6
CONTINUOUS
 62
     7
 10
9.60009765625
 20
10.4470100402832
 11
9.60009765625
 21
8.525044441223145
  0
LINE
  8
0
  6
CONTINUOUS
 62
     7
 10
7.100014686584473
 20
5.545653343200684
 11
9.60009765625
 21
8.52513599395752
  0
LINE
  8
0
  6
CONTINUOUS
 62
     7
 10
7.10009765625
 20
5.545654296875
 11
7.10009765625
 21
5.452432632446289
  0
LINE
  8
0
  6
CONTINUOUS
 62
     7
 10
7.100019931793213
 20
5.452436923980713
 11
10.7069091796875
 21
3.369998455047607
  0
LINE
  8
0
  6
CONTINUOUS
 62
     7
 10
-9.599964141845703
 20
10.61725425720215
 11
-6.346251487731934
 21
13.11391639709473
  0
LINE
  8
0
  6
CONTINUOUS
 62
     7
 10
-9.599934577941895
 20
10.61727905273438
 11
-9.599934577941895
 21
8.79998779296875
  0
LINE
  8
0
  6
CONTINUOUS
 62
     7
 10
8.597493171691895
 20
3.199991226196289
 11
15.2000322341919
 21
3.199991226196289
  0
LINE
  8
0
  6
CONTINUOUS
 62
     7
 10
15.2000322341919
 20
3.36998462677002
 11
15.2000322341919
 21
3.199991226196289
  0
LINE
  8
0
  6
CONTINUOUS
 62
     7
 10
8.142251968383789
 20
3.369940042495728
 11
8.297442436218262
 21
3.280340433120728
  0
LINE
  8
0
  6
CONTINUOUS
 62
     7
 10
4.624836921691895
 20
13.59999561309815
 11
7.809895515441895
 21
13.59999561309815
  0
LINE
  8
0
  6
CENTER
 62
     7
 10
-2.5
 20
20.7764892578125
 11
-2.5
 21
11.30851268768311
  0
LINE
  8
0
  6
CONTINUOUS
 62
     7
 10
5.000045776367188
 20
4.239979267120361
 11
7.5
 21
2.796629905700684
  0
LINE
  8
0
  6
DASHED
 62
     7
 10
-2.25
 20
6.199991226196289
 11
-2.25
 21
0.2498840093612671
  0
LINE
  8
0
  6
DASHED
 62
     7
 10
2.25
 20
6.199991226196289
 11
2.25
 21
0.2500043511390686
  0
LINE
  8
0
  6
DASHED
 62
     7
 10
-3.75
 20
11.5
 11
-3.75
 21
6.199991226196289
  0
LINE
  8
0
  6
DASHED
 62
     7
 10
3.75
 20
11.5
 11
3.75
 21
6.199991226196289
  0
LINE
  8
0
  6
DASHED
 62
     7
 10
-3.75
 20
6.199991226196289
 11
3.75
 21
6.199991226196289
  0
LINE
  8
0
  6
CONTINUOUS
 62
     7
 10
-3.75
 20
11.34999561309815
 11
-3.749836921691895
 21
11.34999561309815
  0
LINE
  8
0
  6
CENTER
 62
     7
 10
12.5
 20
20.81304931640625
 11
12.5
 21
8.117893218994141
  0
LINE
  8
0
  6
CONTINUOUS
 62
     7
 10
16.19999504089356
 20
19.39998817443848
 11
16.9999942779541
 21
18.5999870300293
  0
LINE
  8
0
  6
CONTINUOUS
 62
     7
 10
142.3997192382813
 20
84.14990234375
 11
142.3997192382813
 21
52.84992980957031
  0
LINE
  8
0
  6
CONTINUOUS
 62
     7
 10
86.60009765625
 20
53
 11
87.40005493164063
 21
53
  0
LINE
  8
0
  6
CENTER
 62
     7
 10
130.0001525878906
 20
13.25000953674316
 11
130.0001525878906
 21
-1.749990463256836
  0
LINE
  8
0
  6
CENTER
 62
     7
 10
190.0001525878906
 20
13.25000953674316
 11
190.0001525878906
 21
-1.749990463256836
  0
LINE
  8
0
  6
CENTER
 62
     7
 10
130.0001525878906
 20
74.75
 11
130.0001525878906
 21
65.25
  0
LINE
  8
0
  6
CONTINUOUS
 62
     7
 10
9.950032234191895
 20
2.5
 11
12.4500322341919
 21
2.5
  0
LINE
  8
0
  6
CONTINUOUS
 62
     7
 10
-9.950032234191895
 20
8
 11
-12.4500322341919
 21
8
  0
LINE
  8
0
  6
CONTINUOUS
 62
     7
 10
100.8500518798828
 20
2.5
 11
103.3500518798828
 21
2.5
  0
LINE
  8
0
  6
CONTINUOUS
 62
     7
 10
126.4500579833984
 20
2.5
 11
128.9500579833984
 21
2.5
  0
LINE
  8
0
  6
CONTINUOUS
 62
     7
 10
103.8068313598633
 20
2.796639442443848
 11
125.993278503418
 21
2.796639442443848
  0
LINE
  8
0
  6
CONTINUOUS
 62
     7
 10
129.4068298339844
 20
2.796639442443848
 11
209.9998626708984
 21
2.796639442443848
  0
LINE
  8
0
  6
CENTER
 62
     7
 10
3
 20
18.99998092651367
 11
3
 21
11.99997997283936
  0
LINE
  8
0
  6
CENTER
 62
     7
 10
-0.5
 20
15.49997997283936
 11
6.5
 21
15.49997997283936
  0
LINE
  8
0
  6
CENTER
 62
     7
 10
87.12038421630859
 20
15.49999237060547
 11
80.60525512695313
 21
15.49999237060547
  0
LINE
  8
0
  6
CENTER
 62
     7
 10
87.12042999267578
 20
67
 11
80.60530090332031
 21
67
  0
LINE
  8
0
  6
CONTINUOUS
 62
     7
 10
-12.9500322341919
 20
8.79998779296875
 11
-12.9500322341919
 21
8.5
  0
LINE
  8
0
  6
CONTINUOUS
 62
     7
 10
-9.450032234191895
 20
8.79998779296875
 11
-9.450032234191895
 21
8.5
  0
LINE
  8
0
  6
CONTINUOUS
 62
     7
 10
9.450032234191895
 20
3.199991226196289
 11
9.450032234191895
 21
3
  0
LINE
  8
0
  6
CONTINUOUS
 62
     7
 10
12.9500322341919
 20
3.199991226196289
 11
12.9500322341919
 21
3
  0
LINE
  8
0
  6
CONTINUOUS
 62
     7
 10
100.3500518798828
 20
3.200011253356934
 11
100.3500518798828
 21
3
  0
LINE
  8
0
  6
CONTINUOUS
 62
     7
 10
103.8500518798828
 20
3.200011253356934
 11
103.8500518798828
 21
3
  0
LINE
  8
0
  6
CONTINUOUS
 62
     7
 10
125.9500579833984
 20
3.200011253356934
 11
125.9500579833984
 21
3
  0
LINE
  8
0
  6
CONTINUOUS
 62
     7
 10
129.4500579833984
 20
3.200011253356934
 11
129.4500579833984
 21
3
  0
ARC
  8
0
  6
CONTINUOUS
 62
     7
 10
83.3001708984375
 20
67
 40
1.75
 50
211.0028110300002
 51
270.0000726276028
  0
ARC
  8
0
  6
CONTINUOUS
 62
     7
 10
82.4168701171875
 20
67
 40
0.7939993739128129
 50
140.9593677132149
 51
219.0405603424268
  0
ARC
  8
0
  6
CONTINUOUS
 62
     7
 10
83.3001708984375
 20
67
 40
1.750000000000001
 50
89.9999820139105
 51
148.9972436115133
  0
CIRCLE
  8
0
  6
CONTINUOUS
 62
     7
 10
101.9002227783203
 20
57.5
 40
2
  0
CIRCLE
  8
0
  6
CONTINUOUS
 62
     7
 10
101.9002227783203
 20
57.5
 40
1.620999336242676
  0
CIRCLE
  8
0
  6
CONTINUOUS
 62
     7
 10
70.00015258789063
 20
70
 40
3.75
  0
CIRCLE
  8
0
  6
CONTINUOUS
 62
     7
 10
70.00015258789063
 20
70
 40
2.25
  0
ARC
  8
0
  6
CONTINUOUS
 62
     7
 10
83.30012512207031
 20
15.49999904632568
 40
1.75
 50
211.0028110300002
 51
270.0000726276028
  0
ARC
  8
0
  6
CONTINUOUS
 62
     7
 10
82.41682434082031
 20
15.49999904632568
 40
0.7939993739128085
 50
140.9593677132153
 51
219.0405603424271
  0
ARC
  8
0
  6
CONTINUOUS
 62
     7
 10
83.30012512207031
 20
15.49999904632568
 40
1.750000000000001
 50
89.9999820139105
 51
148.9972436115131
  0
CIRCLE
  8
0
  6
CONTINUOUS
 62
     7
 10
3
 20
15.49997997283936
 40
0.5
  0
CIRCLE
  8
0
  6
CONTINUOUS
 62
     7
 10
3
 20
15.49997997283936
 40
2.5
  0
ARC
  8
0
  6
CONTINUOUS
 62
     7
 10
8.597493171691895
 20
3.799997329711914
 40
0.5999999642372133
 50
240.0000239814524
 51
270.0000179860894
  0
CIRCLE
  8
0
  6
CONTINUOUS
 62
     7
 10
3
 20
15.49997997283936
 40
1.75
  0
CIRCLE
  8
0
  6
CONTINUOUS
 62
     7
 10
12.5
 20
11.79999351501465
 40
3.19999885559082
  0
CIRCLE
  8
0
  6
CONTINUOUS
 62
     7
 10
12.5
 20
11.79999351501465
 40
2
  0
CIRCLE
  8
0
  6
CONTINUOUS
 62
     7
 10
-5.5
 20
16.19998168945313
 40
3.19999885559082
  0
CIRCLE
  8
0
  6
CONTINUOUS
 62
     7
 10
-5.5
 20
16.19998168945313
 40
2
  0
ARC
  8
0
  6
CONTINUOUS
 62
     7
 10
7.5
 20
7.5
 40
1.649999618530273
 50
94.1897293338232
 51
185.8102147094544
  0
ARC
  8
0
  6
CONTINUOUS
 62
     7
 10
-7
 20
11.39999961853027
 40
1.649999618530274
 50
261.1221039519609
 51
353.8778931261479
  0
ARC
  8
0
  6
CONTINUOUS
 62
     7
 10
-9.950032234191895
 20
8.5
 40
0.5000000000000004
 50
269.9999974955217
 51
0
  0
ARC
  8
0
  6
CONTINUOUS
 62
     7
 10
9.950032234191895
 20
3
 40
0.5000000000000003
 50
179.999991348578
 51
270.0000006832452
  0
ARC
  8
0
  6
CONTINUOUS
 62
     7
 10
12.4500322341919
 20
3
 40
0.5
 50
269.9999974955217
 51
0
  0
ARC
  8
0
  6
CONTINUOUS
 62
     7
 10
-12.4500322341919
 20
8.5
 40
0.5000000000000003
 50
179.999991348578
 51
270.0000006832452
  0
ARC
  8
0
  6
CONTINUOUS
 62
     7
 10
100.8500518798828
 20
3
 40
0.5000000000000057
 50
179.999991348578
 51
270.0000006832446
  0
ARC
  8
0
  6
CONTINUOUS
 62
     7
 10
103.3500518798828
 20
3
 40
0.5
 50
269.9999974955215
 51
0
  0
ARC
  8
0
  6
CONTINUOUS
 62
     7
 10
126.4500579833984
 20
3
 40
0.5000000000000057
 50
179.999991348578
 51
270.0000006832446
  0
ARC
  8
0
  6
CONTINUOUS
 62
     7
 10
128.9500579833984
 20
3
 40
0.5
 50
269.9999974955215
 51
0
  0
TEXT
  8
0
  6
CONTINUOUS
 62
     7
 10
-1.599999904632568
 20
-36.79999971389771
 40
3.59999942779541
 41
1.039215701857426
  1
GSR15T
  0
ENDSEC
  0
EOF
