  0
SECTION
  2
HEADER
  0
ENDSEC
  0
SECTION
  2
TABLES
  0
TABLE
  2
LTYPE
 70
    22
  0
LTYPE
  2
CONTINUOUS
 70
    64
  3
Solid line
 72
    65
 73
     0
 40
0.000000
  0
LTYPE
  2
DASHED
 70
    64
  3
__ __ __ __ __ __ __ __ __ __ __ __ __ __ __
 72
    65
 73
     2
 40
3.500000
 49
2.000000
 49
-1.500000
  0
LTYPE
  2
CENTER
 70
    64
  3
____ _ ____ _ ____ _ ____ _ ____ _ ____ _ ____
 72
    65
 73
     4
 40
17.500000
 49
13.000000
 49
-1.500000
 49
1.500000
 49
-1.500000
  0
LTYPE
  2
PHANTOM
 70
    64
  3
_____ _ _ _____ _ _ _____ _ _ _____ _ _ ____  
 72
    65
 73
     6
 40
15.500000
 49
8.000000
 49
-1.500000
 49
1.500000
 49
-1.500000
 49
1.500000
 49
-1.500000
  0
LTYPE
  2
DOT
 70
    64
  3
. . . . . . . . . . . . . . . . . . . . . . . .
 72
    65
 73
     2
 40
0.25
 49
0.0
 49
-0.25
  0
ENDTAB
  0
TABLE
  2
LAYER
 70
     1
  0
LAYER
  2
0
 70
     0
 62
     7
  6
CONTINUOUS
  0
ENDTAB
  0
TABLE
  2
STYLE
 70
     1
  0
STYLE
  2
STANDARD
 70
     0
 40
0.000000
 41
1.000000
 50
0.000000
 71
     0
 42
0.200000
  3
txt
  0
ENDTAB
  0
TABLE
  2
VIEW
 70
     0
  0
ENDTAB
  0
ENDSEC
  0
SECTION
  2
BLOCKS
  0
ENDSEC
  0
SECTION
  2
ENTITIES
  0
LINE
  8
0
  6
CONTINUOUS
 62
     7
 10
112.8498992919922
 20
24
 11
112.8498992919922
 21
4
  0
LINE
  8
0
  6
CONTINUOUS
 62
     7
 10
147.1498565673828
 20
24
 11
147.1498565673828
 21
4
  0
LINE
  8
0
  6
CONTINUOUS
 62
     7
 10
112.8498992919922
 20
24
 11
147.1498565673828
 21
24
  0
LINE
  8
0
  6
CONTINUOUS
 62
     7
 10
112.8498992919922
 20
14.30000305175781
 11
147.1498565673828
 21
14.30000305175781
  0
LINE
  8
0
  6
CONTINUOUS
 62
     7
 10
103.9499969482422
 20
4
 11
156.0498809814453
 21
4
  0
LINE
  8
0
  6
CONTINUOUS
 62
     7
 10
103.9499969482422
 20
23.39999389648438
 11
103.9499969482422
 21
3.399993896484375
  0
LINE
  8
0
  6
CONTINUOUS
 62
     7
 10
103.9499969482422
 20
23.39999389648438
 11
112.8498992919922
 21
23.39999389648438
  0
LINE
  8
0
  6
CONTINUOUS
 62
     7
 10
102.9499969482422
 20
23.61996459960938
 11
102.9499969482422
 21
3.399993896484375
  0
LINE
  8
0
  6
CONTINUOUS
 62
     7
 10
100.9499969482422
 20
13.69999694824219
 11
100.9499969482422
 21
3.399993896484375
  0
LINE
  8
0
  6
CONTINUOUS
 62
     7
 10
102.9499969482422
 20
22.79998779296875
 11
103.9499969482422
 21
22.79998779296875
  0
LINE
  8
0
  6
CONTINUOUS
 62
     7
 10
100.9502410888672
 20
13.69970798492432
 11
102.9501800537109
 21
15.69964599609375
  0
LINE
  8
0
  6
CONTINUOUS
 62
     7
 10
156.0498809814453
 20
3.399993896484375
 11
156.0498809814453
 21
23.39999389648438
  0
LINE
  8
0
  6
CONTINUOUS
 62
     7
 10
147.1498718261719
 20
23.39999389648438
 11
156.0498809814453
 21
23.39999389648438
  0
LINE
  8
0
  6
CONTINUOUS
 62
     7
 10
157.0498809814453
 20
3.399993896484375
 11
157.0498809814453
 21
22.79998779296875
  0
LINE
  8
0
  6
CONTINUOUS
 62
     7
 10
159.0498809814453
 20
3.399993896484375
 11
159.0498809814453
 21
13.69999694824219
  0
LINE
  8
0
  6
CONTINUOUS
 62
     7
 10
156.0498809814453
 20
22.79998779296875
 11
157.0498809814453
 21
22.79998779296875
  0
LINE
  8
0
  6
CONTINUOUS
 62
     7
 10
157.0502471923828
 20
15.69964599609375
 11
159.0502166748047
 21
13.69968700408936
  0
LINE
  8
0
  6
CONTINUOUS
 62
     7
 10
100.9499969482422
 20
3.400009155273438
 11
159.0498809814453
 21
3.400009155273438
  0
LINE
  8
0
  6
DASHED
 62
     7
 10
120.7500457763672
 20
13
 11
125.1499481201172
 21
13
  0
LINE
  8
0
  6
DASHED
 62
     7
 10
132.2002258300781
 20
12.99951267242432
 11
130.0002136230469
 21
11.72933864593506
  0
LINE
  8
0
  6
DASHED
 62
     7
 10
127.8004150390625
 20
12.99964237213135
 11
130.0003662109375
 21
11.7294979095459
  0
LINE
  8
0
  6
CENTER
 62
     7
 10
130
 20
24.69757080078125
 11
130
 21
10.74950122833252
  0
LINE
  8
0
  6
DASHED
 62
     7
 10
127.5
 20
24
 11
127.5
 21
16
  0
LINE
  8
0
  6
DASHED
 62
     7
 10
132.5
 20
24
 11
132.5
 21
16
  0
LINE
  8
0
  6
DASHED
 62
     7
 10
127.800048828125
 20
24
 11
127.800048828125
 21
13
  0
LINE
  8
0
  6
DASHED
 62
     7
 10
132.199951171875
 20
24
 11
132.199951171875
 21
13
  0
LINE
  8
0
  6
DASHED
 62
     7
 10
127.5
 20
16
 11
132.5
 21
16
  0
LINE
  8
0
  6
DASHED
 62
     7
 10
132.5003967285156
 20
15.99966812133789
 11
132.2004089355469
 21
15.48006057739258
  0
LINE
  8
0
  6
DASHED
 62
     7
 10
127.5001068115234
 20
15.99971294403076
 11
127.8001403808594
 21
15.48000717163086
  0
LINE
  8
0
  6
CONTINUOUS
 62
     7
 10
100.9502410888672
 20
14.37994384765625
 11
100.9502410888672
 21
23.61991882324219
  0
LINE
  8
0
  6
CONTINUOUS
 62
     7
 10
97.95024108886719
 20
22.99992370605469
 11
100.9502410888672
 21
22.99992370605469
  0
LINE
  8
0
  6
CONTINUOUS
 62
     7
 10
102.9502410888672
 20
23.61991882324219
 11
100.9502410888672
 21
23.61991882324219
  0
LINE
  8
0
  6
CONTINUOUS
 62
     7
 10
102.9502410888672
 20
21.30992126464844
 11
100.9502410888672
 21
21.30992126464844
  0
LINE
  8
0
  6
CONTINUOUS
 62
     7
 10
101.6304168701172
 20
14.37994384765625
 11
100.9502410888672
 21
14.37994384765625
  0
LINE
  8
0
  6
CONTINUOUS
 62
     7
 10
102.9502410888672
 20
16.68994140625
 11
100.9502410888672
 21
16.68994140625
  0
LINE
  8
0
  6
CONTINUOUS
 62
     7
 10
99.05009460449219
 20
15.49993896484375
 11
93.85014343261719
 21
15.49993896484375
  0
LINE
  8
0
  6
CONTINUOUS
 62
     7
 10
99.05009460449219
 20
15.45993041992188
 11
99.05009460449219
 21
15.49993896484375
  0
LINE
  8
0
  6
CONTINUOUS
 62
     7
 10
100.5509262084961
 20
18.99962997436523
 11
99.05093383789063
 21
15.4996395111084
  0
LINE
  8
0
  6
CONTINUOUS
 62
     7
 10
99.65107727050781
 20
18.99957656860352
 11
98.05107116699219
 21
15.49956703186035
  0
LINE
  8
0
  6
CONTINUOUS
 62
     7
 10
93.85025024414063
 20
15.49970245361328
 11
93.45024108886719
 21
16.07973289489746
  0
LINE
  8
0
  6
CONTINUOUS
 62
     7
 10
93.85086059570313
 20
22.49937629699707
 11
93.45086669921875
 21
21.91937065124512
  0
LINE
  8
0
  6
CONTINUOUS
 62
     7
 10
99.05009460449219
 20
22.49992370605469
 11
93.85014343261719
 21
22.49992370605469
  0
LINE
  8
0
  6
CONTINUOUS
 62
     7
 10
99.65019989013672
 20
18.99986076354981
 11
98.05018615722656
 21
22.49986839294434
  0
LINE
  8
0
  6
CONTINUOUS
 62
     7
 10
100.5501327514648
 20
18.99982261657715
 11
99.05014801025391
 21
22.49979209899902
  0
LINE
  8
0
  6
CONTINUOUS
 62
     7
 10
97.95024108886719
 20
14.99993896484375
 11
100.9502410888672
 21
14.99993896484375
  0
LINE
  8
0
  6
CONTINUOUS
 62
     7
 10
50
 20
13
 11
100.9499969482422
 21
13
  0
LINE
  8
0
  6
CONTINUOUS
 62
     7
 10
50
 20
10.86524963378906
 11
100.9499969482422
 21
10.86524963378906
  0
LINE
  8
0
  6
CONTINUOUS
 62
     7
 10
50
 20
7.290008544921875
 11
100.9499969482422
 21
7.290008544921875
  0
LINE
  8
0
  6
CONTINUOUS
 62
     7
 10
50
 20
4.740005493164063
 11
100.9499969482422
 21
4.740005493164063
  0
LINE
  8
0
  6
CONTINUOUS
 62
     7
 10
50
 20
8.480224609375
 11
100.9499969482422
 21
8.480224609375
  0
LINE
  8
0
  6
CONTINUOUS
 62
     7
 10
50
 20
13
 11
50
 21
0
  0
LINE
  8
0
  6
DASHED
 62
     7
 10
65.25
 20
13
 11
65.25
 21
4.5
  0
LINE
  8
0
  6
DASHED
 62
     7
 10
74.75
 20
13
 11
74.75
 21
4.5
  0
LINE
  8
0
  6
DASHED
 62
     7
 10
67
 20
4.5
 11
67
 21
0
  0
LINE
  8
0
  6
DASHED
 62
     7
 10
73
 20
4.5
 11
73
 21
0
  0
LINE
  8
0
  6
DASHED
 62
     7
 10
65.25
 20
4.5
 11
74.75
 21
4.5
  0
LINE
  8
0
  6
CENTER
 62
     7
 10
70
 20
14.37890625
 11
70
 21
-1.583038330078125
  0
LINE
  8
0
  6
CONTINUOUS
 62
     7
 10
50
 20
0
 11
210
 21
0
  0
LINE
  8
0
  6
CENTER
 62
     7
 10
190
 20
14.37890625
 11
190
 21
-1.583038330078125
  0
LINE
  8
0
  6
CONTINUOUS
 62
     7
 10
159.0498809814453
 20
13
 11
210
 21
13
  0
LINE
  8
0
  6
CONTINUOUS
 62
     7
 10
159.0498809814453
 20
10.86524963378906
 11
210
 21
10.86524963378906
  0
LINE
  8
0
  6
CONTINUOUS
 62
     7
 10
159.0498809814453
 20
8.480224609375
 11
210
 21
8.480224609375
  0
LINE
  8
0
  6
CONTINUOUS
 62
     7
 10
159.0498809814453
 20
7.290008544921875
 11
210
 21
7.290008544921875
  0
LINE
  8
0
  6
CONTINUOUS
 62
     7
 10
159.0498809814453
 20
4.740005493164063
 11
210
 21
4.740005493164063
  0
LINE
  8
0
  6
CONTINUOUS
 62
     7
 10
50
 20
3.007949829101563
 11
210
 21
3.007949829101563
  0
LINE
  8
0
  6
CONTINUOUS
 62
     7
 10
210
 20
13
 11
210
 21
0
  0
LINE
  8
0
  6
CONTINUOUS
 62
     7
 10
-8.999755859375
 20
0
 11
-2.999755859375
 21
0
  0
LINE
  8
0
  6
CONTINUOUS
 62
     7
 10
-7.201600074768066
 20
13
 11
9.300048828125
 21
13
  0
LINE
  8
0
  6
CONTINUOUS
 62
     7
 10
-10
 20
11.02540588378906
 11
-10
 21
1
  0
LINE
  8
0
  6
CONTINUOUS
 62
     7
 10
10
 20
12.29998779296875
 11
10
 21
10.86429691314697
  0
LINE
  8
0
  6
CONTINUOUS
 62
     7
 10
7
 20
7.290008544921875
 11
7
 21
4.740005493164063
  0
LINE
  8
0
  6
CONTINUOUS
 62
     7
 10
-9.999711036682129
 20
11.02511119842529
 11
-9.394099235534668
 21
11.44916534423828
  0
LINE
  8
0
  6
CONTINUOUS
 62
     7
 10
7.000494956970215
 20
7.289626121520996
 11
7.94798469543457
 21
8.418800354003906
  0
LINE
  8
0
  6
CONTINUOUS
 62
     7
 10
7.00066089630127
 20
4.739676952362061
 11
10.00066947937012
 21
3.007621765136719
  0
LINE
  8
0
  6
CONTINUOUS
 62
     7
 10
-9.999710083007813
 20
0.9997948408126831
 11
-8.999643325805664
 21
-0.000270540447672829
  0
LINE
  8
0
  6
CONTINUOUS
 62
     7
 10
10.00028800964356
 20
0.999775230884552
 11
9.000286102294922
 21
-0.0002253593265777454
  0
LINE
  8
0
  6
CONTINUOUS
 62
     7
 10
9.300373077392578
 20
12.99968910217285
 11
10.00040149688721
 21
12.29965972900391
  0
LINE
  8
0
  6
CONTINUOUS
 62
     7
 10
10
 20
3.007949829101563
 11
10
 21
1
  0
LINE
  8
0
  6
DASHED
 62
     7
 10
-4.75
 20
13
 11
-4.75
 21
4.5
  0
LINE
  8
0
  6
DASHED
 62
     7
 10
4.75
 20
13
 11
4.75
 21
4.5
  0
LINE
  8
0
  6
DASHED
 62
     7
 10
-3
 20
4.5
 11
-3
 21
0
  0
LINE
  8
0
  6
DASHED
 62
     7
 10
3
 20
4.5
 11
3
 21
0
  0
LINE
  8
0
  6
DASHED
 62
     7
 10
-4.75
 20
4.5
 11
4.75
 21
4.5
  0
LINE
  8
0
  6
CONTINUOUS
 62
     7
 10
3
 20
0
 11
9
 21
0
  0
LINE
  8
0
  6
CONTINUOUS
 62
     7
 10
-2.499588966369629
 20
0.4996533691883087
 11
-2.999589204788208
 21
-0.0003475426055956632
  0
LINE
  8
0
  6
CONTINUOUS
 62
     7
 10
2.50027346611023
 20
0.4997916221618652
 11
3.000392436981201
 21
-0.0003279870725236833
  0
LINE
  8
0
  6
CONTINUOUS
 62
     7
 10
9.820311546325684
 20
10.65015316009522
 11
10
 21
10.86429786682129
  0
LINE
  8
0
  6
CONTINUOUS
 62
     7
 10
-2.5
 20
0.5
 11
2.5
 21
0.5
  0
LINE
  8
0
  6
CONTINUOUS
 62
     7
 10
-19
 20
24
 11
-13.5
 21
24
  0
LINE
  8
0
  6
CONTINUOUS
 62
     7
 10
-20
 20
22.99996948242188
 11
-20
 21
17.30000305175781
  0
LINE
  8
0
  6
CONTINUOUS
 62
     7
 10
23
 20
23.00002861022949
 11
23
 21
14.29926300048828
  0
LINE
  8
0
  6
CONTINUOUS
 62
     7
 10
-13
 20
23.5
 11
-8.5
 21
23.5
  0
LINE
  8
0
  6
CONTINUOUS
 62
     7
 10
0.5000697374343872
 20
23.5
 11
10.50076961517334
 21
23.5
  0
LINE
  8
0
  6
CONTINUOUS
 62
     7
 10
-12.99953842163086
 20
23.49961280822754
 11
-13.49965763092041
 21
23.99973106384277
  0
LINE
  8
0
  6
CONTINUOUS
 62
     7
 10
0.5000696778297424
 20
23.5
 11
5.259925455902703E-005
 21
24
  0
LINE
  8
0
  6
CONTINUOUS
 62
     7
 10
10.50076961517334
 20
23.5
 11
11.00077056884766
 21
24
  0
LINE
  8
0
  6
CONTINUOUS
 62
     7
 10
-8.499588966369629
 20
23.4996337890625
 11
-7.999573707580566
 21
23.99964141845703
  0
LINE
  8
0
  6
CONTINUOUS
 62
     7
 10
-7.999755859375
 20
24
 11
5.286716987029649E-005
 21
24
  0
LINE
  8
0
  6
CONTINUOUS
 62
     7
 10
11.00076961517334
 20
24
 11
22.00004196166992
 21
24
  0
LINE
  8
0
  6
CONTINUOUS
 62
     7
 10
22.00004196166992
 20
24
 11
23
 21
23.00002861022949
  0
LINE
  8
0
  6
CONTINUOUS
 62
     7
 10
-18.99925422668457
 20
23.99932670593262
 11
-19.99924659729004
 21
22.99931716918945
  0
LINE
  8
0
  6
CONTINUOUS
 62
     7
 10
22.7001953125
 20
13.99945735931397
 11
22.7001953125
 21
4.999615669250488
  0
LINE
  8
0
  6
CONTINUOUS
 62
     7
 10
-19.699951171875
 20
17
 11
-19.699951171875
 21
12.489990234375
  0
LINE
  8
0
  6
CONTINUOUS
 62
     7
 10
-19.69954872131348
 20
12.48964500427246
 11
-18.99969100952148
 21
11.7897891998291
  0
LINE
  8
0
  6
CONTINUOUS
 62
     7
 10
22.7001953125
 20
4.999615669250488
 11
21.7005786895752
 21
3.999999523162842
  0
LINE
  8
0
  6
CONTINUOUS
 62
     7
 10
22.7001953125
 20
13.99945735931397
 11
23
 21
14.29926300048828
  0
LINE
  8
0
  6
CONTINUOUS
 62
     7
 10
-19.69965362548828
 20
16.99972724914551
 11
-19.99969100952148
 21
17.29976463317871
  0
LINE
  8
0
  6
CENTER
 62
     7
 10
-4
 20
24.69757080078125
 11
-4
 21
13.06953430175781
  0
LINE
  8
0
  6
CONTINUOUS
 62
     7
 10
-8.03125
 20
15.69999694824219
 11
-2.284197807312012
 21
15.69999694824219
  0
LINE
  8
0
  6
CONTINUOUS
 62
     7
 10
-12.69959926605225
 20
12.43048000335693
 11
-8.030257225036621
 21
15.69998931884766
  0
LINE
  8
0
  6
CONTINUOUS
 62
     7
 10
10.41871356964111
 20
15.69969749450684
 11
12.70041084289551
 21
13.41800117492676
  0
LINE
  8
0
  6
CONTINUOUS
 62
     7
 10
12.7001953125
 20
13.41836547851563
 11
12.7001953125
 21
9.882537841796875
  0
LINE
  8
0
  6
CONTINUOUS
 62
     7
 10
9.695764541625977
 20
6.301345825195313
 11
12.70045471191406
 21
9.882196426391602
  0
LINE
  8
0
  6
CONTINUOUS
 62
     7
 10
9.695764541625977
 20
6.301346302032471
 11
14.72173976898193
 21
3.399598598480225
  0
LINE
  8
0
  6
CONTINUOUS
 62
     7
 10
-19
 20
21.79997253417969
 11
-19
 21
11.41998291015625
  0
LINE
  8
0
  6
CONTINUOUS
 62
     7
 10
22
 20
21.79998588562012
 11
22
 21
4.39923620223999
  0
LINE
  8
0
  6
CONTINUOUS
 62
     7
 10
-18
 20
22.79998779296875
 11
-1.41943359375
 21
22.79998779296875
  0
LINE
  8
0
  6
CONTINUOUS
 62
     7
 10
-17.97991943359375
 20
10.39999961853027
 11
-10
 21
10.39999961853027
  0
LINE
  8
0
  6
CONTINUOUS
 62
     7
 10
9.321044921875
 20
3.399993896484375
 11
21.00075721740723
 21
3.399993896484375
  0
LINE
  8
0
  6
CONTINUOUS
 62
     7
 10
-17.99953651428223
 20
22.79961395263672
 11
-18.99953651428223
 21
21.79961013793945
  0
LINE
  8
0
  6
CONTINUOUS
 62
     7
 10
-18.99967193603516
 20
11.41975021362305
 11
-17.97991943359375
 21
10.39999961853027
  0
LINE
  8
0
  6
CONTINUOUS
 62
     7
 10
22
 20
4.399236679077148
 11
21.00075721740723
 21
3.399993896484375
  0
LINE
  8
0
  6
CONTINUOUS
 62
     7
 10
-12.699951171875
 20
12.43093872070313
 11
-12.699951171875
 21
10.39999961853027
  0
LINE
  8
0
  6
CENTER
 62
     7
 10
0
 20
26.23434448242188
 11
0
 21
-1.583038330078125
  0
LINE
  8
0
  6
CONTINUOUS
 62
     7
 10
-11.349853515625
 20
19.5
 11
-11.349853515625
 21
22.79998779296875
  0
LINE
  8
0
  6
CONTINUOUS
 62
     7
 10
-4.64990234375
 20
19.5
 11
-4.64990234375
 21
22.79998779296875
  0
LINE
  8
0
  6
CONTINUOUS
 62
     7
 10
5.8984375
 20
15.69999694824219
 11
10.41845703125
 21
15.69999694824219
  0
LINE
  8
0
  6
CONTINUOUS
 62
     7
 10
1.418227314949036
 20
22.79998779296875
 11
21
 21
22.79998779296875
  0
LINE
  8
0
  6
CENTER
 62
     7
 10
16
 20
24.69757080078125
 11
16
 21
10.5
  0
LINE
  8
0
  6
CONTINUOUS
 62
     7
 10
21
 20
22.79998779296875
 11
22
 21
21.79998588562012
  0
LINE
  8
0
  6
CONTINUOUS
 62
     7
 10
50
 20
60
 11
92.58782958984375
 21
60
  0
LINE
  8
0
  6
CONTINUOUS
 62
     7
 10
50
 20
77.25018310546875
 11
100.9499969482422
 21
77.25018310546875
  0
LINE
  8
0
  6
CONTINUOUS
 62
     7
 10
50
 20
80
 11
100.9499969482422
 21
80
  0
LINE
  8
0
  6
CENTER
 62
     7
 10
48
 20
70
 11
211.5773773193359
 21
70
  0
LINE
  8
0
  6
CONTINUOUS
 62
     7
 10
50
 20
80
 11
50
 21
60
  0
LINE
  8
0
  6
CONTINUOUS
 62
     7
 10
112.8498992919922
 20
89.99960327148438
 11
147.1498565673828
 21
89.99960327148438
  0
LINE
  8
0
  6
CONTINUOUS
 62
     7
 10
113.3502655029297
 20
77.99922180175781
 11
147.1498565673828
 21
77.99922180175781
  0
LINE
  8
0
  6
CONTINUOUS
 62
     7
 10
112.8498992919922
 20
58.99922180175781
 11
147.1498565673828
 21
58.99922180175781
  0
LINE
  8
0
  6
CONTINUOUS
 62
     7
 10
112.8498992919922
 20
46.99959945678711
 11
147.1498565673828
 21
46.99959945678711
  0
LINE
  8
0
  6
CONTINUOUS
 62
     7
 10
103.9499969482422
 20
89
 11
103.9499969482422
 21
48
  0
LINE
  8
0
  6
CONTINUOUS
 62
     7
 10
112.8498992919922
 20
90
 11
112.8498992919922
 21
47
  0
LINE
  8
0
  6
CONTINUOUS
 62
     7
 10
147.1498565673828
 20
90
 11
147.1498565673828
 21
47
  0
LINE
  8
0
  6
CONTINUOUS
 62
     7
 10
156.0498809814453
 20
89
 11
156.0498809814453
 21
48
  0
LINE
  8
0
  6
CONTINUOUS
 62
     7
 10
157.0498809814453
 20
89
 11
157.0498809814453
 21
48
  0
LINE
  8
0
  6
CONTINUOUS
 62
     7
 10
159.0498809814453
 20
80.69937133789063
 11
159.0498809814453
 21
59.30003356933594
  0
LINE
  8
0
  6
CONTINUOUS
 62
     7
 10
102.9499969482422
 20
89
 11
102.9499969482422
 21
48
  0
LINE
  8
0
  6
CONTINUOUS
 62
     7
 10
100.9499969482422
 20
80.69949340820313
 11
100.9499969482422
 21
59.2999267578125
  0
LINE
  8
0
  6
CONTINUOUS
 62
     7
 10
210
 20
80
 11
210
 21
60
  0
LINE
  8
0
  6
CONTINUOUS
 62
     7
 10
159.0497589111328
 20
80
 11
210
 21
80
  0
LINE
  8
0
  6
CONTINUOUS
 62
     7
 10
159.0497589111328
 20
77.25018310546875
 11
210
 21
77.25018310546875
  0
LINE
  8
0
  6
CONTINUOUS
 62
     7
 10
159.0497589111328
 20
60
 11
210
 21
60
  0
LINE
  8
0
  6
CONTINUOUS
 62
     7
 10
102.9499969482422
 20
48
 11
112.8498992919922
 21
48
  0
LINE
  8
0
  6
CONTINUOUS
 62
     7
 10
102.9499969482422
 20
89
 11
112.8498992919922
 21
89
  0
LINE
  8
0
  6
CONTINUOUS
 62
     7
 10
102.9500045776367
 20
82.699951171875
 11
100.9500045776367
 21
80.69949340820313
  0
LINE
  8
0
  6
CONTINUOUS
 62
     7
 10
102.9499969482422
 20
57.2999267578125
 11
100.9499893188477
 21
59.2999267578125
  0
LINE
  8
0
  6
CENTER
 62
     7
 10
130
 20
57.5
 11
130
 21
50.5
  0
LINE
  8
0
  6
CENTER
 62
     7
 10
126.5
 20
54
 11
133.5
 21
54
  0
LINE
  8
0
  6
CENTER
 62
     7
 10
130
 20
77.5
 11
130
 21
70.5
  0
LINE
  8
0
  6
CENTER
 62
     7
 10
126.5
 20
74
 11
133.5
 21
74
  0
LINE
  8
0
  6
CONTINUOUS
 62
     7
 10
157.0497589111328
 20
89
 11
147.1498565673828
 21
89
  0
LINE
  8
0
  6
CONTINUOUS
 62
     7
 10
157.0497589111328
 20
48
 11
147.1498565673828
 21
48
  0
LINE
  8
0
  6
CONTINUOUS
 62
     7
 10
157.0497589111328
 20
57.29993057250977
 11
159.0497436523438
 21
59.29992294311523
  0
LINE
  8
0
  6
CONTINUOUS
 62
     7
 10
159.0497589111328
 20
80.69949340820313
 11
159.0497589111328
 21
59.29991149902344
  0
LINE
  8
0
  6
CONTINUOUS
 62
     7
 10
157.0497283935547
 20
82.699951171875
 11
159.0497283935547
 21
80.69949340820313
  0
LINE
  8
0
  6
CENTER
 62
     7
 10
70
 20
75.75
 11
70
 21
64.25
  0
LINE
  8
0
  6
CENTER
 62
     7
 10
190
 20
75.75
 11
190
 21
64.25
  0
LINE
  8
0
  6
CONTINUOUS
 62
     7
 10
97.65010070800781
 20
74
 11
102.9499969482422
 21
74
  0
LINE
  8
0
  6
CONTINUOUS
 62
     7
 10
99.27012634277344
 20
66
 11
102.9499969482422
 21
66
  0
LINE
  8
0
  6
CONTINUOUS
 62
     7
 10
93.65010070800781
 20
70
 11
93.65010070800781
 21
68.327880859375
  0
LINE
  8
0
  6
CONTINUOUS
 62
     7
 10
91.43276977539063
 20
60.47844314575195
 11
95.86740112304688
 21
58.64156341552734
  0
LINE
  8
0
  6
CONTINUOUS
 62
     7
 10
91.63453674316406
 20
63.31734085083008
 11
97.73213195800781
 21
60.7916374206543
  0
LINE
  8
0
  6
CONTINUOUS
 62
     7
 10
91.43278503417969
 20
60.47843551635742
 11
91.63454437255859
 21
63.31732940673828
  0
LINE
  8
0
  6
CONTINUOUS
 62
     7
 10
95.86740112304688
 20
58.64155960083008
 11
97.73214721679688
 21
60.7916374206543
  0
LINE
  8
0
  6
CONTINUOUS
 62
     7
 10
92.37326049804688
 20
67.03818511962891
 11
92.78793334960938
 21
68.03926086425781
  0
LINE
  8
0
  6
CONTINUOUS
 62
     7
 10
99.84085083007813
 20
63.94499969482422
 11
100.2555084228516
 21
64.94606018066406
  0
LINE
  8
0
  6
CONTINUOUS
 62
     7
 10
93.56736755371094
 20
68.36207580566406
 11
92.78792572021484
 21
68.03922271728516
  0
LINE
  8
0
  6
CONTINUOUS
 62
     7
 10
94.01055145263672
 20
65.71058654785156
 11
94.88312530517578
 21
67.81715393066406
  0
LINE
  8
0
  6
CONTINUOUS
 62
     7
 10
97.74431610107422
 20
64.16399383544922
 11
98.61689758300781
 21
66.27057647705078
  0
LINE
  8
0
  6
CONTINUOUS
 62
     7
 10
93.56736755371094
 20
68.36215972900391
 11
99.93267059326172
 21
65.72556304931641
  0
LINE
  8
0
  6
CONTINUOUS
 62
     7
 10
100.2555160522461
 20
64.946044921875
 11
99.93265533447266
 21
65.72549438476563
  0
LINE
  8
0
  6
CONTINUOUS
 62
     7
 10
97.65261840820313
 20
60.69993591308594
 11
100.9499969482422
 21
60.69993591308594
  0
LINE
  8
0
  6
CONTINUOUS
 62
     7
 10
97.04557800292969
 20
60
 11
100.9499969482422
 21
60
  0
LINE
  8
0
  6
CONTINUOUS
 62
     7
 10
1.779986143112183
 20
22.50001525878906
 11
5.8599853515625
 21
22.50001525878906
  0
LINE
  8
0
  6
CONTINUOUS
 62
     7
 10
1.779998779296875
 20
15.50001525878906
 11
5.8599853515625
 21
15.50001525878906
  0
LINE
  8
0
  6
CONTINUOUS
 62
     7
 10
1.129989147186279
 20
18.99997520446777
 11
1.779982447624207
 21
15.49997806549072
  0
LINE
  8
0
  6
CONTINUOUS
 62
     7
 10
1.129986763000488
 20
18.99998474121094
 11
1.779986143112183
 21
22.50001525878906
  0
LINE
  8
0
  6
CONTINUOUS
 62
     7
 10
3.440005302429199
 20
18.99996185302734
 11
4.090013980865479
 21
15.49996185302734
  0
LINE
  8
0
  6
CONTINUOUS
 62
     7
 10
3.439975261688232
 20
18.99998664855957
 11
4.089989185333252
 21
22.50001525878906
  0
LINE
  8
0
  6
CONTINUOUS
 62
     7
 10
5.950160026550293
 20
15.97081661224365
 11
5.859989643096924
 21
15.4999885559082
  0
LINE
  8
0
  6
CONTINUOUS
 62
     7
 10
5.950029373168945
 20
22.0200080871582
 11
5.860021591186523
 21
22.5
  0
LINE
  8
0
  6
CONTINUOUS
 62
     7
 10
7.76594877243042
 20
15.75430393218994
 11
10.51998043060303
 21
16.49997901916504
  0
LINE
  8
0
  6
CONTINUOUS
 62
     7
 10
7.749971866607666
 20
22.25000381469727
 11
10.51998424530029
 21
21.50000190734863
  0
LINE
  8
0
  6
CONTINUOUS
 62
     7
 10
0.0004941538209095597
 20
14.38090705871582
 11
1.947718858718872
 21
15.50001621246338
  0
LINE
  8
0
  6
CONTINUOUS
 62
     7
 10
0.0005121052381582558
 20
14.38091850280762
 11
-4.000482559204102
 21
16.69089317321777
  0
LINE
  8
0
  6
CONTINUOUS
 62
     7
 10
-4.000481605529785
 20
16.69089698791504
 11
-4.000998497009277
 21
21.31000709533691
  0
LINE
  8
0
  6
CONTINUOUS
 62
     7
 10
-4.001006603240967
 20
21.31000518798828
 11
-0.0004839083994738758
 21
23.61911201477051
  0
LINE
  8
0
  6
CONTINUOUS
 62
     7
 10
-0.0005230832612141967
 20
23.61910438537598
 11
1.937814354896545
 21
22.50000381469727
  0
LINE
  8
0
  6
CENTER
 62
     7
 10
130
 20
75.75
 11
130
 21
64.25
  0
LINE
  8
0
  6
CENTER
 62
     7
 10
130
 20
9.586071968078613
 11
130
 21
-1.583038330078125
  0
LINE
  8
0
  6
DASHED
 62
     7
 10
100.9499969482422
 20
13
 11
159.0498809814453
 21
13
  0
LINE
  8
0
  6
CONTINUOUS
 62
     7
 10
92.60304260253906
 20
66.29358673095703
 11
99.15181732177734
 21
63.58097076416016
  0
LINE
  8
0
  6
CONTINUOUS
 62
     7
 10
112.8498992919922
 20
83.49960327148438
 11
147.1498565673828
 21
83.49960327148438
  0
LINE
  8
0
  6
CONTINUOUS
 62
     7
 10
21.60076332092285
 20
4
 11
21.7005786895752
 21
4
  0
LINE
  8
0
  6
CENTER
 62
     7
 10
-5.088861465454102
 20
19.00001525878906
 11
12.8124885559082
 21
19.00001525878906
  0
LINE
  8
0
  6
CENTER
 62
     7
 10
103.750732421875
 20
18.99993133544922
 11
90.20459747314453
 21
18.99993133544922
  0
LINE
  8
0
  6
CENTER
 62
     7
 10
93.20564270019531
 20
58.48666381835938
 11
97.97468566894531
 21
70
  0
ARC
  8
0
  6
CONTINUOUS
 62
     7
 10
97.95024108886719
 20
19.00004577636719
 40
3.999999999999998
 50
89.99998201391055
 51
118.4958044387706
  0
ARC
  8
0
  6
CONTINUOUS
 62
     7
 10
97.95024108886719
 20
19.00004577636719
 40
3.982465744018556
 50
241.5040862782025
 51
269.9999087030625
  0
CIRCLE
  8
0
  6
CONTINUOUS
 62
     7
 10
16
 20
13.99998760223389
 40
2
  0
CIRCLE
  8
0
  6
CONTINUOUS
 62
     7
 10
16
 20
13.99998760223389
 40
3.34999942779541
  0
ARC
  8
0
  6
CONTINUOUS
 62
     7
 10
0
 20
19
 40
4
 50
240.0000239814524
 51
241.0449882829511
  0
CIRCLE
  8
0
  6
CONTINUOUS
 62
     7
 10
130
 20
54
 40
2.5
  0
CIRCLE
  8
0
  6
CONTINUOUS
 62
     7
 10
70
 20
70
 40
4.75
  0
CIRCLE
  8
0
  6
CONTINUOUS
 62
     7
 10
190
 20
70
 40
4.75
  0
CIRCLE
  8
0
  6
CONTINUOUS
 62
     7
 10
190
 20
70
 40
3
  0
CIRCLE
  8
0
  6
CONTINUOUS
 62
     7
 10
70
 20
70
 40
3
  0
ARC
  8
0
  6
CONTINUOUS
 62
     7
 10
94.683349609375
 20
62.05447387695313
 40
3.299999237060547
 50
131.5803705110074
 51
157.4999548639654
  0
ARC
  8
0
  6
CONTINUOUS
 62
     7
 10
94.683349609375
 20
62.05447387695313
 40
3.29999923706055
 50
337.5000181569006
 51
3.419602296415172
  0
ARC
  8
0
  6
CONTINUOUS
 62
     7
 10
86.76699829101563
 20
64.90057373046875
 40
5.999999999999996
 50
2.433650829345525
 51
20.87173987704918
  0
ARC
  8
0
  6
CONTINUOUS
 62
     7
 10
102.2935333251953
 20
58.46926879882813
 40
5.999999999999998
 50
114.1278165022774
 51
132.5663219780771
  0
ARC
  8
0
  6
CONTINUOUS
 62
     7
 10
91.96229553222656
 20
65.12136840820313
 40
0.7999999523162822
 50
311.5798327472963
 51
2.433049772698627
  0
ARC
  8
0
  6
CONTINUOUS
 62
     7
 10
98.77603149414063
 20
62.29902648925781
 40
0.7999999523162896
 50
132.5669776762376
 51
183.4201402735703
  0
ARC
  8
0
  6
CONTINUOUS
 62
     7
 10
97.65010070800781
 20
70
 40
3.999999999999998
 50
89.99998201391055
 51
180.0000186693347
  0
ARC
  8
0
  6
CONTINUOUS
 62
     7
 10
-8
 20
19.5
 40
3.34999942779541
 50
180.0000359721787
 51
359.9999826971572
  0
CIRCLE
  8
0
  6
CONTINUOUS
 62
     7
 10
-8
 20
19.5
 40
2
  0
ARC
  8
0
  6
CONTINUOUS
 62
     7
 10
10
 20
8.600000381469727
 40
2.059999465942383
 50
94.95367233211078
 51
185.0462717111668
  0
ARC
  8
0
  6
CONTINUOUS
 62
     7
 10
-9.199999809265137
 20
13.5
 40
2.059999465942383
 50
264.5934041636473
 51
345.9529612359655
  0
ARC
  8
0
  6
CONTINUOUS
 62
     7
 10
6.620010375976563
 20
14.92001342773438
 40
1.246148109436035
 50
47.0816926470972
 51
122.5160537842402
  0
ARC
  8
0
  6
CONTINUOUS
 62
     7
 10
6.620010375976563
 20
23.08001708984375
 40
1.254199028015139
 50
237.7138230624658
 51
314.2737310729351
  0
ARC
  8
0
  6
CONTINUOUS
 62
     7
 10
0
 20
19.00001525878906
 40
4
 50
240.0000239814524
 51
241.0449882829511
  0
ARC
  8
0
  6
CONTINUOUS
 62
     7
 10
0
 20
19.00001525878906
 40
3.998106002807619
 50
61.09402038976974
 51
298.9059076658729
  0
CIRCLE
  8
0
  6
CONTINUOUS
 62
     7
 10
130
 20
54
 40
2.09999942779541
  0
POLYLINE
  8
0
  6
CONTINUOUS
 62
     7
 66
     1
 10
0
 20
0
  0
VERTEX
  8
0
  6
CONTINUOUS
 62
     7
 10
93.65062185545254
 20
21.50004545002371
 42
0.1103678790277297
  0
VERTEX
  8
0
  6
CONTINUOUS
 62
     7
 10
92.73846855584421
 20
21.29502714504363
 42
0.1024794912594627
  0
VERTEX
  8
0
  6
CONTINUOUS
 62
     7
 10
91.99109558461116
 20
20.73107801522296
 42
0.09326669543146518
  0
VERTEX
  8
0
  6
CONTINUOUS
 62
     7
 10
91.51334892941591
 20
19.92427435125025
 42
0.0877954845077758
  0
VERTEX
  8
0
  6
CONTINUOUS
 62
     7
 10
91.35023308807207
 20
19.00038736268301
 42
0.0877776927091609
  0
VERTEX
  8
0
  6
CONTINUOUS
 62
     7
 10
91.51266900400535
 20
18.07672398282405
 42
0.09328015411314942
  0
VERTEX
  8
0
  6
CONTINUOUS
 62
     7
 10
91.98974916973592
 20
17.26979886156193
 42
0.1026576459135985
  0
VERTEX
  8
0
  6
CONTINUOUS
 62
     7
 10
92.73785184214792
 20
16.7049467610403
 42
0.1104419357534901
  0
VERTEX
  8
0
  6
CONTINUOUS
 62
     7
 10
93.65040402329022
 20
16.50004621289275
 42
0.1103647255960868
  0
VERTEX
  8
0
  6
CONTINUOUS
 62
     7
 10
94.56249737480805
 20
16.70533751787158
 42
0.1024728626588392
  0
VERTEX
  8
0
  6
CONTINUOUS
 62
     7
 10
95.30971421796545
 20
17.26949525301501
 42
0.09326138525865335
  0
VERTEX
  8
0
  6
CONTINUOUS
 62
     7
 10
95.78725666417229
 20
18.07642106980695
 42
0.08778984586886786
  0
VERTEX
  8
0
  6
CONTINUOUS
 62
     7
 10
95.95015155569425
 20
19.00030722156983
 42
0.08777959262456354
  0
VERTEX
  8
0
  6
CONTINUOUS
 62
     7
 10
95.78750819625378
 20
19.92393469042544
 42
0.09328527344189237
  0
VERTEX
  8
0
  6
CONTINUOUS
 62
     7
 10
95.31023542651217
 20
20.73074604038443
 42
0.1026639553117674
  0
VERTEX
  8
0
  6
CONTINUOUS
 62
     7
 10
94.56198505704415
 20
21.29540180400106
 42
0.1104350445379252
  0
VERTEX
  8
0
  6
CONTINUOUS
 62
     7
 10
93.64945879974891
 20
21.50004510683566
 42
0
  0
SEQEND
  8
0
  0
POLYLINE
  8
0
  6
CONTINUOUS
 62
     7
 66
     1
 10
0
 20
0
  0
VERTEX
  8
0
  6
CONTINUOUS
 62
     7
 10
94.75090874059187
 20
22.25004427874557
 42
0.01434924094443613
  0
VERTEX
  8
0
  6
CONTINUOUS
 62
     7
 10
94.59202800750759
 20
22.24548310769162
 42
0.01426046734074291
  0
VERTEX
  8
0
  6
CONTINUOUS
 62
     7
 10
94.43441335097063
 20
22.23190728848292
 42
0.01417541235242211
  0
VERTEX
  8
0
  6
CONTINUOUS
 62
     7
 10
94.27830755539047
 20
22.20946360856188
 42
0.0141500219565749
  0
VERTEX
  8
0
  6
CONTINUOUS
 62
     7
 10
94.12334013973241
 20
22.17813959717332
 42
0.01410018553103734
  0
VERTEX
  8
0
  6
CONTINUOUS
 62
     7
 10
93.97007413782673
 20
22.13803202509542
 42
0.01402767689214652
  0
VERTEX
  8
0
  6
CONTINUOUS
 62
     7
 10
93.81905423292852
 20
22.08928914050391
 42
0.01393464311537759
  0
VERTEX
  8
0
  6
CONTINUOUS
 62
     7
 10
93.67080129039663
 20
22.03210644286033
 42
0.01382352716131102
  0
VERTEX
  8
0
  6
CONTINUOUS
 62
     7
 10
93.52580775249395
 20
21.96672168331716
 42
0.01369698307166186
  0
VERTEX
  8
0
  6
CONTINUOUS
 62
     7
 10
93.38453401175765
 20
21.89340930958502
 42
0.01355778934327287
  0
VERTEX
  8
0
  6
CONTINUOUS
 62
     7
 10
93.24740582595804
 20
21.81247458959815
 42
0.01332162025426313
  0
VERTEX
  8
0
  6
CONTINUOUS
 62
     7
 10
93.1156644319716
 20
21.72484760077254
 42
0.01328666936853793
  0
VERTEX
  8
0
  6
CONTINUOUS
 62
     7
 10
92.98761403676038
 20
21.62947608901064
 42
0.01315225609028752
  0
VERTEX
  8
0
  6
CONTINUOUS
 62
     7
 10
92.86454468525086
 20
21.52727233181791
 42
0.01293451221999517
  0
VERTEX
  8
0
  6
CONTINUOUS
 62
     7
 10
92.74749273939781
 20
21.41927013813025
 42
0.01277655720791178
  0
VERTEX
  8
0
  6
CONTINUOUS
 62
     7
 10
92.63614628821415
 20
21.30539456847543
 42
0.01262161994287963
  0
VERTEX
  8
0
  6
CONTINUOUS
 62
     7
 10
92.53072434263049
 20
21.18601196432493
 42
0
  0
SEQEND
  8
0
  0
POLYLINE
  8
0
  6
CONTINUOUS
 62
     7
 66
     1
 10
0
 20
0
  0
VERTEX
  8
0
  6
CONTINUOUS
 62
     7
 10
92.52606381247024
 20
16.81864767632962
 42
0.06285221375179806
  0
VERTEX
  8
0
  6
CONTINUOUS
 62
     7
 10
93.09038257613804
 20
16.29249897570247
 42
0.06651553073198349
  0
VERTEX
  8
0
  6
CONTINUOUS
 62
     7
 10
93.77042308881052
 20
15.92807650420656
 42
0.06916598745207765
  0
VERTEX
  8
0
  6
CONTINUOUS
 62
     7
 10
94.5228017417349
 20
15.75935290228841
 42
0.06975127229721372
  0
VERTEX
  8
0
  6
CONTINUOUS
 62
     7
 10
95.29154376633557
 20
15.80350128885357
 42
0.06815132897045549
  0
VERTEX
  8
0
  6
CONTINUOUS
 62
     7
 10
96.01935234675665
 20
16.05544743550758
 42
0.06497677635548452
  0
VERTEX
  8
0
  6
CONTINUOUS
 62
     7
 10
96.65587316205787
 20
16.49034505709574
 42
0.06127157940951516
  0
VERTEX
  8
0
  6
CONTINUOUS
 62
     7
 10
97.16391534710779
 20
17.07045887024734
 42
0.05806445624216969
  0
VERTEX
  8
0
  6
CONTINUOUS
 62
     7
 10
97.52094230247398
 20
17.75443734206761
 42
0.05589642816567524
  0
VERTEX
  8
0
  6
CONTINUOUS
 62
     7
 10
97.71466919276232
 20
18.50156149823012
 42
0.05496198310149027
  0
VERTEX
  8
0
  6
CONTINUOUS
 62
     7
 10
97.73977137356269
 20
19.27227746557138
 42
0.05547965065079272
  0
VERTEX
  8
0
  6
CONTINUOUS
 62
     7
 10
97.59577247813502
 20
20.03018074074512
 42
0.05729309227615569
  0
VERTEX
  8
0
  6
CONTINUOUS
 62
     7
 10
97.28641208254199
 20
20.73664152120453
 42
0.06028662424497879
  0
VERTEX
  8
0
  6
CONTINUOUS
 62
     7
 10
96.8211773475943
 20
21.35195267821052
 42
0.06397291359594481
  0
VERTEX
  8
0
  6
CONTINUOUS
 62
     7
 10
96.21893741740151
 20
21.83428638303971
 42
0.06746183289377802
  0
VERTEX
  8
0
  6
CONTINUOUS
 62
     7
 10
95.51223801143728
 20
22.14364159495045
 42
0.06951898413652982
  0
VERTEX
  8
0
  6
CONTINUOUS
 62
     7
 10
94.74955944167475
 20
22.25004394871039
 42
0
  0
SEQEND
  8
0
  0
POLYLINE
  8
0
  6
CONTINUOUS
 62
     7
 66
     1
 10
0
 20
0
  0
VERTEX
  8
0
  6
CONTINUOUS
 62
     7
 10
7.749984741210938
 20
22.25001525878906
 42
0.1886538464119077
  0
VERTEX
  8
0
  6
CONTINUOUS
 62
     7
 10
7.335160773766841
 20
22.06583153596625
 42
0.07588971920539792
  0
VERTEX
  8
0
  6
CONTINUOUS
 62
     7
 10
7.053701282061705
 20
21.69911464642593
 42
0.0394622224699008
  0
VERTEX
  8
0
  6
CONTINUOUS
 62
     7
 10
6.858284148362927
 20
21.27759004926712
 42
0.02589539619562349
  0
VERTEX
  8
0
  6
CONTINUOUS
 62
     7
 10
6.71812034853466
 20
20.83433224110098
 42
0.01963291058201316
  0
VERTEX
  8
0
  6
CONTINUOUS
 62
     7
 10
6.618190317446635
 20
20.37953345342769
 42
0.01635593825783692
  0
VERTEX
  8
0
  6
CONTINUOUS
 62
     7
 10
6.550963682778273
 20
19.91859460050183
 42
0.01463209697122134
  0
VERTEX
  8
0
  6
CONTINUOUS
 62
     7
 10
6.512271049712813
 20
19.4543205268619
 42
0.01388375843706679
  0
VERTEX
  8
0
  6
CONTINUOUS
 62
     7
 10
6.500007746028746
 20
18.98860766306319
 42
0.01386095710778748
  0
VERTEX
  8
0
  6
CONTINUOUS
 62
     7
 10
6.513466759842939
 20
18.52427351030955
 42
0.0146718507127925
  0
VERTEX
  8
0
  6
CONTINUOUS
 62
     7
 10
6.553364834909982
 20
18.06057234191342
 42
0.01650631643126807
  0
VERTEX
  8
0
  6
CONTINUOUS
 62
     7
 10
6.622164234517194
 20
17.59872952070839
 42
0.0198551284046129
  0
VERTEX
  8
0
  6
CONTINUOUS
 62
     7
 10
6.723857041984419
 20
17.14412686849437
 42
0.02639125479608299
  0
VERTEX
  8
0
  6
CONTINUOUS
 62
     7
 10
6.866604951683787
 20
16.70067363485194
 42
0.04065093699737601
  0
VERTEX
  8
0
  6
CONTINUOUS
 62
     7
 10
7.066036366289311
 20
16.27971664382847
 42
0.07989318013083734
  0
VERTEX
  8
0
  6
CONTINUOUS
 62
     7
 10
7.355366173211047
 20
15.91624254959862
 42
0.197747868707547
  0
VERTEX
  8
0
  6
CONTINUOUS
 62
     7
 10
7.777851141720044
 20
15.75082227279229
 42
0
  0
SEQEND
  8
0
  0
POLYLINE
  8
0
  6
CONTINUOUS
 62
     7
 66
     1
 10
0
 20
0
 70
     1
  0
VERTEX
  8
0
  6
CONTINUOUS
 62
     7
 10
10.52000427246094
 20
21.50001525878906
 42
0.255159355768751
  0
VERTEX
  8
0
  6
CONTINUOUS
 62
     7
 10
9.990194622653798
 20
21.07512712132292
 42
0.06319138466473721
  0
VERTEX
  8
0
  6
CONTINUOUS
 62
     7
 10
9.736099791620044
 20
20.41224050337332
 42
0.03518639001415452
  0
VERTEX
  8
0
  6
CONTINUOUS
 62
     7
 10
9.609370343894867
 20
19.71219081742894
 42
0.02798532606411248
  0
VERTEX
  8
0
  6
CONTINUOUS
 62
     7
 10
9.570008277893066
 20
19.00001525878906
 42
0.02789943120403891
  0
VERTEX
  8
0
  6
CONTINUOUS
 62
     7
 10
9.609141665537262
 20
18.28986780997895
 42
0.03516017082314629
  0
VERTEX
  8
0
  6
CONTINUOUS
 62
     7
 10
9.735635265585696
 20
17.58957736264301
 42
0.06315570855203358
  0
VERTEX
  8
0
  6
CONTINUOUS
 62
     7
 10
9.989666920672248
 20
16.92583711819632
 42
0.2552846338309618
  0
VERTEX
  8
0
  6
CONTINUOUS
 62
     7
 10
10.52000427246094
 20
16.50001525878906
 42
0.2551593557688034
  0
VERTEX
  8
0
  6
CONTINUOUS
 62
     7
 10
11.04981392226808
 20
16.92490339625521
 42
0.06319138466472372
  0
VERTEX
  8
0
  6
CONTINUOUS
 62
     7
 10
11.30390875330183
 20
17.58779001420481
 42
0.03518639001415908
  0
VERTEX
  8
0
  6
CONTINUOUS
 62
     7
 10
11.43063820102701
 20
18.28783970014919
 42
0.0279853260641247
  0
VERTEX
  8
0
  6
CONTINUOUS
 62
     7
 10
11.47000026702881
 20
19.00001525878906
 42
0.02789943120403313
  0
VERTEX
  8
0
  6
CONTINUOUS
 62
     7
 10
11.43086687938461
 20
19.71016270759917
 42
0.03516017082314361
  0
VERTEX
  8
0
  6
CONTINUOUS
 62
     7
 10
11.30437327933618
 20
20.41045315493511
 42
0.06315570855204591
  0
VERTEX
  8
0
  6
CONTINUOUS
 62
     7
 10
11.05034162424963
 20
21.07419339938181
 42
0.2552846338311033
  0
SEQEND
  8
0
  0
TEXT
  8
0
  6
CONTINUOUS
 62
     7
 10
-1.599999904632568
 20
-16.79999971389771
 40
3.59999942779541
 41
1.039215701857426
  1
GSR20V
  0
ENDSEC
  0
EOF
