  0
SECTION
  2
HEADER
  0
ENDSEC
  0
SECTION
  2
TABLES
  0
TABLE
  2
LTYPE
 70
    22
  0
LTYPE
  2
CONTINUOUS
 70
    64
  3
Solid line
 72
    65
 73
     0
 40
0.000000
  0
LTYPE
  2
DASHED
 70
    64
  3
__ __ __ __ __ __ __ __ __ __ __ __ __ __ __
 72
    65
 73
     2
 40
3.500000
 49
2.000000
 49
-1.500000
  0
LTYPE
  2
CENTER
 70
    64
  3
____ _ ____ _ ____ _ ____ _ ____ _ ____ _ ____
 72
    65
 73
     4
 40
17.500000
 49
13.000000
 49
-1.500000
 49
1.500000
 49
-1.500000
  0
LTYPE
  2
PHANTOM
 70
    64
  3
_____ _ _ _____ _ _ _____ _ _ _____ _ _ ____  
 72
    65
 73
     6
 40
15.500000
 49
8.000000
 49
-1.500000
 49
1.500000
 49
-1.500000
 49
1.500000
 49
-1.500000
  0
LTYPE
  2
DOT
 70
    64
  3
. . . . . . . . . . . . . . . . . . . . . . . .
 72
    65
 73
     2
 40
0.25
 49
0.0
 49
-0.25
  0
ENDTAB
  0
TABLE
  2
LAYER
 70
     1
  0
LAYER
  2
0
 70
     0
 62
     7
  6
CONTINUOUS
  0
ENDTAB
  0
TABLE
  2
STYLE
 70
     1
  0
STYLE
  2
STANDARD
 70
     0
 40
0.000000
 41
1.000000
 50
0.000000
 71
     0
 42
0.200000
  3
txt
  0
ENDTAB
  0
TABLE
  2
VIEW
 70
     0
  0
ENDTAB
  0
ENDSEC
  0
SECTION
  2
BLOCKS
  0
ENDSEC
  0
SECTION
  2
ENTITIES
  0
LINE
  8
0
  6
CENTER
 62
     7
 10
170
 20
32.92109680175781
 11
170
 21
15.05572509765625
  0
LINE
  8
0
  6
CONTINUOUS
 62
     7
 10
119.900146484375
 20
29.99998474121094
 11
119.900146484375
 21
5.199996948242188
  0
LINE
  8
0
  6
CONTINUOUS
 62
     7
 10
180.0999908447266
 20
29.99998474121094
 11
180.0999908447266
 21
5.199996948242188
  0
LINE
  8
0
  6
CONTINUOUS
 62
     7
 10
109.5
 20
5.199996948242188
 11
190.5000152587891
 21
5.199996948242188
  0
LINE
  8
0
  6
CONTINUOUS
 62
     7
 10
119.900146484375
 20
17.30000305175781
 11
180.0999908447266
 21
17.30000305175781
  0
LINE
  8
0
  6
CONTINUOUS
 62
     7
 10
119.900146484375
 20
29.99998474121094
 11
180.0999908447266
 21
29.99998474121094
  0
LINE
  8
0
  6
CONTINUOUS
 62
     7
 10
109.5
 20
29.39999389648438
 11
109.5
 21
4.499984741210938
  0
LINE
  8
0
  6
CONTINUOUS
 62
     7
 10
109.5
 20
29.39999389648438
 11
119.900146484375
 21
29.39999389648438
  0
LINE
  8
0
  6
CONTINUOUS
 62
     7
 10
109.5
 20
4.499984741210938
 11
190.5000152587891
 21
4.499984741210938
  0
LINE
  8
0
  6
CONTINUOUS
 62
     7
 10
190.5000152587891
 20
4.499984741210938
 11
190.5000152587891
 21
29.39999389648438
  0
LINE
  8
0
  6
CONTINUOUS
 62
     7
 10
180.1000061035156
 20
29.39999389648438
 11
190.5000152587891
 21
29.39999389648438
  0
LINE
  8
0
  6
CENTER
 62
     7
 10
130
 20
32.22746276855469
 11
130
 21
14.70771789550781
  0
LINE
  8
0
  6
DASHED
 62
     7
 10
127
 20
30
 11
127
 21
20
  0
LINE
  8
0
  6
DASHED
 62
     7
 10
133
 20
29.99996948242188
 11
133
 21
20
  0
LINE
  8
0
  6
DASHED
 62
     7
 10
127.5
 20
29.99998474121094
 11
127.5
 21
17
  0
LINE
  8
0
  6
DASHED
 62
     7
 10
132.5
 20
29.99998474121094
 11
132.5
 21
17
  0
LINE
  8
0
  6
DASHED
 62
     7
 10
127
 20
20
 11
133
 21
20
  0
LINE
  8
0
  6
DASHED
 62
     7
 10
127.5
 20
17
 11
132.5
 21
17
  0
LINE
  8
0
  6
DASHED
 62
     7
 10
130.0001220703125
 20
15.55643558502197
 11
132.5001220703125
 21
16.99980926513672
  0
LINE
  8
0
  6
DASHED
 62
     7
 10
127.5001754760742
 20
16.99984931945801
 11
130.0001525878906
 21
15.55648994445801
  0
LINE
  8
0
  6
DASHED
 62
     7
 10
127.0000839233398
 20
19.99985885620117
 11
127.5000839233398
 21
19.13383483886719
  0
LINE
  8
0
  6
DASHED
 62
     7
 10
132.5002288818359
 20
19.13381004333496
 11
133.0002288818359
 21
19.99983596801758
  0
LINE
  8
0
  6
CONTINUOUS
 62
     7
 10
103
 20
26.99993896484375
 11
106
 21
26.99993896484375
  0
LINE
  8
0
  6
CONTINUOUS
 62
     7
 10
107.0800170898438
 20
18.37995910644531
 11
106
 21
18.37995910644531
  0
LINE
  8
0
  6
CONTINUOUS
 62
     7
 10
108
 20
20.68995666503906
 11
106
 21
20.68995666503906
  0
LINE
  8
0
  6
CONTINUOUS
 62
     7
 10
104.10009765625
 20
19.49995422363281
 11
98.900146484375
 21
19.49995422363281
  0
LINE
  8
0
  6
CONTINUOUS
 62
     7
 10
104.10009765625
 20
19.45994567871094
 11
104.10009765625
 21
19.49995422363281
  0
LINE
  8
0
  6
CONTINUOUS
 62
     7
 10
105.6003189086914
 20
22.99982643127441
 11
104.1003112792969
 21
19.49980735778809
  0
LINE
  8
0
  6
CONTINUOUS
 62
     7
 10
104.7003784179688
 20
22.99980926513672
 11
103.1003646850586
 21
19.49979972839356
  0
LINE
  8
0
  6
CONTINUOUS
 62
     7
 10
98.90021514892578
 20
19.49961853027344
 11
98.50020599365234
 21
20.07964897155762
  0
LINE
  8
0
  6
CONTINUOUS
 62
     7
 10
98.90011596679688
 20
26.49980163574219
 11
98.5001220703125
 21
25.91979598999023
  0
LINE
  8
0
  6
CONTINUOUS
 62
     7
 10
104.10009765625
 20
26.49993896484375
 11
98.900146484375
 21
26.49993896484375
  0
LINE
  8
0
  6
CONTINUOUS
 62
     7
 10
104.700080871582
 20
22.99990463256836
 11
103.1000671386719
 21
26.49991416931152
  0
LINE
  8
0
  6
CONTINUOUS
 62
     7
 10
105.6000137329102
 20
22.99992179870606
 11
104.1000213623047
 21
26.49989891052246
  0
LINE
  8
0
  6
CONTINUOUS
 62
     7
 10
103
 20
18.99995422363281
 11
106
 21
18.99995422363281
  0
LINE
  8
0
  6
CONTINUOUS
 62
     7
 10
70
 20
16.5
 11
106
 21
16.5
  0
LINE
  8
0
  6
CONTINUOUS
 62
     7
 10
70
 20
13.44113159179688
 11
106
 21
13.44113159179688
  0
LINE
  8
0
  6
CONTINUOUS
 62
     7
 10
70
 20
10.57733154296875
 11
106
 21
10.57733154296875
  0
LINE
  8
0
  6
CONTINUOUS
 62
     7
 10
70
 20
9.269989013671875
 11
106
 21
9.269989013671875
  0
LINE
  8
0
  6
CONTINUOUS
 62
     7
 10
70
 20
6.019989013671875
 11
106
 21
6.019989013671875
  0
LINE
  8
0
  6
CONTINUOUS
 62
     7
 10
70
 20
3.999267578125
 11
230
 21
3.999267578125
  0
LINE
  8
0
  6
CONTINUOUS
 62
     7
 10
70
 20
0
 11
230
 21
0
  0
LINE
  8
0
  6
CONTINUOUS
 62
     7
 10
70
 20
16.5
 11
70
 21
0
  0
LINE
  8
0
  6
CONTINUOUS
 62
     7
 10
194
 20
16.5
 11
230
 21
16.5
  0
LINE
  8
0
  6
CONTINUOUS
 62
     7
 10
194
 20
13.44113159179688
 11
230
 21
13.44113159179688
  0
LINE
  8
0
  6
CONTINUOUS
 62
     7
 10
194
 20
10.57733154296875
 11
230
 21
10.57733154296875
  0
LINE
  8
0
  6
CONTINUOUS
 62
     7
 10
194
 20
9.269989013671875
 11
230
 21
9.269989013671875
  0
LINE
  8
0
  6
CONTINUOUS
 62
     7
 10
194
 20
6.019989013671875
 11
230
 21
6.019989013671875
  0
LINE
  8
0
  6
CENTER
 62
     7
 10
90
 20
17.06413269042969
 11
90
 21
-1.02642822265625
  0
LINE
  8
0
  6
DASHED
 62
     7
 10
84.5
 20
16.5
 11
84.5
 21
7.5
  0
LINE
  8
0
  6
DASHED
 62
     7
 10
95.5
 20
16.5
 11
95.5
 21
7.5
  0
LINE
  8
0
  6
DASHED
 62
     7
 10
86.5
 20
7.5
 11
86.5
 21
0
  0
LINE
  8
0
  6
DASHED
 62
     7
 10
93.5
 20
7.5
 11
93.5
 21
0
  0
LINE
  8
0
  6
DASHED
 62
     7
 10
84.5
 20
7.5
 11
95.5
 21
7.5
  0
LINE
  8
0
  6
CONTINUOUS
 62
     7
 10
230
 20
16.5
 11
230
 21
0
  0
LINE
  8
0
  6
CENTER
 62
     7
 10
68
 20
90
 11
232
 21
90
  0
LINE
  8
0
  6
CONTINUOUS
 62
     7
 10
70
 20
101.5
 11
70
 21
78.5
  0
LINE
  8
0
  6
CONTINUOUS
 62
     7
 10
70
 20
78.5
 11
106
 21
78.5
  0
LINE
  8
0
  6
CONTINUOUS
 62
     7
 10
70
 20
97.91972351074219
 11
106
 21
97.91972351074219
  0
LINE
  8
0
  6
CONTINUOUS
 62
     7
 10
70
 20
101.5
 11
106
 21
101.5
  0
LINE
  8
0
  6
CONTINUOUS
 62
     7
 10
230
 20
101.5
 11
230
 21
78.5
  0
LINE
  8
0
  6
CONTINUOUS
 62
     7
 10
119.900146484375
 20
63.5
 11
180.0998687744141
 21
63.5
  0
LINE
  8
0
  6
CONTINUOUS
 62
     7
 10
194
 20
101.5
 11
230
 21
101.5
  0
LINE
  8
0
  6
CONTINUOUS
 62
     7
 10
194
 20
97.91972351074219
 11
230
 21
97.91972351074219
  0
LINE
  8
0
  6
CONTINUOUS
 62
     7
 10
194
 20
78.5
 11
230
 21
78.5
  0
LINE
  8
0
  6
CONTINUOUS
 62
     7
 10
109.5
 20
112.89990234375
 11
109.5
 21
64.099853515625
  0
LINE
  8
0
  6
CONTINUOUS
 62
     7
 10
119.900146484375
 20
113.5
 11
119.900146484375
 21
63.5
  0
LINE
  8
0
  6
CONTINUOUS
 62
     7
 10
119.900146484375
 20
75.99971008300781
 11
180.0998687744141
 21
75.99971008300781
  0
LINE
  8
0
  6
CONTINUOUS
 62
     7
 10
119.900146484375
 20
88.50001525878906
 11
180.0998687744141
 21
88.50001525878906
  0
LINE
  8
0
  6
CONTINUOUS
 62
     7
 10
119.900146484375
 20
98.49971008300781
 11
180.0998687744141
 21
98.49971008300781
  0
LINE
  8
0
  6
CONTINUOUS
 62
     7
 10
119.900146484375
 20
105.9999694824219
 11
180.0998687744141
 21
105.9999694824219
  0
LINE
  8
0
  6
CONTINUOUS
 62
     7
 10
180.0998687744141
 20
113.5
 11
180.0998687744141
 21
63.5
  0
LINE
  8
0
  6
CONTINUOUS
 62
     7
 10
106
 20
64.099853515625
 11
119.900146484375
 21
64.099853515625
  0
LINE
  8
0
  6
CONTINUOUS
 62
     7
 10
106
 20
112.89990234375
 11
119.900146484375
 21
112.89990234375
  0
LINE
  8
0
  6
CONTINUOUS
 62
     7
 10
119.900146484375
 20
113.5
 11
180.0998687744141
 21
113.5
  0
LINE
  8
0
  6
CONTINUOUS
 62
     7
 10
194
 20
64.099853515625
 11
180.0998687744141
 21
64.099853515625
  0
LINE
  8
0
  6
CENTER
 62
     7
 10
174
 20
70.5
 11
166
 21
70.5
  0
LINE
  8
0
  6
CENTER
 62
     7
 10
170
 20
74.5
 11
170
 21
66.5
  0
LINE
  8
0
  6
CENTER
 62
     7
 10
134
 20
70.5
 11
126
 21
70.5
  0
LINE
  8
0
  6
CENTER
 62
     7
 10
130
 20
74.5
 11
130
 21
66.5
  0
LINE
  8
0
  6
CENTER
 62
     7
 10
134
 20
93.5
 11
126
 21
93.5
  0
LINE
  8
0
  6
CENTER
 62
     7
 10
130
 20
97.5
 11
130
 21
89.5
  0
LINE
  8
0
  6
CENTER
 62
     7
 10
174
 20
93.5
 11
166
 21
93.5
  0
LINE
  8
0
  6
CENTER
 62
     7
 10
170
 20
97.5
 11
170
 21
89.5
  0
LINE
  8
0
  6
CENTER
 62
     7
 10
210
 20
96.5
 11
210
 21
83.5
  0
LINE
  8
0
  6
CENTER
 62
     7
 10
90
 20
96.5
 11
90
 21
83.5
  0
LINE
  8
0
  6
CONTINUOUS
 62
     7
 10
102.7001037597656
 20
94
 11
108
 21
94
  0
LINE
  8
0
  6
CONTINUOUS
 62
     7
 10
104.3201293945313
 20
86
 11
108
 21
86
  0
LINE
  8
0
  6
CONTINUOUS
 62
     7
 10
98.70010375976563
 20
90
 11
98.70010375976563
 21
88.327880859375
  0
LINE
  8
0
  6
CONTINUOUS
 62
     7
 10
96.48277282714844
 20
80.47844696044922
 11
100.9174041748047
 21
78.64157104492188
  0
LINE
  8
0
  6
CONTINUOUS
 62
     7
 10
96.68453979492188
 20
83.31734466552734
 11
102.7821502685547
 21
80.79163360595703
  0
LINE
  8
0
  6
CONTINUOUS
 62
     7
 10
96.48279571533203
 20
80.47844696044922
 11
96.68455505371094
 21
83.31734466552734
  0
LINE
  8
0
  6
CONTINUOUS
 62
     7
 10
100.9174041748047
 20
78.64155578613281
 11
102.7821578979492
 21
80.79164886474609
  0
LINE
  8
0
  6
CONTINUOUS
 62
     7
 10
97.42325592041016
 20
87.03818511962891
 11
97.83792877197266
 21
88.03925323486328
  0
LINE
  8
0
  6
CONTINUOUS
 62
     7
 10
104.8908538818359
 20
83.94500732421875
 11
105.3055038452148
 21
84.94606781005859
  0
LINE
  8
0
  6
CONTINUOUS
 62
     7
 10
98.61734771728516
 20
88.36207580566406
 11
97.83791351318359
 21
88.03922271728516
  0
LINE
  8
0
  6
CONTINUOUS
 62
     7
 10
99.060546875
 20
85.71058654785156
 11
99.93312835693359
 21
87.81715393066406
  0
LINE
  8
0
  6
CONTINUOUS
 62
     7
 10
102.7943344116211
 20
84.16400909423828
 11
103.6669006347656
 21
86.27057647705078
  0
LINE
  8
0
  6
CONTINUOUS
 62
     7
 10
98.61737060546875
 20
88.36216735839844
 11
104.9826889038086
 21
85.72556304931641
  0
LINE
  8
0
  6
CONTINUOUS
 62
     7
 10
105.3055267333984
 20
84.94605255126953
 11
104.982666015625
 21
85.72550964355469
  0
LINE
  8
0
  6
CONTINUOUS
 62
     7
 10
106
 20
4.699935913085938
 11
109.5
 21
4.699935913085938
  0
LINE
  8
0
  6
CONTINUOUS
 62
     7
 10
106
 20
29.19993591308594
 11
106
 21
18.37995910644531
  0
LINE
  8
0
  6
CONTINUOUS
 62
     7
 10
106
 20
29.19993591308594
 11
109.5
 21
29.19993591308594
  0
LINE
  8
0
  6
CONTINUOUS
 62
     7
 10
108
 20
29.19993591308594
 11
108
 21
4.699935913085938
  0
LINE
  8
0
  6
CONTINUOUS
 62
     7
 10
106
 20
17.29994201660156
 11
106
 21
4.699935913085938
  0
LINE
  8
0
  6
CONTINUOUS
 62
     7
 10
105.9999923706055
 20
17.29993629455566
 11
108
 21
19.2999382019043
  0
LINE
  8
0
  6
CONTINUOUS
 62
     7
 10
106
 20
23.19993591308594
 11
108
 21
23.19993591308594
  0
LINE
  8
0
  6
CONTINUOUS
 62
     7
 10
194
 20
29.19993591308594
 11
190.5
 21
29.19993591308594
  0
LINE
  8
0
  6
CONTINUOUS
 62
     7
 10
194
 20
29.19993591308594
 11
194
 21
23.19993591308594
  0
LINE
  8
0
  6
CONTINUOUS
 62
     7
 10
194
 20
23.19993591308594
 11
192
 21
23.19993591308594
  0
LINE
  8
0
  6
CONTINUOUS
 62
     7
 10
192
 20
29.19993591308594
 11
192
 21
4.699935913085938
  0
LINE
  8
0
  6
CONTINUOUS
 62
     7
 10
194
 20
17.29994773864746
 11
192
 21
19.2999382019043
  0
LINE
  8
0
  6
CONTINUOUS
 62
     7
 10
194
 20
17.29994201660156
 11
194
 21
4.699935913085938
  0
LINE
  8
0
  6
CONTINUOUS
 62
     7
 10
194
 20
4.699935913085938
 11
190.5
 21
4.699935913085938
  0
LINE
  8
0
  6
CONTINUOUS
 62
     7
 10
-10.499755859375
 20
0
 11
-3.499755859375
 21
0
  0
LINE
  8
0
  6
CONTINUOUS
 62
     7
 10
-11.5
 20
13.75296974182129
 11
-11.5
 21
1
  0
LINE
  8
0
  6
CONTINUOUS
 62
     7
 10
11.5
 20
15.64997863769531
 11
11.5
 21
13.44113159179688
  0
LINE
  8
0
  6
CONTINUOUS
 62
     7
 10
-7.920000076293945
 20
16.5
 11
10.650146484375
 21
16.5
  0
LINE
  8
0
  6
CONTINUOUS
 62
     7
 10
8
 20
9.269989013671875
 11
8
 21
6.019989013671875
  0
LINE
  8
0
  6
CONTINUOUS
 62
     7
 10
8.000127792358398
 20
6.019946575164795
 11
11.50017356872559
 21
3.999194860458374
  0
LINE
  8
0
  6
CONTINUOUS
 62
     7
 10
8.000041961669922
 20
9.269984245300293
 11
9.010245323181152
 21
10.47389793395996
  0
LINE
  8
0
  6
CONTINUOUS
 62
     7
 10
10.65004634857178
 20
16.49993705749512
 11
11.50009346008301
 21
15.64988994598389
  0
LINE
  8
0
  6
CONTINUOUS
 62
     7
 10
11.50009536743164
 20
0.9999390244483948
 11
10.50009441375732
 21
-6.176623719511554E-005
  0
LINE
  8
0
  6
CONTINUOUS
 62
     7
 10
-11.49981784820557
 20
0.9998405575752258
 11
-10.49992370605469
 21
-5.299963959259912E-005
  0
LINE
  8
0
  6
CONTINUOUS
 62
     7
 10
11.5
 20
3.999267578125
 11
11.5
 21
1
  0
LINE
  8
0
  6
CONTINUOUS
 62
     7
 10
3.5
 20
0
 11
10.5
 21
0
  0
LINE
  8
0
  6
CONTINUOUS
 62
     7
 10
-3.499820947647095
 20
-0.0001625182485440746
 11
-2.999820470809937
 21
0.4998380243778229
  0
LINE
  8
0
  6
CONTINUOUS
 62
     7
 10
3.000034332275391
 20
0.4999897480010986
 11
3.500153541564941
 21
-0.0001294751127716154
  0
LINE
  8
0
  6
DASHED
 62
     7
 10
-5.5
 20
16.5
 11
-5.5
 21
7.5
  0
LINE
  8
0
  6
DASHED
 62
     7
 10
5.5
 20
16.5
 11
5.5
 21
7.5
  0
LINE
  8
0
  6
DASHED
 62
     7
 10
-3.5
 20
7.5
 11
-3.5
 21
0
  0
LINE
  8
0
  6
DASHED
 62
     7
 10
3.5
 20
7.5
 11
3.5
 21
0
  0
LINE
  8
0
  6
DASHED
 62
     7
 10
-5.5
 20
7.5
 11
5.5
 21
7.5
  0
LINE
  8
0
  6
CONTINUOUS
 62
     7
 10
-2.999755859375
 20
0.5
 11
3
 21
0.5
  0
LINE
  8
0
  6
CONTINUOUS
 62
     7
 10
11.29032516479492
 20
13.19119167327881
 11
11.50003337860107
 21
13.44111156463623
  0
LINE
  8
0
  6
CONTINUOUS
 62
     7
 10
-22.5
 20
30
 11
-16
 21
30
  0
LINE
  8
0
  6
CONTINUOUS
 62
     7
 10
-23.5
 20
28.99996948242188
 11
-23.5
 21
21.30000305175781
  0
LINE
  8
0
  6
CONTINUOUS
 62
     7
 10
26.5
 20
28.99998474121094
 11
26.5
 21
17.30000305175781
  0
LINE
  8
0
  6
CONTINUOUS
 62
     7
 10
-15.5
 20
29.5
 11
-9
 21
29.5
  0
LINE
  8
0
  6
CONTINUOUS
 62
     7
 10
2
 20
29.5
 11
13.5
 21
29.5
  0
LINE
  8
0
  6
CONTINUOUS
 62
     7
 10
-8.499755859375
 20
30
 11
1.5
 21
30
  0
LINE
  8
0
  6
CONTINUOUS
 62
     7
 10
14
 20
30
 11
25.5
 21
30
  0
LINE
  8
0
  6
CONTINUOUS
 62
     7
 10
-15.9999589920044
 20
29.99998283386231
 11
-15.49983978271484
 21
29.49986457824707
  0
LINE
  8
0
  6
CONTINUOUS
 62
     7
 10
1.500120282173157
 20
29.99985885620117
 11
2.000066995620728
 21
29.49991226196289
  0
LINE
  8
0
  6
CONTINUOUS
 62
     7
 10
13.50013828277588
 20
29.49984359741211
 11
14.00013828277588
 21
29.99984359741211
  0
LINE
  8
0
  6
CONTINUOUS
 62
     7
 10
-8.999843597412109
 20
29.49986457824707
 11
-8.499842643737793
 21
29.99986457824707
  0
LINE
  8
0
  6
CONTINUOUS
 62
     7
 10
26.2001953125
 20
17
 11
26.2001953125
 21
6.199996948242188
  0
LINE
  8
0
  6
CONTINUOUS
 62
     7
 10
26.20013618469238
 20
16.99984169006348
 11
26.50014114379883
 21
17.29984474182129
  0
LINE
  8
0
  6
CONTINUOUS
 62
     7
 10
-23.49989128112793
 20
21.29990196228027
 11
-23.19985389709473
 21
20.99986457824707
  0
LINE
  8
0
  6
CONTINUOUS
 62
     7
 10
-22.49992942810059
 20
29.99994659423828
 11
-23.49992179870606
 21
28.99993515014648
  0
LINE
  8
0
  6
CONTINUOUS
 62
     7
 10
25.50004577636719
 20
29.99997138977051
 11
26.50010490417481
 21
28.99989700317383
  0
LINE
  8
0
  6
CONTINUOUS
 62
     7
 10
-23.199951171875
 20
20.99998474121094
 11
-23.199951171875
 21
15.18998718261719
  0
LINE
  8
0
  6
CONTINUOUS
 62
     7
 10
-22.8997917175293
 20
14.88983535766602
 11
-23.1998291015625
 21
15.18987274169922
  0
LINE
  8
0
  6
CENTER
 62
     7
 10
-3.5
 20
30.29341125488281
 11
-3.5
 21
16.60438537597656
  0
LINE
  8
0
  6
CENTER
 62
     7
 10
0
 20
32.46916198730469
 11
0
 21
-2.186767578125
  0
LINE
  8
0
  6
CONTINUOUS
 62
     7
 10
1.780029296875
 20
26.49996948242188
 11
5.860107421875
 21
26.49996948242188
  0
LINE
  8
0
  6
CONTINUOUS
 62
     7
 10
1.780029296875
 20
19.49996948242188
 11
5.860107421875
 21
19.49996948242188
  0
LINE
  8
0
  6
CONTINUOUS
 62
     7
 10
1.130157232284546
 20
22.99994277954102
 11
1.780151009559631
 21
19.49994277954102
  0
LINE
  8
0
  6
CONTINUOUS
 62
     7
 10
1.130132794380188
 20
22.99989318847656
 11
1.780123829841614
 21
26.49987983703613
  0
LINE
  8
0
  6
CONTINUOUS
 62
     7
 10
3.440118074417114
 20
22.99992179870606
 11
4.090129375457764
 21
19.49991035461426
  0
LINE
  8
0
  6
CONTINUOUS
 62
     7
 10
3.440094709396362
 20
22.99990463256836
 11
4.090103149414063
 21
26.49990081787109
  0
LINE
  8
0
  6
CONTINUOUS
 62
     7
 10
5.950016021728516
 20
19.96992874145508
 11
5.86000394821167
 21
19.49992370605469
  0
LINE
  8
0
  6
CONTINUOUS
 62
     7
 10
5.950226783752441
 20
26.01998138427734
 11
5.860218524932861
 21
26.49997329711914
  0
LINE
  8
0
  6
CONTINUOUS
 62
     7
 10
7.766038417816162
 20
19.75425148010254
 11
10.52014350891113
 21
20.49994659423828
  0
LINE
  8
0
  6
CONTINUOUS
 62
     7
 10
7.750204086303711
 20
26.24987602233887
 11
10.52009868621826
 21
25.49990653991699
  0
LINE
  8
0
  6
CONTINUOUS
 62
     7
 10
0.0005070701008662581
 20
18.38084983825684
 11
1.947736740112305
 21
19.49996185302734
  0
LINE
  8
0
  6
CONTINUOUS
 62
     7
 10
0.0006717320648021996
 20
18.38079071044922
 11
-4.000467300415039
 21
20.69084930419922
  0
LINE
  8
0
  6
CONTINUOUS
 62
     7
 10
-4.000461578369141
 20
20.69082069396973
 11
-4.000978469848633
 21
25.30991554260254
  0
LINE
  8
0
  6
CONTINUOUS
 62
     7
 10
-4.000987052917481
 20
25.30996322631836
 11
-0.0004620252002496272
 21
27.61907005310059
  0
LINE
  8
0
  6
CONTINUOUS
 62
     7
 10
-0.0004778147558681667
 20
27.6190357208252
 11
1.937930703163147
 21
26.4998950958252
  0
LINE
  8
0
  6
CONTINUOUS
 62
     7
 10
12.789306640625
 20
4.5
 11
20.150146484375
 21
4.5
  0
LINE
  8
0
  6
CONTINUOUS
 62
     7
 10
20.150146484375
 20
4.699966430664063
 11
20.150146484375
 21
4.5
  0
LINE
  8
0
  6
CONTINUOUS
 62
     7
 10
12.44292449951172
 20
4.699966430664063
 11
12.78941822052002
 21
4.499917984008789
  0
LINE
  8
0
  6
CENTER
 62
     7
 10
19.5
 20
30.29341125488281
 11
19.5
 21
15.18451023101807
  0
LINE
  8
0
  6
CONTINUOUS
 62
     7
 10
10.28640079498291
 20
4.699966430664063
 11
24.69999694824219
 21
4.699966430664063
  0
LINE
  8
0
  6
CONTINUOUS
 62
     7
 10
25.89999389648438
 20
27.99996948242188
 11
25.89999389648438
 21
5.89996337890625
  0
LINE
  8
0
  6
CONTINUOUS
 62
     7
 10
-22.89999389648438
 20
27.99996948242188
 11
-22.89999389648438
 21
14.39996337890625
  0
LINE
  8
0
  6
CONTINUOUS
 62
     7
 10
-21.69999694824219
 20
29.19996643066406
 11
24.69999694824219
 21
29.19996643066406
  0
LINE
  8
0
  6
CONTINUOUS
 62
     7
 10
-21.69999694824219
 20
13.19996643066406
 11
-11.5
 21
13.19996643066406
  0
LINE
  8
0
  6
CONTINUOUS
 62
     7
 10
-22.89999961853027
 20
27.99997138977051
 11
-21.69999885559082
 21
29.19997215270996
  0
LINE
  8
0
  6
CONTINUOUS
 62
     7
 10
24.69998550415039
 20
29.1999683380127
 11
25.89999198913574
 21
27.99995994567871
  0
LINE
  8
0
  6
CONTINUOUS
 62
     7
 10
-8.870468139648438
 20
19.29997253417969
 11
-3.363037109375
 21
19.29997253417969
  0
LINE
  8
0
  6
CONTINUOUS
 62
     7
 10
14.30000305175781
 20
16.80976867675781
 11
14.30000305175781
 21
12.33856964111328
  0
LINE
  8
0
  6
CONTINUOUS
 62
     7
 10
11.80978775024414
 20
19.29997634887695
 11
14.29999351501465
 21
16.80977058410645
  0
LINE
  8
0
  6
CONTINUOUS
 62
     7
 10
10.8699951171875
 20
8.250843048095703
 11
14.30000114440918
 21
12.3385648727417
  0
LINE
  8
0
  6
CONTINUOUS
 62
     7
 10
10.8699951171875
 20
8.250843048095703
 11
10.8699951171875
 21
7.638679504394531
  0
LINE
  8
0
  6
CONTINUOUS
 62
     7
 10
10.86999797821045
 20
7.638683319091797
 11
15.95999813079834
 21
4.699970245361328
  0
LINE
  8
0
  6
CONTINUOUS
 62
     7
 10
-14.23000621795654
 20
15.1874589920044
 11
-8.870474815368652
 21
19.29997253417969
  0
LINE
  8
0
  6
CONTINUOUS
 62
     7
 10
-14.22999572753906
 20
15.18746185302734
 11
-14.22999572753906
 21
13.19996643066406
  0
LINE
  8
0
  6
CONTINUOUS
 62
     7
 10
3.363037109375
 20
19.29997253417969
 11
11.80979919433594
 21
19.29997253417969
  0
LINE
  8
0
  6
CONTINUOUS
 62
     7
 10
24.69999694824219
 20
4.699962139129639
 11
26.20019340515137
 21
6.20015811920166
  0
LINE
  8
0
  6
CONTINUOUS
 62
     7
 10
-21.69998931884766
 20
13.19996452331543
 11
-22.89998626708984
 21
14.39996242523193
  0
LINE
  8
0
  6
CONTINUOUS
 62
     7
 10
-11.49999523162842
 20
13.75296306610107
 11
-11.00475215911865
 21
14.13297653198242
  0
LINE
  8
0
  6
CONTINUOUS
 62
     7
 10
-8.112281799316406
 20
16.35244750976563
 11
-7.919995784759522
 21
16.49999237060547
  0
LINE
  8
0
  6
CONTINUOUS
 62
     7
 10
106
 20
103.8999938964844
 11
108
 21
103.8999938964844
  0
LINE
  8
0
  6
CONTINUOUS
 62
     7
 10
106
 20
78.10000610351563
 11
108
 21
78.10000610351563
  0
LINE
  8
0
  6
CONTINUOUS
 62
     7
 10
108
 20
112.89990234375
 11
108
 21
64.099853515625
  0
LINE
  8
0
  6
CONTINUOUS
 62
     7
 10
106
 20
112.89990234375
 11
106
 21
103.8966674804688
  0
LINE
  8
0
  6
CONTINUOUS
 62
     7
 10
106
 20
102.2299957275391
 11
107.6699905395508
 21
103.8999862670898
  0
LINE
  8
0
  6
CONTINUOUS
 62
     7
 10
106
 20
102.2299957275391
 11
106
 21
64.099853515625
  0
LINE
  8
0
  6
CONTINUOUS
 62
     7
 10
192
 20
112.89990234375
 11
192
 21
64.099853515625
  0
LINE
  8
0
  6
CONTINUOUS
 62
     7
 10
194
 20
112.89990234375
 11
194
 21
103.8966674804688
  0
LINE
  8
0
  6
CONTINUOUS
 62
     7
 10
190.5
 20
112.89990234375
 11
190.5
 21
64.099853515625
  0
LINE
  8
0
  6
CONTINUOUS
 62
     7
 10
194
 20
103.8999938964844
 11
192
 21
103.8999938964844
  0
LINE
  8
0
  6
CONTINUOUS
 62
     7
 10
194
 20
102.2299957275391
 11
192.3299865722656
 21
103.8999938964844
  0
LINE
  8
0
  6
CONTINUOUS
 62
     7
 10
194
 20
102.2299957275391
 11
194
 21
64.099853515625
  0
LINE
  8
0
  6
CONTINUOUS
 62
     7
 10
194
 20
78.10000610351563
 11
192
 21
78.10000610351563
  0
LINE
  8
0
  6
CENTER
 62
     7
 10
150
 20
96.5
 11
150
 21
83.5
  0
LINE
  8
0
  6
CENTER
 62
     7
 10
150
 20
17.06413269042969
 11
150
 21
-1.02642822265625
  0
LINE
  8
0
  6
CENTER
 62
     7
 10
210
 20
17.06413269042969
 11
210
 21
-1.02642822265625
  0
LINE
  8
0
  6
CONTINUOUS
 62
     7
 10
180.0998687744141
 20
112.89990234375
 11
194
 21
112.89990234375
  0
LINE
  8
0
  6
CONTINUOUS
 62
     7
 10
97.65303802490234
 20
86.29360198974609
 11
104.2018280029297
 21
83.58098602294922
  0
LINE
  8
0
  6
CONTINUOUS
 62
     7
 10
11.89999389648438
 20
29.19996643066406
 11
11.89999389648438
 21
23.19996643066406
  0
LINE
  8
0
  6
CONTINUOUS
 62
     7
 10
-13.89999389648438
 20
29.19996643066406
 11
-13.89999389648438
 21
23.19996643066406
  0
LINE
  8
0
  6
CONTINUOUS
 62
     7
 10
-22.89999389648438
 20
23.19996643066406
 11
-13.89999389648438
 21
23.19996643066406
  0
LINE
  8
0
  6
CONTINUOUS
 62
     7
 10
11.89999389648438
 20
23.19996643066406
 11
25.89999389648438
 21
23.19996643066406
  0
LINE
  8
0
  6
CENTER
 62
     7
 10
-5.048885822296143
 20
22.99996948242188
 11
12.89347839355469
 21
22.99996948242188
  0
LINE
  8
0
  6
CENTER
 62
     7
 10
109.1935119628906
 20
22.99994659423828
 11
94.33499145507813
 21
22.99994659423828
  0
LINE
  8
0
  6
CENTER
 62
     7
 10
98.17072296142578
 20
78.28154754638672
 11
103.0247268676758
 21
90
  0
ARC
  8
0
  6
CONTINUOUS
 62
     7
 10
103.000244140625
 20
23.00001525878906
 40
3.999999999999998
 50
89.99998201391055
 51
118.4958044387706
  0
ARC
  8
0
  6
CONTINUOUS
 62
     7
 10
103.000244140625
 20
23.00001525878906
 40
3.982465744018556
 50
241.5040862782025
 51
269.9999087030625
  0
CIRCLE
  8
0
  6
CONTINUOUS
 62
     7
 10
130
 20
70.5
 40
3
  0
CIRCLE
  8
0
  6
CONTINUOUS
 62
     7
 10
130
 20
70.5
 40
2.5
  0
CIRCLE
  8
0
  6
CONTINUOUS
 62
     7
 10
90
 20
90
 40
5.5
  0
CIRCLE
  8
0
  6
CONTINUOUS
 62
     7
 10
90
 20
90
 40
3.5
  0
ARC
  8
0
  6
CONTINUOUS
 62
     7
 10
99.73335266113281
 20
82.05447387695313
 40
3.299999237060547
 50
131.5803705110074
 51
157.4999548639652
  0
ARC
  8
0
  6
CONTINUOUS
 62
     7
 10
99.73335266113281
 20
82.05447387695313
 40
3.29999923706055
 50
337.5000181569006
 51
3.419602296415172
  0
ARC
  8
0
  6
CONTINUOUS
 62
     7
 10
91.81700134277344
 20
84.90057373046875
 40
5.999999999999996
 50
2.433650829345525
 51
20.87173987704918
  0
ARC
  8
0
  6
CONTINUOUS
 62
     7
 10
107.3435363769531
 20
78.46926879882813
 40
6.000000000000004
 50
114.1278165022774
 51
132.5663219780771
  0
ARC
  8
0
  6
CONTINUOUS
 62
     7
 10
97.01229858398438
 20
85.12136840820313
 40
0.7999999523162822
 50
311.5798327472963
 51
2.433049772698627
  0
ARC
  8
0
  6
CONTINUOUS
 62
     7
 10
103.8260345458984
 20
82.29902648925781
 40
0.7999999523162843
 50
132.566977676238
 51
183.4201402735703
  0
ARC
  8
0
  6
CONTINUOUS
 62
     7
 10
102.7001037597656
 20
90
 40
3.999999999999998
 50
89.99998201391055
 51
180.0000186693347
  0
ARC
  8
0
  6
CONTINUOUS
 62
     7
 10
6.6201171875
 20
18.91996765136719
 40
1.246148109436034
 50
56.43344763980069
 51
142.1250351177266
  0
ARC
  8
0
  6
CONTINUOUS
 62
     7
 10
6.6201171875
 20
27.07997131347656
 40
1.254199028015136
 50
217.8749648822735
 51
301.949074772281
  0
ARC
  8
0
  6
CONTINUOUS
 62
     7
 10
0
 20
22.99996948242188
 40
4
 50
240.0000239814524
 51
241.0449882829511
  0
ARC
  8
0
  6
CONTINUOUS
 62
     7
 10
0
 20
22.99996948242188
 40
3.998106002807619
 50
61.09402038976974
 51
298.9059076658729
  0
CIRCLE
  8
0
  6
CONTINUOUS
 62
     7
 10
-9.100006103515625
 20
23.79997253417969
 40
3.5
  0
CIRCLE
  8
0
  6
CONTINUOUS
 62
     7
 10
19.5
 20
17.19996643066406
 40
3.5
  0
ARC
  8
0
  6
CONTINUOUS
 62
     7
 10
0
 20
22.99996948242188
 40
4.999999999999999
 50
227.7314196282221
 51
312.2685992684836
  0
CIRCLE
  8
0
  6
CONTINUOUS
 62
     7
 10
19.5
 20
17.19996643066406
 40
3
  0
CIRCLE
  8
0
  6
CONTINUOUS
 62
     7
 10
-9.100006103515625
 20
23.79997253417969
 40
3
  0
ARC
  8
0
  6
CONTINUOUS
 62
     7
 10
-10.60000038146973
 20
16.59999084472656
 40
2.5
 50
260.6826564109514
 51
354.3173474973465
  0
ARC
  8
0
  6
CONTINUOUS
 62
     7
 10
11.5
 20
10.69999980926514
 40
2.499999999999999
 50
94.81100334072754
 51
185.18894070255
  0
POLYLINE
  8
0
  6
CONTINUOUS
 62
     7
 66
     1
 10
0
 20
0
  0
VERTEX
  8
0
  6
CONTINUOUS
 62
     7
 10
97.57750862350265
 20
20.82022845338131
 42
0.06271372066015514
  0
VERTEX
  8
0
  6
CONTINUOUS
 62
     7
 10
98.14169764273903
 20
20.29402517577181
 42
0.06639018994082277
  0
VERTEX
  8
0
  6
CONTINUOUS
 62
     7
 10
98.82144313544384
 20
19.92914639560324
 42
0.06909646832340474
  0
VERTEX
  8
0
  6
CONTINUOUS
 62
     7
 10
99.57360976071766
 20
19.75960117752147
 42
0.06976322354225217
  0
VERTEX
  8
0
  6
CONTINUOUS
 62
     7
 10
100.3423669456445
 20
19.80281130743592
 42
0.06823176073609465
  0
VERTEX
  8
0
  6
CONTINUOUS
 62
     7
 10
101.0703187872962
 20
20.05396963941831
 42
0.06510205640571447
  0
VERTEX
  8
0
  6
CONTINUOUS
 62
     7
 10
101.7070457221416
 20
20.48844122229905
 42
0.0613966286575739
  0
VERTEX
  8
0
  6
CONTINUOUS
 62
     7
 10
102.2151035328639
 20
21.06845629026237
 42
0.05816025309329036
  0
VERTEX
  8
0
  6
CONTINUOUS
 62
     7
 10
102.5718627079893
 20
21.75249797420759
 42
0.05594979623619368
  0
VERTEX
  8
0
  6
CONTINUOUS
 62
     7
 10
102.7650940139677
 20
22.49969493322832
 42
0.05496720990434336
  0
VERTEX
  8
0
  6
CONTINUOUS
 62
     7
 10
102.789607066942
 20
23.27039139623754
 42
0.05543319212098919
  0
VERTEX
  8
0
  6
CONTINUOUS
 62
     7
 10
102.6451039432757
 20
24.02813695987596
 42
0.05720046553205481
  0
VERTEX
  8
0
  6
CONTINUOUS
 62
     7
 10
102.3354805936357
 20
24.73442619130062
 42
0.0601567149651045
  0
VERTEX
  8
0
  6
CONTINUOUS
 62
     7
 10
101.8703109725866
 20
25.34970984979638
 42
0.06383012364282156
  0
VERTEX
  8
0
  6
CONTINUOUS
 62
     7
 10
101.268401632859
 20
25.83236879663385
 42
0.06734550180663566
  0
VERTEX
  8
0
  6
CONTINUOUS
 62
     7
 10
100.5620860343919
 20
26.14250240729976
 42
0.06959189722258187
  0
VERTEX
  8
0
  6
CONTINUOUS
 62
     7
 10
99.79825698428293
 20
26.2500153122024
 42
0
  0
SEQEND
  8
0
  0
POLYLINE
  8
0
  6
CONTINUOUS
 62
     7
 66
     1
 10
0
 20
0
  0
VERTEX
  8
0
  6
CONTINUOUS
 62
     7
 10
98.69959805988421
 20
25.50001632411649
 42
0.1105194080736002
  0
VERTEX
  8
0
  6
CONTINUOUS
 62
     7
 10
97.78713462403525
 20
25.29651582910351
 42
0.1028007052897957
  0
VERTEX
  8
0
  6
CONTINUOUS
 62
     7
 10
97.03942368773951
 20
24.73308344820638
 42
0.09352710254606832
  0
VERTEX
  8
0
  6
CONTINUOUS
 62
     7
 10
96.56213109842727
 20
23.92605860939397
 42
0.08799678937625477
  0
VERTEX
  8
0
  6
CONTINUOUS
 62
     7
 10
96.40017836273256
 20
23.00083873023122
 42
0.08768699264540816
  0
VERTEX
  8
0
  6
CONTINUOUS
 62
     7
 10
96.56416624712763
 20
22.07745847486392
 42
0.09302682453457284
  0
VERTEX
  8
0
  6
CONTINUOUS
 62
     7
 10
97.04204750516477
 20
21.2709994498402
 42
0.1023416695925845
  0
VERTEX
  8
0
  6
CONTINUOUS
 62
     7
 10
97.79007388347917
 20
20.70599398692425
 42
0.1103541148438598
  0
VERTEX
  8
0
  6
CONTINUOUS
 62
     7
 10
98.70299522876418
 20
20.50001130005753
 42
0.1105089833463355
  0
VERTEX
  8
0
  6
CONTINUOUS
 62
     7
 10
99.61525166331469
 20
20.70444989899517
 42
0.1027780825539779
  0
VERTEX
  8
0
  6
CONTINUOUS
 62
     7
 10
100.3624257646617
 20
21.26860049644909
 42
0.09350857604494509
  0
VERTEX
  8
0
  6
CONTINUOUS
 62
     7
 10
100.8390154214213
 20
22.07604503197727
 42
0.0879829618994399
  0
VERTEX
  8
0
  6
CONTINUOUS
 62
     7
 10
101.0002082496628
 20
23.00132513516189
 42
0.0876932445487469
  0
VERTEX
  8
0
  6
CONTINUOUS
 62
     7
 10
100.8354877234396
 20
23.92457635482678
 42
0.09304462506178152
  0
VERTEX
  8
0
  6
CONTINUOUS
 62
     7
 10
100.356927652704
 20
24.73063315909584
 42
0.1023640639985733
  0
VERTEX
  8
0
  6
CONTINUOUS
 62
     7
 10
99.60838047541948
 20
25.29494630255207
 42
0.1104719500488107
  0
VERTEX
  8
0
  6
CONTINUOUS
 62
     7
 10
98.69436380309124
 20
25.50001945028225
 42
0
  0
SEQEND
  8
0
  0
POLYLINE
  8
0
  6
CONTINUOUS
 62
     7
 66
     1
 10
0
 20
0
  0
VERTEX
  8
0
  6
CONTINUOUS
 62
     7
 10
99.7998703290021
 20
26.25001394301803
 42
0.01428336071255419
  0
VERTEX
  8
0
  6
CONTINUOUS
 62
     7
 10
99.64172824855324
 20
26.24567559296178
 42
0.01426694254060755
  0
VERTEX
  8
0
  6
CONTINUOUS
 62
     7
 10
99.48407889915526
 20
26.23231793854228
 42
0.01418308302080922
  0
VERTEX
  8
0
  6
CONTINUOUS
 62
     7
 10
99.32795219341217
 20
26.2100886212847
 42
0.01416218643536586
  0
VERTEX
  8
0
  6
CONTINUOUS
 62
     7
 10
99.17294080174649
 20
26.17896938437022
 42
0.01411654289250829
  0
VERTEX
  8
0
  6
CONTINUOUS
 62
     7
 10
99.01961031326506
 20
26.13905252708396
 42
0.01404785542248917
  0
VERTEX
  8
0
  6
CONTINUOUS
 62
     7
 10
98.8685085316846
 20
26.09048241357285
 42
0.01395821359488752
  0
VERTEX
  8
0
  6
CONTINUOUS
 62
     7
 10
98.72015989535224
 20
26.03345134727426
 42
0.01385001791753738
  0
VERTEX
  8
0
  6
CONTINUOUS
 62
     7
 10
98.5750607426382
 20
25.96819464151828
 42
0.01372589568008331
  0
VERTEX
  8
0
  6
CONTINUOUS
 62
     7
 10
98.43367554664324
 20
25.89498510140673
 42
0.01358861409986251
  0
VERTEX
  8
0
  6
CONTINUOUS
 62
     7
 10
98.29643419003266
 20
25.8141271508598
 42
0.01333168584259717
  0
VERTEX
  8
0
  6
CONTINUOUS
 62
     7
 10
98.16479669705875
 20
25.72670107356752
 42
0.01329955033975008
  0
VERTEX
  8
0
  6
CONTINUOUS
 62
     7
 10
98.0368283795554
 20
25.63151965156449
 42
0.01325191638407204
  0
VERTEX
  8
0
  6
CONTINUOUS
 62
     7
 10
97.91304691896254
 20
25.52881295880313
 42
0.01296725153371974
  0
VERTEX
  8
0
  6
CONTINUOUS
 62
     7
 10
97.79592801359704
 20
25.42078346597892
 42
0.01280881534095976
  0
VERTEX
  8
0
  6
CONTINUOUS
 62
     7
 10
97.68453101733564
 20
25.30686281592551
 42
0.01265313196753907
  0
VERTEX
  8
0
  6
CONTINUOUS
 62
     7
 10
97.57907620815583
 20
25.18741926950457
 42
0
  0
SEQEND
  8
0
  0
POLYLINE
  8
0
  6
CONTINUOUS
 62
     7
 66
     1
 10
0
 20
0
  0
VERTEX
  8
0
  6
CONTINUOUS
 62
     7
 10
7.75
 20
26.24996185302734
 42
0.1886533949889551
  0
VERTEX
  8
0
  6
CONTINUOUS
 62
     7
 10
7.335175593457542
 20
26.06578093706185
 42
0.07588984514171955
  0
VERTEX
  8
0
  6
CONTINUOUS
 62
     7
 10
7.05371428957774
 20
25.69906647211369
 42
0.03946232595414981
  0
VERTEX
  8
0
  6
CONTINUOUS
 62
     7
 10
6.858295045102021
 20
25.27754376217908
 42
0.02589546889500159
  0
VERTEX
  8
0
  6
CONTINUOUS
 62
     7
 10
6.718129063981464
 20
24.8342875086459
 42
0.01963296564997421
  0
VERTEX
  8
0
  6
CONTINUOUS
 62
     7
 10
6.618196831688868
 20
24.37949004875333
 42
0.01635598296590828
  0
VERTEX
  8
0
  6
CONTINUOUS
 62
     7
 10
6.550967996991535
 20
23.91855234909383
 42
0.01463213531802778
  0
VERTEX
  8
0
  6
CONTINUOUS
 62
     7
 10
6.51227317342406
 20
23.45427928473778
 42
0.01388379272739527
  0
VERTEX
  8
0
  6
CONTINUOUS
 62
     7
 10
6.500007692942051
 20
22.9885673023966
 42
0.01386099063690638
  0
VERTEX
  8
0
  6
CONTINUOUS
 62
     7
 10
6.513464553310909
 20
22.52423390644673
 42
0.01467188695068201
  0
VERTEX
  8
0
  6
CONTINUOUS
 62
     7
 10
6.553360495580884
 20
22.06053337921512
 42
0.01650635787785147
  0
VERTEX
  8
0
  6
CONTINUOUS
 62
     7
 10
6.622157790702757
 20
21.59869108013805
 42
0.01985517889008251
  0
VERTEX
  8
0
  6
CONTINUOUS
 62
     7
 10
6.723848549651002
 20
21.14408881402218
 42
0.02639132148269903
  0
VERTEX
  8
0
  6
CONTINUOUS
 62
     7
 10
6.866594486620675
 20
20.70063581182757
 42
0.04065103228571598
  0
VERTEX
  8
0
  6
CONTINUOUS
 62
     7
 10
7.066024048958249
 20
20.27967885862818
 42
0.07989329273309127
  0
VERTEX
  8
0
  6
CONTINUOUS
 62
     7
 10
7.355352201403033
 20
19.91620451018489
 42
0.1977473966460608
  0
VERTEX
  8
0
  6
CONTINUOUS
 62
     7
 10
7.777835903856451
 20
19.75078304090322
 42
0
  0
SEQEND
  8
0
  0
POLYLINE
  8
0
  6
CONTINUOUS
 62
     7
 66
     1
 10
0
 20
0
 70
     1
  0
VERTEX
  8
0
  6
CONTINUOUS
 62
     7
 10
10.52001953125
 20
25.49996185302734
 42
0.2551581277590886
  0
VERTEX
  8
0
  6
CONTINUOUS
 62
     7
 10
9.990203503145047
 20
25.07507993717102
 42
0.06319284007818965
  0
VERTEX
  8
0
  6
CONTINUOUS
 62
     7
 10
9.736102801611853
 20
24.41219509129386
 42
0.03518723342152033
  0
VERTEX
  8
0
  6
CONTINUOUS
 62
     7
 10
9.6093703222719
 20
23.71214543831287
 42
0.02798597609868017
  0
VERTEX
  8
0
  6
CONTINUOUS
 62
     7
 10
9.57000732421875
 20
22.99996948242188
 42
0.02790008251690229
  0
VERTEX
  8
0
  6
CONTINUOUS
 62
     7
 10
9.60914164724014
 20
22.28982155926828
 42
0.03516101490293026
  0
VERTEX
  8
0
  6
CONTINUOUS
 62
     7
 10
9.735638283776837
 20
21.58953114628616
 42
0.06315716756719675
  0
VERTEX
  8
0
  6
CONTINUOUS
 62
     7
 10
9.989675820484168
 20
20.92579268948144
 42
0.2552834082780238
  0
VERTEX
  8
0
  6
CONTINUOUS
 62
     7
 10
10.52001953125
 20
20.49997711181641
 42
0.2551581277591322
  0
VERTEX
  8
0
  6
CONTINUOUS
 62
     7
 10
11.04983555935496
 20
20.92485902767274
 42
0.06319284007825954
  0
VERTEX
  8
0
  6
CONTINUOUS
 62
     7
 10
11.30393626088815
 20
21.58774387354989
 42
0.03518723342151633
  0
VERTEX
  8
0
  6
CONTINUOUS
 62
     7
 10
11.4306687402281
 20
22.28779352653088
 42
0.02798597609869695
  0
VERTEX
  8
0
  6
CONTINUOUS
 62
     7
 10
11.47003173828125
 20
22.99996948242188
 42
0.02790008251687028
  0
VERTEX
  8
0
  6
CONTINUOUS
 62
     7
 10
11.43089741525986
 20
23.71011740557547
 42
0.03516101490293689
  0
VERTEX
  8
0
  6
CONTINUOUS
 62
     7
 10
11.30440077872316
 20
24.41040781855759
 42
0.06315716756720316
  0
VERTEX
  8
0
  6
CONTINUOUS
 62
     7
 10
11.05036324201583
 20
25.07414627536231
 42
0.2552834082778918
  0
SEQEND
  8
0
  0
TEXT
  8
0
  6
CONTINUOUS
 62
     7
 10
-1.599999904632568
 20
-16.79999971389771
 40
3.59999942779541
 41
1.039215701857426
  1
GSR25T
  0
ENDSEC
  0
EOF
