  0
SECTION
  2
HEADER
  0
ENDSEC
  0
SECTION
  2
TABLES
  0
TABLE
  2
LTYPE
 70
    22
  0
LTYPE
  2
CONTINUOUS
 70
    64
  3
Solid line
 72
    65
 73
     0
 40
0.000000
  0
LTYPE
  2
DASHED
 70
    64
  3
__ __ __ __ __ __ __ __ __ __ __ __ __ __ __
 72
    65
 73
     2
 40
3.500000
 49
2.000000
 49
-1.500000
  0
LTYPE
  2
CENTER
 70
    64
  3
____ _ ____ _ ____ _ ____ _ ____ _ ____ _ ____
 72
    65
 73
     4
 40
17.500000
 49
13.000000
 49
-1.500000
 49
1.500000
 49
-1.500000
  0
LTYPE
  2
PHANTOM
 70
    64
  3
_____ _ _ _____ _ _ _____ _ _ _____ _ _ ____  
 72
    65
 73
     6
 40
15.500000
 49
8.000000
 49
-1.500000
 49
1.500000
 49
-1.500000
 49
1.500000
 49
-1.500000
  0
LTYPE
  2
DOT
 70
    64
  3
. . . . . . . . . . . . . . . . . . . . . . . .
 72
    65
 73
     2
 40
0.25
 49
0.0
 49
-0.25
  0
ENDTAB
  0
TABLE
  2
LAYER
 70
     1
  0
LAYER
  2
0
 70
     0
 62
     7
  6
CONTINUOUS
  0
ENDTAB
  0
TABLE
  2
STYLE
 70
     1
  0
STYLE
  2
STANDARD
 70
     0
 40
0.000000
 41
1.000000
 50
0.000000
 71
     0
 42
0.200000
  3
txt
  0
ENDTAB
  0
TABLE
  2
VIEW
 70
     0
  0
ENDTAB
  0
ENDSEC
  0
SECTION
  2
BLOCKS
  0
ENDSEC
  0
SECTION
  2
ENTITIES
  0
LINE
  8
0
  6
CONTINUOUS
 62
     7
 10
70
 20
0
 11
270
 21
0
  0
LINE
  8
0
  6
CONTINUOUS
 62
     7
 10
134.85009765625
 20
33
 11
134.85009765625
 21
5.300003051757813
  0
LINE
  8
0
  6
CONTINUOUS
 62
     7
 10
205.1499938964844
 20
33
 11
205.1499938964844
 21
5.300003051757813
  0
LINE
  8
0
  6
CONTINUOUS
 62
     7
 10
134.85009765625
 20
33
 11
205.1499938964844
 21
33
  0
LINE
  8
0
  6
CONTINUOUS
 62
     7
 10
134.85009765625
 20
18.39999389648438
 11
205.1499938964844
 21
18.39999389648438
  0
LINE
  8
0
  6
CONTINUOUS
 62
     7
 10
122
 20
5.300003051757813
 11
218
 21
5.300003051757813
  0
LINE
  8
0
  6
CONTINUOUS
 62
     7
 10
118.5
 20
4.5
 11
221.5
 21
4.5
  0
LINE
  8
0
  6
CONTINUOUS
 62
     7
 10
122
 20
32.29998779296875
 11
122
 21
4.5
  0
LINE
  8
0
  6
CONTINUOUS
 62
     7
 10
122
 20
32.29998779296875
 11
134.85009765625
 21
32.29998779296875
  0
LINE
  8
0
  6
CONTINUOUS
 62
     7
 10
120.5
 20
32
 11
120.5
 21
4.5
  0
LINE
  8
0
  6
CONTINUOUS
 62
     7
 10
118.5
 20
20
 11
118.5
 21
4.5
  0
LINE
  8
0
  6
CONTINUOUS
 62
     7
 10
120.5
 20
32
 11
122
 21
32
  0
LINE
  8
0
  6
CONTINUOUS
 62
     7
 10
118.5000610351563
 20
19.99994659423828
 11
119.8800659179688
 21
21.37994575500488
  0
LINE
  8
0
  6
CONTINUOUS
 62
     7
 10
218
 20
4.5
 11
218
 21
32.29998779296875
  0
LINE
  8
0
  6
CONTINUOUS
 62
     7
 10
205.1499938964844
 20
32.29998779296875
 11
218
 21
32.29998779296875
  0
LINE
  8
0
  6
CONTINUOUS
 62
     7
 10
219.5
 20
4.5
 11
219.5
 21
32
  0
LINE
  8
0
  6
CONTINUOUS
 62
     7
 10
221.5
 20
4.5
 11
221.5
 21
20
  0
LINE
  8
0
  6
CONTINUOUS
 62
     7
 10
218
 20
32
 11
219.5
 21
32
  0
LINE
  8
0
  6
CONTINUOUS
 62
     7
 10
219.5001068115234
 20
21.99986267089844
 11
221.5000610351563
 21
19.99990272521973
  0
LINE
  8
0
  6
CONTINUOUS
 62
     7
 10
118.500244140625
 20
21.3800048828125
 11
118.500244140625
 21
30.61997985839844
  0
LINE
  8
0
  6
CONTINUOUS
 62
     7
 10
115.500244140625
 20
29.99998474121094
 11
118.500244140625
 21
29.99998474121094
  0
LINE
  8
0
  6
CONTINUOUS
 62
     7
 10
120.500244140625
 20
30.61997985839844
 11
118.500244140625
 21
30.61997985839844
  0
LINE
  8
0
  6
CONTINUOUS
 62
     7
 10
120.500244140625
 20
28.30998229980469
 11
118.500244140625
 21
28.30998229980469
  0
LINE
  8
0
  6
CONTINUOUS
 62
     7
 10
120.500244140625
 20
21.3800048828125
 11
118.500244140625
 21
21.3800048828125
  0
LINE
  8
0
  6
CONTINUOUS
 62
     7
 10
120.500244140625
 20
23.69000244140625
 11
118.500244140625
 21
23.69000244140625
  0
LINE
  8
0
  6
CONTINUOUS
 62
     7
 10
116.60009765625
 20
22.5
 11
111.400146484375
 21
22.5
  0
LINE
  8
0
  6
CONTINUOUS
 62
     7
 10
116.60009765625
 20
22.45999145507813
 11
116.60009765625
 21
22.5
  0
LINE
  8
0
  6
CONTINUOUS
 62
     7
 10
118.1000289916992
 20
26.00000190734863
 11
116.6000289916992
 21
22.49999809265137
  0
LINE
  8
0
  6
CONTINUOUS
 62
     7
 10
117.2001495361328
 20
25.99994087219238
 11
115.6001434326172
 21
22.49994659423828
  0
LINE
  8
0
  6
CONTINUOUS
 62
     7
 10
111.3999862670898
 20
22.4999942779541
 11
110.9999771118164
 21
23.08002471923828
  0
LINE
  8
0
  6
CONTINUOUS
 62
     7
 10
111.400032043457
 20
29.49991035461426
 11
111.0000381469727
 21
28.91990470886231
  0
LINE
  8
0
  6
CONTINUOUS
 62
     7
 10
116.60009765625
 20
29.49998474121094
 11
111.400146484375
 21
29.49998474121094
  0
LINE
  8
0
  6
CONTINUOUS
 62
     7
 10
117.2000732421875
 20
25.99996185302734
 11
115.6000595092773
 21
29.49996948242188
  0
LINE
  8
0
  6
CONTINUOUS
 62
     7
 10
118.1000900268555
 20
25.99977684020996
 11
116.5999984741211
 21
29.49997901916504
  0
LINE
  8
0
  6
CONTINUOUS
 62
     7
 10
115.500244140625
 20
22
 11
118.500244140625
 21
22
  0
LINE
  8
0
  6
CONTINUOUS
 62
     7
 10
70
 20
19
 11
118.5
 21
19
  0
LINE
  8
0
  6
CONTINUOUS
 62
     7
 10
70
 20
14.73701477050781
 11
118.5
 21
14.73701477050781
  0
LINE
  8
0
  6
CONTINUOUS
 62
     7
 10
70
 20
11.51264953613281
 11
118.5
 21
11.51264953613281
  0
LINE
  8
0
  6
CONTINUOUS
 62
     7
 10
70
 20
7.1099853515625
 11
118.5
 21
7.1099853515625
  0
LINE
  8
0
  6
CONTINUOUS
 62
     7
 10
70
 20
9.969985961914063
 11
118.5
 21
9.969985961914063
  0
LINE
  8
0
  6
CONTINUOUS
 62
     7
 10
70
 20
4.80059814453125
 11
118.5
 21
4.80059814453125
  0
LINE
  8
0
  6
CONTINUOUS
 62
     7
 10
221.5
 20
19
 11
270
 21
19
  0
LINE
  8
0
  6
CONTINUOUS
 62
     7
 10
221.5
 20
14.73701477050781
 11
270
 21
14.73701477050781
  0
LINE
  8
0
  6
CONTINUOUS
 62
     7
 10
221.5
 20
11.51264953613281
 11
270
 21
11.51264953613281
  0
LINE
  8
0
  6
CONTINUOUS
 62
     7
 10
221.5
 20
9.969985961914063
 11
270
 21
9.969985961914063
  0
LINE
  8
0
  6
CONTINUOUS
 62
     7
 10
221.5
 20
7.1099853515625
 11
270
 21
7.1099853515625
  0
LINE
  8
0
  6
CONTINUOUS
 62
     7
 10
221.5
 20
4.80059814453125
 11
270
 21
4.80059814453125
  0
LINE
  8
0
  6
DASHED
 62
     7
 10
144.10009765625
 20
33
 11
144.10009765625
 21
18
  0
LINE
  8
0
  6
DASHED
 62
     7
 10
150.900146484375
 20
33
 11
150.900146484375
 21
18
  0
LINE
  8
0
  6
DASHED
 62
     7
 10
143.5
 20
33
 11
143.5
 21
21
  0
LINE
  8
0
  6
DASHED
 62
     7
 10
151.5
 20
33
 11
151.5
 21
21
  0
LINE
  8
0
  6
DASHED
 62
     7
 10
143.5
 20
21
 11
151.5
 21
21
  0
LINE
  8
0
  6
DASHED
 62
     7
 10
144.10009765625
 20
18
 11
150.900146484375
 21
18
  0
LINE
  8
0
  6
DASHED
 62
     7
 10
147.5001068115234
 20
16.03679847717285
 11
150.9001159667969
 21
17.99978828430176
  0
LINE
  8
0
  6
DASHED
 62
     7
 10
150.9001922607422
 20
19.96061325073242
 11
151.5001983642578
 21
20.99985313415527
  0
LINE
  8
0
  6
DASHED
 62
     7
 10
144.10009765625
 20
17.99992179870606
 11
147.5001373291016
 21
16.03690910339356
  0
LINE
  8
0
  6
DASHED
 62
     7
 10
143.5001068115234
 20
20.99981880187988
 11
144.1000823974609
 21
19.96063041687012
  0
LINE
  8
0
  6
CENTER
 62
     7
 10
147.5
 20
33.82514953613281
 11
147.5
 21
15.37496948242188
  0
LINE
  8
0
  6
CENTER
 62
     7
 10
192.5
 20
33.82514953613281
 11
192.5
 21
15.21231079101563
  0
LINE
  8
0
  6
CONTINUOUS
 62
     7
 10
70
 20
19
 11
70
 21
0
  0
LINE
  8
0
  6
CENTER
 62
     7
 10
250
 20
20.10997009277344
 11
250
 21
-1.31146240234375
  0
LINE
  8
0
  6
CONTINUOUS
 62
     7
 10
270
 20
19
 11
270
 21
0
  0
LINE
  8
0
  6
DASHED
 62
     7
 10
85.5
 20
7
 11
85.5
 21
0
  0
LINE
  8
0
  6
DASHED
 62
     7
 10
94.5
 20
7
 11
94.5
 21
0
  0
LINE
  8
0
  6
DASHED
 62
     7
 10
83
 20
19
 11
83
 21
7
  0
LINE
  8
0
  6
DASHED
 62
     7
 10
83
 20
7
 11
97
 21
7
  0
LINE
  8
0
  6
DASHED
 62
     7
 10
97
 20
19
 11
97
 21
7
  0
LINE
  8
0
  6
CENTER
 62
     7
 10
90
 20
20.10997009277344
 11
90
 21
-1.31146240234375
  0
LINE
  8
0
  6
CONTINUOUS
 62
     7
 10
-12.5
 20
0
 11
-4.499755859375
 21
0
  0
LINE
  8
0
  6
CENTER
 62
     7
 10
0
 20
38.50596618652344
 11
0
 21
-2.577194213867188
  0
LINE
  8
0
  6
CONTINUOUS
 62
     7
 10
-14
 20
15.75997924804688
 11
-14
 21
1.5
  0
LINE
  8
0
  6
CONTINUOUS
 62
     7
 10
-10.759765625
 20
19
 11
12.5
 21
19
  0
LINE
  8
0
  6
CONTINUOUS
 62
     7
 10
10
 20
9.969985961914063
 11
10
 21
7.1099853515625
  0
LINE
  8
0
  6
CONTINUOUS
 62
     7
 10
14
 20
17.49996948242188
 11
14
 21
14.73701477050781
  0
LINE
  8
0
  6
CONTINUOUS
 62
     7
 10
-10.75972175598145
 20
18.99974250793457
 11
-11.12285804748535
 21
18.63660430908203
  0
LINE
  8
0
  6
CONTINUOUS
 62
     7
 10
-13.9997091293335
 20
1.499759316444397
 11
-12.4996976852417
 21
-0.0002531761419959366
  0
LINE
  8
0
  6
CONTINUOUS
 62
     7
 10
14.00004100799561
 20
1.499998092651367
 11
12.50005054473877
 21
7.12282189851976E-006
  0
LINE
  8
0
  6
CONTINUOUS
 62
     7
 10
12.50031566619873
 20
18.99968528747559
 11
14.00032806396484
 21
17.49967384338379
  0
LINE
  8
0
  6
CONTINUOUS
 62
     7
 10
14
 20
4.80059814453125
 11
14
 21
1.5
  0
LINE
  8
0
  6
CONTINUOUS
 62
     7
 10
10.00042247772217
 20
9.969685554504395
 11
11.30529022216797
 21
11.52476501464844
  0
LINE
  8
0
  6
CONTINUOUS
 62
     7
 10
10.00009059906006
 20
7.109959602355957
 11
14.00017356872559
 21
4.800511360168457
  0
LINE
  8
0
  6
CONTINUOUS
 62
     7
 10
4.5
 20
0
 11
12.5
 21
0
  0
LINE
  8
0
  6
CONTINUOUS
 62
     7
 10
-4.499768257141113
 20
-0.0001840974291553721
 11
-3.999767541885376
 21
0.4998164474964142
  0
LINE
  8
0
  6
CONTINUOUS
 62
     7
 10
4.000326633453369
 20
0.499730795621872
 11
4.50027322769165
 21
-0.0002157918643206358
  0
LINE
  8
0
  6
DASHED
 62
     7
 10
-7
 20
19
 11
-7
 21
7
  0
LINE
  8
0
  6
DASHED
 62
     7
 10
7
 20
19
 11
7
 21
7
  0
LINE
  8
0
  6
DASHED
 62
     7
 10
-4.5
 20
7
 11
-4.5
 21
0
  0
LINE
  8
0
  6
DASHED
 62
     7
 10
4.5
 20
7
 11
4.5
 21
0
  0
LINE
  8
0
  6
DASHED
 62
     7
 10
-7
 20
7
 11
7
 21
7
  0
LINE
  8
0
  6
CONTINUOUS
 62
     7
 10
-13.63659191131592
 20
16.12285995483398
 11
-13.99972152709961
 21
15.75972843170166
  0
LINE
  8
0
  6
CONTINUOUS
 62
     7
 10
13.86989784240723
 20
14.58114624023438
 11
14.00041580200195
 21
14.73669147491455
  0
LINE
  8
0
  6
CONTINUOUS
 62
     7
 10
-24.999755859375
 20
33
 11
-17.5
 21
33
  0
LINE
  8
0
  6
CONTINUOUS
 62
     7
 10
-26.5
 20
31.5
 11
-26.5
 21
23.40000915527344
  0
LINE
  8
0
  6
CONTINUOUS
 62
     7
 10
-26.49971008300781
 20
31.4997673034668
 11
-24.99970817565918
 21
32.9997673034668
  0
LINE
  8
0
  6
CONTINUOUS
 62
     7
 10
-17
 20
32.5
 11
-9.999755859375
 21
32.5
  0
LINE
  8
0
  6
CONTINUOUS
 62
     7
 10
30.5
 20
31.49996948242188
 11
30.5
 21
18.39999389648438
  0
LINE
  8
0
  6
CONTINUOUS
 62
     7
 10
-17.49972915649414
 20
32.99977493286133
 11
-16.99978256225586
 21
32.49982833862305
  0
LINE
  8
0
  6
CONTINUOUS
 62
     7
 10
2.500218391418457
 20
32.99978637695313
 11
3.000164985656738
 21
32.49983978271484
  0
LINE
  8
0
  6
CONTINUOUS
 62
     7
 10
-9.99980640411377
 20
32.49986267089844
 11
-9.499826431274414
 21
32.99983978271484
  0
LINE
  8
0
  6
CONTINUOUS
 62
     7
 10
16.00035095214844
 20
32.49969100952148
 11
16.50035095214844
 21
32.99969100952148
  0
LINE
  8
0
  6
CONTINUOUS
 62
     7
 10
29.00028038024902
 20
32.99972534179688
 11
30.50028228759766
 21
31.49970436096191
  0
LINE
  8
0
  6
CONTINUOUS
 62
     7
 10
3
 20
32.5
 11
16
 21
32.5
  0
LINE
  8
0
  6
CONTINUOUS
 62
     7
 10
-9.499755859375
 20
33
 11
2.5
 21
33
  0
LINE
  8
0
  6
CONTINUOUS
 62
     7
 10
16.5
 20
33
 11
29
 21
33
  0
LINE
  8
0
  6
CONTINUOUS
 62
     7
 10
30.10009765625
 20
18
 11
30.10009765625
 21
6
  0
LINE
  8
0
  6
CONTINUOUS
 62
     7
 10
-26.099853515625
 20
23
 11
-26.099853515625
 21
16.25
  0
LINE
  8
0
  6
CONTINUOUS
 62
     7
 10
-26.49968338012695
 20
23.39974594116211
 11
-26.09969139099121
 21
22.99975395202637
  0
LINE
  8
0
  6
CONTINUOUS
 62
     7
 10
30.10011672973633
 20
17.99991226196289
 11
30.50011825561523
 21
18.39991569519043
  0
LINE
  8
0
  6
CONTINUOUS
 62
     7
 10
-25.599853515625
 20
15.75
 11
-25.199951171875
 21
15.75
  0
LINE
  8
0
  6
CONTINUOUS
 62
     7
 10
29.2001953125
 20
5.5
 11
29.60009765625
 21
5.5
  0
LINE
  8
0
  6
CONTINUOUS
 62
     7
 10
29.60004043579102
 20
5.50001335144043
 11
30.10003662109375
 21
6.000019073486328
  0
LINE
  8
0
  6
CONTINUOUS
 62
     7
 10
-26.09975051879883
 20
16.24978065490723
 11
-25.59980392456055
 21
15.74983406066895
  0
LINE
  8
0
  6
CENTER
 62
     7
 10
-3.5
 20
34.01048278808594
 11
-3.5
 21
18.23384094238281
  0
LINE
  8
0
  6
CENTER
 62
     7
 10
22.5
 20
33.82514953613281
 11
22.5
 21
11.77642822265625
  0
LINE
  8
0
  6
CONTINUOUS
 62
     7
 10
-24.39990234375
 20
32
 11
28.40008544921875
 21
32
  0
LINE
  8
0
  6
CONTINUOUS
 62
     7
 10
-25.599853515625
 20
30.79998779296875
 11
-25.599853515625
 21
16.14999389648438
  0
LINE
  8
0
  6
CONTINUOUS
 62
     7
 10
29.60009765625
 20
30.79998779296875
 11
29.60009765625
 21
5.900009155273438
  0
LINE
  8
0
  6
CONTINUOUS
 62
     7
 10
-24.599853515625
 20
15.14999389648438
 11
-14
 21
15.14999389648438
  0
LINE
  8
0
  6
CONTINUOUS
 62
     7
 10
13.827880859375
 20
4.899993896484375
 11
28.60009765625
 21
4.899993896484375
  0
LINE
  8
0
  6
CONTINUOUS
 62
     7
 10
-24.39973831176758
 20
31.9997615814209
 11
-25.59973335266113
 21
30.79976272583008
  0
LINE
  8
0
  6
CONTINUOUS
 62
     7
 10
-25.59967041015625
 20
16.14973258972168
 11
-24.59977722167969
 21
15.14983940124512
  0
LINE
  8
0
  6
CONTINUOUS
 62
     7
 10
28.60001945495606
 20
4.899994373321533
 11
29.60002136230469
 21
5.900014877319336
  0
LINE
  8
0
  6
CONTINUOUS
 62
     7
 10
-17
 20
17.00259399414063
 11
-17
 21
15.14999389648438
  0
LINE
  8
0
  6
CONTINUOUS
 62
     7
 10
-12.72469425201416
 20
21.27741050720215
 11
-16.99972724914551
 21
17.00235939025879
  0
LINE
  8
0
  6
CONTINUOUS
 62
     7
 10
-7.837721824645996
 20
22
 11
-1.07180118560791
 21
22
  0
LINE
  8
0
  6
CONTINUOUS
 62
     7
 10
13.7429313659668
 20
21.99971008300781
 11
17.00017929077148
 21
18.74246215820313
  0
LINE
  8
0
  6
CONTINUOUS
 62
     7
 10
17
 20
18.74261474609375
 11
17
 21
13.64428424835205
  0
LINE
  8
0
  6
CONTINUOUS
 62
     7
 10
12.98004627227783
 20
8.853490829467773
 11
16.99999809265137
 21
13.64428424835205
  0
LINE
  8
0
  6
CONTINUOUS
 62
     7
 10
12.97969150543213
 20
8.853788375854492
 11
19.82797431945801
 21
4.899930953979492
  0
LINE
  8
0
  6
CONTINUOUS
 62
     7
 10
1.077810287475586
 20
22
 11
13.74267578125
 21
22
  0
LINE
  8
0
  6
CONTINUOUS
 62
     7
 10
1.780029296875
 20
29.5
 11
5.860107421875
 21
29.5
  0
LINE
  8
0
  6
CONTINUOUS
 62
     7
 10
1.780029296875
 20
22.5
 11
5.860107421875
 21
22.5
  0
LINE
  8
0
  6
CONTINUOUS
 62
     7
 10
1.130450248718262
 20
26.00001525878906
 11
1.780444025993347
 21
22.50001525878906
  0
LINE
  8
0
  6
CONTINUOUS
 62
     7
 10
1.130319833755493
 20
25.9998779296875
 11
1.780310869216919
 21
29.49986267089844
  0
LINE
  8
0
  6
CONTINUOUS
 62
     7
 10
3.440441608428955
 20
25.99998664855957
 11
4.090452671051025
 21
22.49997520446777
  0
LINE
  8
0
  6
CONTINUOUS
 62
     7
 10
3.440248727798462
 20
25.99986457824707
 11
4.090260028839111
 21
29.4998779296875
  0
LINE
  8
0
  6
CONTINUOUS
 62
     7
 10
5.950478553771973
 20
22.96982955932617
 11
5.860466480255127
 21
22.49982452392578
  0
LINE
  8
0
  6
CONTINUOUS
 62
     7
 10
5.950576782226563
 20
29.02005004882813
 11
5.860569000244141
 21
29.50004196166992
  0
LINE
  8
0
  6
CONTINUOUS
 62
     7
 10
7.76635217666626
 20
22.75435638427734
 11
10.52022075653076
 21
23.49998664855957
  0
LINE
  8
0
  6
CONTINUOUS
 62
     7
 10
7.750365257263184
 20
29.2498664855957
 11
10.52049446105957
 21
28.49983215332031
  0
LINE
  8
0
  6
CONTINUOUS
 62
     7
 10
0.0005315166781656444
 20
21.38086700439453
 11
1.947747945785523
 21
22.49996948242188
  0
LINE
  8
0
  6
CONTINUOUS
 62
     7
 10
0.0006735952338203788
 20
21.38079261779785
 11
-4.000465393066406
 21
23.69085121154785
  0
LINE
  8
0
  6
CONTINUOUS
 62
     7
 10
-4.000166893005371
 20
23.69085121154785
 11
-4.000683784484863
 21
28.30994606018066
  0
LINE
  8
0
  6
CONTINUOUS
 62
     7
 10
-4.000970363616943
 20
28.30998229980469
 11
-0.0004451146523933858
 21
30.61908912658691
  0
LINE
  8
0
  6
CONTINUOUS
 62
     7
 10
-0.0004659380356315523
 20
30.61905479431152
 11
1.937942624092102
 21
29.49991416931152
  0
LINE
  8
0
  6
CONTINUOUS
 62
     7
 10
-3.999755859375
 20
0.5
 11
4
 21
0.5
  0
LINE
  8
0
  6
CONTINUOUS
 62
     7
 10
-16.5
 20
26.5
 11
-16.5
 21
32
  0
LINE
  8
0
  6
CONTINUOUS
 62
     7
 10
-5.5
 20
26.5
 11
-5.5
 21
32
  0
LINE
  8
0
  6
CONTINUOUS
 62
     7
 10
16.63209342956543
 20
4.5
 11
26.5
 21
4.5
  0
LINE
  8
0
  6
CONTINUOUS
 62
     7
 10
26.5
 20
4.899993896484375
 11
26.5
 21
4.5
  0
LINE
  8
0
  6
CONTINUOUS
 62
     7
 10
15.9393367767334
 20
4.899963855743408
 11
16.63209342956543
 21
4.5
  0
LINE
  8
0
  6
CONTINUOUS
 62
     7
 10
-25.5
 20
15
 11
-14.2998046875
 21
15
  0
LINE
  8
0
  6
CONTINUOUS
 62
     7
 10
-25.5
 20
15.75
 11
-25.5
 21
15
  0
LINE
  8
0
  6
CONTINUOUS
 62
     7
 10
-14.2998046875
 20
15.14999389648438
 11
-14.2998046875
 21
15
  0
LINE
  8
0
  6
CONTINUOUS
 62
     7
 10
28.40009880065918
 20
32
 11
29.60009956359863
 21
30.80000114440918
  0
LINE
  8
0
  6
CENTER
 62
     7
 10
68
 20
90
 11
272.812255859375
 21
90
  0
LINE
  8
0
  6
CONTINUOUS
 62
     7
 10
70
 20
104
 11
70
 21
76
  0
LINE
  8
0
  6
CONTINUOUS
 62
     7
 10
70
 20
104
 11
118.5
 21
104
  0
LINE
  8
0
  6
CONTINUOUS
 62
     7
 10
70
 20
100.7594604492188
 11
118.5
 21
100.7594604492188
  0
LINE
  8
0
  6
CONTINUOUS
 62
     7
 10
70
 20
76
 11
118.5
 21
76
  0
LINE
  8
0
  6
CONTINUOUS
 62
     7
 10
270
 20
104
 11
270
 21
76
  0
LINE
  8
0
  6
CONTINUOUS
 62
     7
 10
118.5
 20
105.4780578613281
 11
118.5
 21
74.99992370605469
  0
LINE
  8
0
  6
CONTINUOUS
 62
     7
 10
120.5
 20
115.599853515625
 11
120.5
 21
60.39988708496094
  0
LINE
  8
0
  6
CONTINUOUS
 62
     7
 10
122
 20
115.599853515625
 11
122
 21
60.39988708496094
  0
LINE
  8
0
  6
CONTINUOUS
 62
     7
 10
134.85009765625
 20
116.5
 11
134.85009765625
 21
59.49998474121094
  0
LINE
  8
0
  6
CONTINUOUS
 62
     7
 10
221.5
 20
105.4781188964844
 11
221.5
 21
74.99984741210938
  0
LINE
  8
0
  6
CONTINUOUS
 62
     7
 10
219.5
 20
115.599853515625
 11
219.5
 21
60.39988708496094
  0
LINE
  8
0
  6
CONTINUOUS
 62
     7
 10
218
 20
115.599853515625
 11
218
 21
60.39988708496094
  0
LINE
  8
0
  6
CONTINUOUS
 62
     7
 10
205.1499938964844
 20
116.5
 11
205.1499938964844
 21
59.49998474121094
  0
LINE
  8
0
  6
CONTINUOUS
 62
     7
 10
221.5
 20
104
 11
270
 21
104
  0
LINE
  8
0
  6
CONTINUOUS
 62
     7
 10
221.5
 20
100.7594604492188
 11
270
 21
100.7594604492188
  0
LINE
  8
0
  6
CONTINUOUS
 62
     7
 10
221.5
 20
76
 11
270
 21
76
  0
LINE
  8
0
  6
CONTINUOUS
 62
     7
 10
134.85009765625
 20
116.5
 11
205.1499938964844
 21
116.5
  0
LINE
  8
0
  6
CONTINUOUS
 62
     7
 10
134.85009765625
 20
107.4999389648438
 11
205.1499938964844
 21
107.4999389648438
  0
LINE
  8
0
  6
CONTINUOUS
 62
     7
 10
134.85009765625
 20
99.49966430664063
 11
205.1499938964844
 21
99.49966430664063
  0
LINE
  8
0
  6
CONTINUOUS
 62
     7
 10
134.85009765625
 20
87.49996948242188
 11
205.1499938964844
 21
87.49996948242188
  0
LINE
  8
0
  6
CONTINUOUS
 62
     7
 10
134.85009765625
 20
73.49932861328125
 11
205.1499938964844
 21
73.49932861328125
  0
LINE
  8
0
  6
CONTINUOUS
 62
     7
 10
134.85009765625
 20
59.49998474121094
 11
205.1499938964844
 21
59.49998474121094
  0
LINE
  8
0
  6
CONTINUOUS
 62
     7
 10
120.5
 20
60.39988708496094
 11
134.85009765625
 21
60.39988708496094
  0
LINE
  8
0
  6
CONTINUOUS
 62
     7
 10
120.5
 20
115.599853515625
 11
134.85009765625
 21
115.599853515625
  0
LINE
  8
0
  6
CONTINUOUS
 62
     7
 10
205.1499938964844
 20
115.599853515625
 11
219.5
 21
115.599853515625
  0
LINE
  8
0
  6
CONTINUOUS
 62
     7
 10
205.1499938964844
 20
60.39988708496094
 11
219.5
 21
60.39988708496094
  0
LINE
  8
0
  6
CONTINUOUS
 62
     7
 10
118.4999923706055
 20
74.99994659423828
 11
120.4999923706055
 21
72.99994659423828
  0
LINE
  8
0
  6
CONTINUOUS
 62
     7
 10
120.5000076293945
 20
107.0000076293945
 11
118.5
 21
105.4780654907227
  0
LINE
  8
0
  6
CONTINUOUS
 62
     7
 10
221.5000762939453
 20
74.99996185302734
 11
219.5000762939453
 21
72.99995422363281
  0
LINE
  8
0
  6
CONTINUOUS
 62
     7
 10
219.5000915527344
 20
107
 11
221.5000915527344
 21
105.4780578613281
  0
LINE
  8
0
  6
CENTER
 62
     7
 10
250
 20
98
 11
250
 21
82
  0
LINE
  8
0
  6
CENTER
 62
     7
 10
90
 20
98
 11
90
 21
82
  0
LINE
  8
0
  6
CONTINUOUS
 62
     7
 10
115.2001037597656
 20
94
 11
120.5
 21
94
  0
LINE
  8
0
  6
CONTINUOUS
 62
     7
 10
116.8201293945313
 20
86
 11
120.5
 21
86
  0
LINE
  8
0
  6
CONTINUOUS
 62
     7
 10
111.2001037597656
 20
90
 11
111.2001037597656
 21
88.327880859375
  0
LINE
  8
0
  6
CONTINUOUS
 62
     7
 10
108.9827728271484
 20
80.47844696044922
 11
113.4173965454102
 21
78.64156341552734
  0
LINE
  8
0
  6
CONTINUOUS
 62
     7
 10
109.1845397949219
 20
83.31734466552734
 11
115.2821350097656
 21
80.79164123535156
  0
LINE
  8
0
  6
CONTINUOUS
 62
     7
 10
108.982795715332
 20
80.47844696044922
 11
109.1845550537109
 21
83.31734466552734
  0
LINE
  8
0
  6
CONTINUOUS
 62
     7
 10
113.4174118041992
 20
78.64156341552734
 11
115.2821578979492
 21
80.79164123535156
  0
LINE
  8
0
  6
CONTINUOUS
 62
     7
 10
109.9232635498047
 20
87.03819274902344
 11
110.3379287719727
 21
88.03926086425781
  0
LINE
  8
0
  6
CONTINUOUS
 62
     7
 10
117.3908462524414
 20
83.94499969482422
 11
117.8055038452148
 21
84.94606018066406
  0
LINE
  8
0
  6
CONTINUOUS
 62
     7
 10
111.1173629760742
 20
88.36208343505859
 11
110.3379287719727
 21
88.03923034667969
  0
LINE
  8
0
  6
CONTINUOUS
 62
     7
 10
115.294319152832
 20
84.16400909423828
 11
116.1668930053711
 21
86.27058410644531
  0
LINE
  8
0
  6
CONTINUOUS
 62
     7
 10
111.1173629760742
 20
88.36215209960938
 11
117.482666015625
 21
85.72555541992188
  0
LINE
  8
0
  6
CONTINUOUS
 62
     7
 10
117.8055191040039
 20
84.94606018066406
 11
117.4826583862305
 21
85.72550964355469
  0
LINE
  8
0
  6
CENTER
 62
     7
 10
152.5
 20
67.5
 11
142.5
 21
67.5
  0
LINE
  8
0
  6
CENTER
 62
     7
 10
147.5
 20
72.5
 11
147.5
 21
62.5
  0
LINE
  8
0
  6
CENTER
 62
     7
 10
152.5
 20
93.5
 11
142.5
 21
93.5
  0
LINE
  8
0
  6
CENTER
 62
     7
 10
147.5
 20
98.5
 11
147.5
 21
88.5
  0
LINE
  8
0
  6
CENTER
 62
     7
 10
197.5
 20
93.5
 11
187.5
 21
93.5
  0
LINE
  8
0
  6
CENTER
 62
     7
 10
192.5
 20
98.5
 11
192.5
 21
88.5
  0
LINE
  8
0
  6
CENTER
 62
     7
 10
197.5
 20
67.5
 11
187.5
 21
67.5
  0
LINE
  8
0
  6
CENTER
 62
     7
 10
192.5
 20
72.5
 11
192.5
 21
62.5
  0
LINE
  8
0
  6
CONTINUOUS
 62
     7
 10
111.5605545043945
 20
85.71059417724609
 11
112.4331207275391
 21
87.81714630126953
  0
LINE
  8
0
  6
CENTER
 62
     7
 10
170
 20
98
 11
170
 21
82
  0
LINE
  8
0
  6
CENTER
 62
     7
 10
170
 20
11.10885715484619
 11
170
 21
-1.31146240234375
  0
LINE
  8
0
  6
CONTINUOUS
 62
     7
 10
110.1530532836914
 20
86.29360961914063
 11
116.7018280029297
 21
83.58099365234375
  0
LINE
  8
0
  6
CENTER
 62
     7
 10
-4.900923728942871
 20
26
 11
12.89904117584229
 21
26
  0
LINE
  8
0
  6
CENTER
 62
     7
 10
119.9654006958008
 20
25.99999237060547
 11
105.7934646606445
 21
25.99999237060547
  0
LINE
  8
0
  6
CENTER
 62
     7
 10
110.669921875
 20
78.28009033203125
 11
115.5244827270508
 21
90
  0
ARC
  8
0
  6
CONTINUOUS
 62
     7
 10
115.500244140625
 20
26.00004577636719
 40
3.999999999999998
 50
89.99998201391055
 51
118.4958044387706
  0
ARC
  8
0
  6
CONTINUOUS
 62
     7
 10
115.500244140625
 20
26.00004577636719
 40
3.982465744018556
 50
241.5040862782025
 51
269.9999087030625
  0
ARC
  8
0
  6
CONTINUOUS
 62
     7
 10
-11
 20
26.5
 40
5.5
 50
180.0000359721787
 51
359.9999826971572
  0
CIRCLE
  8
0
  6
CONTINUOUS
 62
     7
 10
22.5
 20
18
 40
5.5
  0
CIRCLE
  8
0
  6
CONTINUOUS
 62
     7
 10
22.5
 20
18
 40
2.75
  0
ARC
  8
0
  6
CONTINUOUS
 62
     7
 10
6.6201171875
 20
21.91999816894531
 40
1.246148109436035
 50
56.43376865869168
 51
142.1250351177266
  0
ARC
  8
0
  6
CONTINUOUS
 62
     7
 10
6.6201171875
 20
30.08000183105469
 40
1.254199028015136
 50
217.8749648822735
 51
301.9488015647142
  0
ARC
  8
0
  6
CONTINUOUS
 62
     7
 10
0
 20
26
 40
4
 50
240.0000239814524
 51
241.0449882829511
  0
ARC
  8
0
  6
CONTINUOUS
 62
     7
 10
0
 20
26
 40
3.998106002807619
 50
61.09402038976974
 51
298.9059076658729
  0
CIRCLE
  8
0
  6
CONTINUOUS
 62
     7
 10
147.5
 20
67.5
 40
3.399999618530273
  0
CIRCLE
  8
0
  6
CONTINUOUS
 62
     7
 10
147.5
 20
67.5
 40
4
  0
CIRCLE
  8
0
  6
CONTINUOUS
 62
     7
 10
90
 20
90
 40
4.5
  0
CIRCLE
  8
0
  6
CONTINUOUS
 62
     7
 10
90
 20
90
 40
7
  0
ARC
  8
0
  6
CONTINUOUS
 62
     7
 10
112.2333526611328
 20
82.05447387695313
 40
3.299999237060547
 50
131.5803705110074
 51
157.4999548639652
  0
ARC
  8
0
  6
CONTINUOUS
 62
     7
 10
112.2333526611328
 20
82.05447387695313
 40
3.29999923706055
 50
337.5000181569006
 51
3.419602296415172
  0
ARC
  8
0
  6
CONTINUOUS
 62
     7
 10
104.3170013427734
 20
84.90057373046875
 40
5.999999999999996
 50
2.433650829345525
 51
20.87173987704918
  0
ARC
  8
0
  6
CONTINUOUS
 62
     7
 10
119.8435363769531
 20
78.46926879882813
 40
6.000000000000004
 50
114.1278165022774
 51
132.5663219780771
  0
ARC
  8
0
  6
CONTINUOUS
 62
     7
 10
109.5122985839844
 20
85.12136840820313
 40
0.7999999523162822
 50
311.5798327472963
 51
2.433049772698627
  0
ARC
  8
0
  6
CONTINUOUS
 62
     7
 10
116.3260345458984
 20
82.29902648925781
 40
0.7999999523162843
 50
132.566977676238
 51
183.4201402735703
  0
ARC
  8
0
  6
CONTINUOUS
 62
     7
 10
115.2001037597656
 20
90
 40
3.999999999999998
 50
89.99998201391055
 51
180.0000186693347
  0
CIRCLE
  8
0
  6
CONTINUOUS
 62
     7
 10
-11
 20
26.5
 40
2.75
  0
ARC
  8
0
  6
CONTINUOUS
 62
     7
 10
14.19999980926514
 20
11.69999980926514
 40
2.899999618530273
 50
96.53592663447927
 51
183.4640720503117
  0
ARC
  8
0
  6
CONTINUOUS
 62
     7
 10
-14
 20
19
 40
2.899999618530275
 50
277.1988734467427
 51
352.8014040865351
  0
POLYLINE
  8
0
  6
CONTINUOUS
 62
     7
 66
     1
 10
0
 20
0
  0
VERTEX
  8
0
  6
CONTINUOUS
 62
     7
 10
110.0762245558036
 20
23.81894265818207
 42
0.06283198502826687
  0
VERTEX
  8
0
  6
CONTINUOUS
 62
     7
 10
110.6405233343021
 20
23.29277303562059
 42
0.06649676044873693
  0
VERTEX
  8
0
  6
CONTINUOUS
 62
     7
 10
111.3205228450795
 20
22.9282704127016
 42
0.06915512354480478
  0
VERTEX
  8
0
  6
CONTINUOUS
 62
     7
 10
112.0728759279582
 20
22.75941251094376
 42
0.06975247212342702
  0
VERTEX
  8
0
  6
CONTINUOUS
 62
     7
 10
112.8416292269035
 20
22.80340954410074
 42
0.06816312020898716
  0
VERTEX
  8
0
  6
CONTINUOUS
 62
     7
 10
113.5694718404298
 20
23.05522863355534
 42
0.06499570920454882
  0
VERTEX
  8
0
  6
CONTINUOUS
 62
     7
 10
114.2060378104974
 20
23.49005666577362
 42
0.0612909387414388
  0
VERTEX
  8
0
  6
CONTINUOUS
 62
     7
 10
114.714096531248
 20
24.07015430560162
 42
0.05807982902942985
  0
VERTEX
  8
0
  6
CONTINUOUS
 62
     7
 10
115.071095250843
 20
24.75414548190619
 42
0.05590571836632056
  0
VERTEX
  8
0
  6
CONTINUOUS
 62
     7
 10
115.2647552778255
 20
25.50128729713974
 42
0.05496416257831622
  0
VERTEX
  8
0
  6
CONTINUOUS
 62
     7
 10
115.2897707314285
 20
26.2720079869311
 42
0.05547420295048011
  0
VERTEX
  8
0
  6
CONTINUOUS
 62
     7
 10
115.1456915552294
 20
27.02989545988104
 42
0.05728065895254428
  0
VERTEX
  8
0
  6
CONTINUOUS
 62
     7
 10
114.8362813373659
 20
27.7363349964864
 42
0.06026839747269757
  0
VERTEX
  8
0
  6
CONTINUOUS
 62
     7
 10
114.3710418493198
 20
28.35164146208906
 42
0.06395235122210756
  0
VERTEX
  8
0
  6
CONTINUOUS
 62
     7
 10
113.7688354790138
 20
28.83401729696603
 42
0.06744465421212091
  0
VERTEX
  8
0
  6
CONTINUOUS
 62
     7
 10
113.0621791287739
 20
29.14347709954195
 42
0.06944112615963605
  0
VERTEX
  8
0
  6
CONTINUOUS
 62
     7
 10
112.30029296875
 20
29.25003051757813
 42
0
  0
SEQEND
  8
0
  0
POLYLINE
  8
0
  6
CONTINUOUS
 62
     7
 66
     1
 10
0
 20
0
  0
VERTEX
  8
0
  6
CONTINUOUS
 62
     7
 10
111.2006095921448
 20
28.50004543928989
 42
0.1103661803746691
  0
VERTEX
  8
0
  6
CONTINUOUS
 62
     7
 10
110.2884503779779
 20
28.29502549015391
 42
0.1024793208365117
  0
VERTEX
  8
0
  6
CONTINUOUS
 62
     7
 10
109.5410708206135
 20
27.73107536269735
 42
0.09326761848846041
  0
VERTEX
  8
0
  6
CONTINUOUS
 62
     7
 10
109.0633198656472
 20
26.92426756275667
 42
0.08779673344709331
  0
VERTEX
  8
0
  6
CONTINUOUS
 62
     7
 10
108.9002056314346
 20
26.0003747258323
 42
0.08777962926813296
  0
VERTEX
  8
0
  6
CONTINUOUS
 62
     7
 10
109.0626510709079
 20
25.07670738080176
 42
0.09328103872014541
  0
VERTEX
  8
0
  6
CONTINUOUS
 62
     7
 10
109.5397462903388
 20
24.26978457537413
 42
0.1026567514024161
  0
VERTEX
  8
0
  6
CONTINUOUS
 62
     7
 10
110.2878621881441
 20
23.70494031533044
 42
0.1104396527047751
  0
VERTEX
  8
0
  6
CONTINUOUS
 62
     7
 10
111.200422140852
 20
23.50004622616639
 42
0.1103630290901739
  0
VERTEX
  8
0
  6
CONTINUOUS
 62
     7
 10
112.1125214307786
 20
23.70533906503046
 42
0.1024726958327336
  0
VERTEX
  8
0
  6
CONTINUOUS
 62
     7
 10
112.8597449215651
 20
24.26949771665593
 42
0.09326231088884554
  0
VERTEX
  8
0
  6
CONTINUOUS
 62
     7
 10
113.3372917452514
 20
25.07642762335744
 42
0.08779109665562705
  0
VERTEX
  8
0
  6
CONTINUOUS
 62
     7
 10
113.5001851126565
 20
26.00031961977743
 42
0.08778152805921251
  0
VERTEX
  8
0
  6
CONTINUOUS
 62
     7
 10
113.3375323075151
 20
26.92395106570083
 42
0.09328615503617889
  0
VERTEX
  8
0
  6
CONTINUOUS
 62
     7
 10
112.8602445601486
 20
27.73076014085923
 42
0.102663057058094
  0
VERTEX
  8
0
  6
CONTINUOUS
 62
     7
 10
112.1119810277364
 20
28.2954081411575
 42
0.1104327646065682
  0
VERTEX
  8
0
  6
CONTINUOUS
 62
     7
 10
111.1994469877993
 20
28.50004509161089
 42
0
  0
SEQEND
  8
0
  0
POLYLINE
  8
0
  6
CONTINUOUS
 62
     7
 66
     1
 10
0
 20
0
  0
VERTEX
  8
0
  6
CONTINUOUS
 62
     7
 10
112.30029296875
 20
29.25003051757813
 42
0.01434914067535294
  0
VERTEX
  8
0
  6
CONTINUOUS
 62
     7
 10
112.1414122211047
 20
29.2454695574443
 42
0.01426048772390657
  0
VERTEX
  8
0
  6
CONTINUOUS
 62
     7
 10
111.9838014344322
 20
29.23189430766999
 42
0.01417560955510044
  0
VERTEX
  8
0
  6
CONTINUOUS
 62
     7
 10
111.8277026061423
 20
29.20945179657122
 42
0.01415080432738585
  0
VERTEX
  8
0
  6
CONTINUOUS
 62
     7
 10
111.6727406609055
 20
29.17812874339051
 42
0.01410152023797455
  0
VERTEX
  8
0
  6
CONTINUOUS
 62
     7
 10
111.5194788641681
 20
29.13802142752924
 42
0.01402952153566209
  0
VERTEX
  8
0
  6
CONTINUOUS
 62
     7
 10
111.3684621980284
 20
29.08927766700294
 42
0.01393694729368955
  0
VERTEX
  8
0
  6
CONTINUOUS
 62
     7
 10
111.2202118817417
 20
29.03209260536184
 42
0.0138262343144118
  0
VERTEX
  8
0
  6
CONTINUOUS
 62
     7
 10
111.0752207520646
 20
28.96670372166621
 42
0.01370003240474172
  0
VERTEX
  8
0
  6
CONTINUOUS
 62
     7
 10
110.9339496207611
 20
28.8933852810355
 42
0.01356111778827471
  0
VERTEX
  8
0
  6
CONTINUOUS
 62
     7
 10
110.7968246732223
 20
28.8124424599708
 42
0.0133223818580348
  0
VERTEX
  8
0
  6
CONTINUOUS
 62
     7
 10
110.6651144697147
 20
28.72482437699018
 42
0.01328781805175065
  0
VERTEX
  8
0
  6
CONTINUOUS
 62
     7
 10
110.5370933666186
 20
28.62946151436852
 42
0.01315488209470666
  0
VERTEX
  8
0
  6
CONTINUOUS
 62
     7
 10
110.4140409260312
 20
28.52725647281282
 42
0.01293834409789411
  0
VERTEX
  8
0
  6
CONTINUOUS
 62
     7
 10
110.2969965516353
 20
28.41924248809757
 42
0.01278036065768046
  0
VERTEX
  8
0
  6
CONTINUOUS
 62
     7
 10
110.1856600222186
 20
28.3053538457839
 42
0.01262535791150508
  0
VERTEX
  8
0
  6
CONTINUOUS
 62
     7
 10
110.080250462811
 20
28.18595711233201
 42
0
  0
SEQEND
  8
0
  0
POLYLINE
  8
0
  6
CONTINUOUS
 62
     7
 66
     1
 10
0
 20
0
 70
     1
  0
VERTEX
  8
0
  6
CONTINUOUS
 62
     7
 10
10.52001953125
 20
28.5
 42
0.2551583190684335
  0
VERTEX
  8
0
  6
CONTINUOUS
 62
     7
 10
9.990203089512146
 20
28.07511604978823
 42
0.06319262259193011
  0
VERTEX
  8
0
  6
CONTINUOUS
 62
     7
 10
9.736102621578775
 20
27.41222921634753
 42
0.03518710556359209
  0
VERTEX
  8
0
  6
CONTINUOUS
 62
     7
 10
9.609370279558046
 20
26.71217774262918
 42
0.02798587551862151
  0
VERTEX
  8
0
  6
CONTINUOUS
 62
     7
 10
9.57000732421875
 20
26
 42
0.02789998175072451
  0
VERTEX
  8
0
  6
CONTINUOUS
 62
     7
 10
9.609141603463486
 20
25.28985030689885
 42
0.03516088695012543
  0
VERTEX
  8
0
  6
CONTINUOUS
 62
     7
 10
9.735638101394498
 20
24.58955807218095
 42
0.06315694958358577
  0
VERTEX
  8
0
  6
CONTINUOUS
 62
     7
 10
9.989675402820261
 20
23.92581762307502
 42
0.2552835992842961
  0
VERTEX
  8
0
  6
CONTINUOUS
 62
     7
 10
10.52001953125
 20
23.5
 42
0.2551583190683012
  0
VERTEX
  8
0
  6
CONTINUOUS
 62
     7
 10
11.04983597298785
 20
23.92488395021177
 42
0.06319262259197815
  0
VERTEX
  8
0
  6
CONTINUOUS
 62
     7
 10
11.30393644092123
 20
24.58777078365247
 42
0.03518710556360598
  0
VERTEX
  8
0
  6
CONTINUOUS
 62
     7
 10
11.43066878294196
 20
25.28782225737082
 42
0.02798587551861895
  0
VERTEX
  8
0
  6
CONTINUOUS
 62
     7
 10
11.47003173828125
 20
26
 42
0.02789998175074458
  0
VERTEX
  8
0
  6
CONTINUOUS
 62
     7
 10
11.43089745903651
 20
26.71014969310115
 42
0.03516088695012943
  0
VERTEX
  8
0
  6
CONTINUOUS
 62
     7
 10
11.3044009611055
 20
27.41044192781906
 42
0.06315694958359036
  0
VERTEX
  8
0
  6
CONTINUOUS
 62
     7
 10
11.05036365967974
 20
28.07418237692499
 42
0.2552835992840665
  0
SEQEND
  8
0
  0
POLYLINE
  8
0
  6
CONTINUOUS
 62
     7
 66
     1
 10
0
 20
0
  0
VERTEX
  8
0
  6
CONTINUOUS
 62
     7
 10
7.75
 20
29.25
 42
0.1886538439188193
  0
VERTEX
  8
0
  6
CONTINUOUS
 62
     7
 10
7.335175109078562
 20
29.06581821641777
 42
0.07588973274716716
  0
VERTEX
  8
0
  6
CONTINUOUS
 62
     7
 10
7.053713864002456
 20
28.69910260230938
 42
0.03946222899272318
  0
VERTEX
  8
0
  6
CONTINUOUS
 62
     7
 10
6.858294746295598
 20
28.27757886185032
 42
0.02589539895082258
  0
VERTEX
  8
0
  6
CONTINUOUS
 62
     7
 10
6.718128876449407
 20
27.83432164916737
 42
0.01963291119721272
  0
VERTEX
  8
0
  6
CONTINUOUS
 62
     7
 10
6.618196729429497
 20
27.37952326712154
 42
0.01635593711754307
  0
VERTEX
  8
0
  6
CONTINUOUS
 62
     7
 10
6.55096795382116
 20
26.91858466666205
 42
0.01463209394687235
  0
VERTEX
  8
0
  6
CONTINUOUS
 62
     7
 10
6.51227316419735
 20
26.45431071363672
 42
0.01388375303446895
  0
VERTEX
  8
0
  6
CONTINUOUS
 62
     7
 10
6.50000769286758
 20
25.98859784795806
 42
0.01386095089808352
  0
VERTEX
  8
0
  6
CONTINUOUS
 62
     7
 10
6.513464537329149
 20
25.52426357272382
 42
0.01467184522058518
  0
VERTEX
  8
0
  6
CONTINUOUS
 62
     7
 10
6.553360438653121
 20
25.06056215678906
 42
0.01650631118942084
  0
VERTEX
  8
0
  6
CONTINUOUS
 62
     7
 10
6.622157667188939
 20
24.59871895061
 42
0.01985512291756273
  0
VERTEX
  8
0
  6
CONTINUOUS
 62
     7
 10
6.723848332023029
 20
24.1441157584193
 42
0.02639124852200584
  0
VERTEX
  8
0
  6
CONTINUOUS
 62
     7
 10
6.866594146852746
 20
23.70066178813482
 42
0.04065092915909149
  0
VERTEX
  8
0
  6
CONTINUOUS
 62
     7
 10
7.066023569305862
 20
23.27970378745802
 42
0.07989317248246651
  0
VERTEX
  8
0
  6
CONTINUOUS
 62
     7
 10
7.355351659492436
 20
22.91622825026891
 42
0.1977479071494526
  0
VERTEX
  8
0
  6
CONTINUOUS
 62
     7
 10
7.777835884139663
 20
22.75080592979352
 42
0
  0
SEQEND
  8
0
  0
TEXT
  8
0
  6
CONTINUOUS
 62
     7
 10
-1.599999904632568
 20
-16.79999971389771
 40
3.59999942779541
 41
1.039215701857426
  1
GSR30T
  0
ENDSEC
  0
EOF
