  0
SECTION
  2
HEADER
  0
ENDSEC
  0
SECTION
  2
TABLES
  0
TABLE
  2
LTYPE
 70
    22
  0
LTYPE
  2
CONTINUOUS
 70
    64
  3
Solid line
 72
    65
 73
     0
 40
0.000000
  0
LTYPE
  2
DASHED
 70
    64
  3
__ __ __ __ __ __ __ __ __ __ __ __ __ __ __
 72
    65
 73
     2
 40
3.500000
 49
2.000000
 49
-1.500000
  0
LTYPE
  2
CENTER
 70
    64
  3
____ _ ____ _ ____ _ ____ _ ____ _ ____ _ ____
 72
    65
 73
     4
 40
17.500000
 49
13.000000
 49
-1.500000
 49
1.500000
 49
-1.500000
  0
LTYPE
  2
PHANTOM
 70
    64
  3
_____ _ _ _____ _ _ _____ _ _ _____ _ _ ____  
 72
    65
 73
     6
 40
15.500000
 49
8.000000
 49
-1.500000
 49
1.500000
 49
-1.500000
 49
1.500000
 49
-1.500000
  0
LTYPE
  2
DOT
 70
    64
  3
. . . . . . . . . . . . . . . . . . . . . . . .
 72
    65
 73
     2
 40
0.25
 49
0.0
 49
-0.25
  0
ENDTAB
  0
TABLE
  2
LAYER
 70
     1
  0
LAYER
  2
0
 70
     0
 62
     7
  6
CONTINUOUS
  0
ENDTAB
  0
TABLE
  2
STYLE
 70
     1
  0
STYLE
  2
STANDARD
 70
     0
 40
0.000000
 41
1.000000
 50
0.000000
 71
     0
 42
0.200000
  3
txt
  0
ENDTAB
  0
TABLE
  2
VIEW
 70
     0
  0
ENDTAB
  0
ENDSEC
  0
SECTION
  2
BLOCKS
  0
ENDSEC
  0
SECTION
  2
ENTITIES
  0
LINE
  8
0
  6
CENTER
 62
     7
 10
225
 20
38.50947570800781
 11
225
 21
15.68089294433594
  0
LINE
  8
0
  6
CONTINUOUS
 62
     7
 10
100
 20
0
 11
300
 21
0
  0
LINE
  8
0
  6
CONTINUOUS
 62
     7
 10
159.85009765625
 20
38
 11
240.1499938964844
 21
38
  0
LINE
  8
0
  6
CONTINUOUS
 62
     7
 10
159.85009765625
 20
38
 11
159.85009765625
 21
6.29998779296875
  0
LINE
  8
0
  6
CONTINUOUS
 62
     7
 10
240.1499938964844
 20
38
 11
240.1499938964844
 21
6.29998779296875
  0
LINE
  8
0
  6
CONTINUOUS
 62
     7
 10
159.85009765625
 20
22.39999389648438
 11
240.1499938964844
 21
22.39999389648438
  0
LINE
  8
0
  6
CONTINUOUS
 62
     7
 10
145
 20
6.29998779296875
 11
255.0000152587891
 21
6.29998779296875
  0
LINE
  8
0
  6
CONTINUOUS
 62
     7
 10
145
 20
37.29998779296875
 11
145
 21
5.499984741210938
  0
LINE
  8
0
  6
CONTINUOUS
 62
     7
 10
145
 20
37.29998779296875
 11
159.85009765625
 21
37.29998779296875
  0
LINE
  8
0
  6
CONTINUOUS
 62
     7
 10
143.5
 20
36.99998474121094
 11
143.5
 21
5.699996948242188
  0
LINE
  8
0
  6
CONTINUOUS
 62
     7
 10
141.5
 20
23.00001525878906
 11
141.5
 21
5.699996948242188
  0
LINE
  8
0
  6
CONTINUOUS
 62
     7
 10
143.5
 20
37
 11
145
 21
37
  0
LINE
  8
0
  6
CONTINUOUS
 62
     7
 10
141.5
 20
5.699996948242188
 11
145
 21
5.699996948242188
  0
LINE
  8
0
  6
CONTINUOUS
 62
     7
 10
141.5000915527344
 20
22.99992752075195
 11
143.5000915527344
 21
24.99992942810059
  0
LINE
  8
0
  6
CONTINUOUS
 62
     7
 10
255.0000152587891
 20
5.499984741210938
 11
255.0000152587891
 21
37.29998779296875
  0
LINE
  8
0
  6
CONTINUOUS
 62
     7
 10
240.1500091552734
 20
37.29998779296875
 11
255.0000152587891
 21
37.29998779296875
  0
LINE
  8
0
  6
CONTINUOUS
 62
     7
 10
256.5
 20
5.699996948242188
 11
256.5
 21
36.99998474121094
  0
LINE
  8
0
  6
CONTINUOUS
 62
     7
 10
258.5
 20
5.699996948242188
 11
258.5
 21
23.00001525878906
  0
LINE
  8
0
  6
CONTINUOUS
 62
     7
 10
255.0000152587891
 20
37
 11
256.5
 21
37
  0
LINE
  8
0
  6
CONTINUOUS
 62
     7
 10
255.0000152587891
 20
5.699996948242188
 11
258.5
 21
5.699996948242188
  0
LINE
  8
0
  6
CONTINUOUS
 62
     7
 10
256.5000915527344
 20
24.99991989135742
 11
258.5000610351563
 21
22.99995994567871
  0
LINE
  8
0
  6
CONTINUOUS
 62
     7
 10
141.5
 20
25.3800048828125
 11
141.5
 21
34.61997985839844
  0
LINE
  8
0
  6
CONTINUOUS
 62
     7
 10
138.5
 20
33.99998474121094
 11
141.5
 21
33.99998474121094
  0
LINE
  8
0
  6
CONTINUOUS
 62
     7
 10
143.5
 20
34.61997985839844
 11
141.5
 21
34.61997985839844
  0
LINE
  8
0
  6
CONTINUOUS
 62
     7
 10
143.5
 20
25.3800048828125
 11
141.5
 21
25.3800048828125
  0
LINE
  8
0
  6
CONTINUOUS
 62
     7
 10
143.5
 20
27.69000244140625
 11
141.5
 21
27.69000244140625
  0
LINE
  8
0
  6
CONTINUOUS
 62
     7
 10
139.60009765625
 20
26.5
 11
134.400146484375
 21
26.5
  0
LINE
  8
0
  6
CONTINUOUS
 62
     7
 10
139.60009765625
 20
26.45999145507813
 11
139.60009765625
 21
26.5
  0
LINE
  8
0
  6
CONTINUOUS
 62
     7
 10
141.1001739501953
 20
29.99991416931152
 11
139.6001739501953
 21
26.49992179870606
  0
LINE
  8
0
  6
CONTINUOUS
 62
     7
 10
140.2002105712891
 20
29.99990653991699
 11
138.6002044677734
 21
26.49991226196289
  0
LINE
  8
0
  6
CONTINUOUS
 62
     7
 10
134.4000549316406
 20
26.49989891052246
 11
134.0000457763672
 21
27.07992935180664
  0
LINE
  8
0
  6
CONTINUOUS
 62
     7
 10
134.4000091552734
 20
33.49990081787109
 11
134.0000152587891
 21
32.91990661621094
  0
LINE
  8
0
  6
CONTINUOUS
 62
     7
 10
139.60009765625
 20
33.49998474121094
 11
134.400146484375
 21
33.49998474121094
  0
LINE
  8
0
  6
CONTINUOUS
 62
     7
 10
140.2001190185547
 20
29.99983215332031
 11
138.6001129150391
 21
33.49983978271484
  0
LINE
  8
0
  6
CONTINUOUS
 62
     7
 10
141.1000671386719
 20
29.99983787536621
 11
139.6000823974609
 21
33.49981307983398
  0
LINE
  8
0
  6
CONTINUOUS
 62
     7
 10
138.5
 20
26
 11
141.5
 21
26
  0
LINE
  8
0
  6
CONTINUOUS
 62
     7
 10
100
 20
22
 11
100
 21
0
  0
LINE
  8
0
  6
CONTINUOUS
 62
     7
 10
100
 20
22
 11
141.5
 21
22
  0
LINE
  8
0
  6
CONTINUOUS
 62
     7
 10
100
 20
20.49998474121094
 11
141.5
 21
20.49998474121094
  0
LINE
  8
0
  6
CONTINUOUS
 62
     7
 10
100
 20
17.52206420898438
 11
141.5
 21
17.52206420898438
  0
LINE
  8
0
  6
CONTINUOUS
 62
     7
 10
100
 20
13.70181274414063
 11
141.5
 21
13.70181274414063
  0
LINE
  8
0
  6
CONTINUOUS
 62
     7
 10
100
 20
12.03999328613281
 11
141.5
 21
12.03999328613281
  0
LINE
  8
0
  6
CONTINUOUS
 62
     7
 10
100
 20
7.659988403320313
 11
141.5
 21
7.659988403320313
  0
LINE
  8
0
  6
CONTINUOUS
 62
     7
 10
100
 20
5.004180908203125
 11
300
 21
5.004180908203125
  0
LINE
  8
0
  6
CONTINUOUS
 62
     7
 10
100
 20
1.5
 11
300
 21
1.5
  0
LINE
  8
0
  6
CONTINUOUS
 62
     7
 10
258.5
 20
22
 11
300
 21
22
  0
LINE
  8
0
  6
CONTINUOUS
 62
     7
 10
258.5
 20
20.49998474121094
 11
300
 21
20.49998474121094
  0
LINE
  8
0
  6
CONTINUOUS
 62
     7
 10
258.5
 20
17.52206420898438
 11
300
 21
17.52206420898438
  0
LINE
  8
0
  6
CONTINUOUS
 62
     7
 10
258.5
 20
13.70181274414063
 11
300
 21
13.70181274414063
  0
LINE
  8
0
  6
CONTINUOUS
 62
     7
 10
258.5
 20
12.03999328613281
 11
300
 21
12.03999328613281
  0
LINE
  8
0
  6
CONTINUOUS
 62
     7
 10
258.5
 20
7.659988403320313
 11
300
 21
7.659988403320313
  0
LINE
  8
0
  6
CONTINUOUS
 62
     7
 10
145
 20
5.499984741210938
 11
255.0000152587891
 21
5.499984741210938
  0
LINE
  8
0
  6
CENTER
 62
     7
 10
175
 20
38.50947570800781
 11
175
 21
15.68089294433594
  0
LINE
  8
0
  6
DASHED
 62
     7
 10
171
 20
38
 11
171
 21
23
  0
LINE
  8
0
  6
DASHED
 62
     7
 10
171.60009765625
 20
38
 11
171.60009765625
 21
20
  0
LINE
  8
0
  6
DASHED
 62
     7
 10
178.400146484375
 20
38
 11
178.400146484375
 21
20
  0
LINE
  8
0
  6
DASHED
 62
     7
 10
171
 20
23
 11
179
 21
23
  0
LINE
  8
0
  6
DASHED
 62
     7
 10
171.60009765625
 20
20
 11
178.400146484375
 21
20
  0
LINE
  8
0
  6
DASHED
 62
     7
 10
179
 20
23
 11
179
 21
38
  0
LINE
  8
0
  6
DASHED
 62
     7
 10
175.0000610351563
 20
18.03690910339356
 11
178.4000549316406
 21
19.99989891052246
  0
LINE
  8
0
  6
DASHED
 62
     7
 10
171.6001129150391
 20
19.99989700317383
 11
175.0001525878906
 21
18.03688430786133
  0
LINE
  8
0
  6
DASHED
 62
     7
 10
178.4000091552734
 20
21.96074104309082
 11
179.0000152587891
 21
22.99998283386231
  0
LINE
  8
0
  6
DASHED
 62
     7
 10
171.0000457763672
 20
22.99991989135742
 11
171.6000213623047
 21
21.96073150634766
  0
LINE
  8
0
  6
CONTINUOUS
 62
     7
 10
300
 20
22
 11
300
 21
0
  0
LINE
  8
0
  6
CENTER
 62
     7
 10
120
 20
24.38888549804688
 11
120
 21
-2.001937866210938
  0
LINE
  8
0
  6
DASHED
 62
     7
 10
114.5
 20
8
 11
114.5
 21
0
  0
LINE
  8
0
  6
DASHED
 62
     7
 10
125.5
 20
8
 11
125.5
 21
0
  0
LINE
  8
0
  6
DASHED
 62
     7
 10
111.25
 20
22
 11
111.25
 21
8
  0
LINE
  8
0
  6
DASHED
 62
     7
 10
128.75
 20
22
 11
128.75
 21
8
  0
LINE
  8
0
  6
DASHED
 62
     7
 10
111.25
 20
8
 11
128.75
 21
8
  0
LINE
  8
0
  6
CONTINUOUS
 62
     7
 10
-15.499755859375
 20
0
 11
-5.499755859375
 21
0
  0
LINE
  8
0
  6
CENTER
 62
     7
 10
0
 20
40.78411865234375
 11
0
 21
-2.289093017578125
  0
LINE
  8
0
  6
CONTINUOUS
 62
     7
 10
-13.1298828125
 20
22
 11
15.5
 21
22
  0
LINE
  8
0
  6
CONTINUOUS
 62
     7
 10
-17
 20
18.12997436523438
 11
-17
 21
1.5
  0
LINE
  8
0
  6
CONTINUOUS
 62
     7
 10
12.400146484375
 20
12.03999328613281
 11
12.400146484375
 21
7.659988403320313
  0
LINE
  8
0
  6
CONTINUOUS
 62
     7
 10
17
 20
20.49998474121094
 11
17
 21
17.52206420898438
  0
LINE
  8
0
  6
CONTINUOUS
 62
     7
 10
12.40012073516846
 20
12.03989791870117
 11
13.72243690490723
 21
13.61577320098877
  0
LINE
  8
0
  6
CONTINUOUS
 62
     7
 10
12.40009593963623
 20
7.659958362579346
 11
17.00022315979004
 21
5.004074096679688
  0
LINE
  8
0
  6
DASHED
 62
     7
 10
-8.75
 20
22
 11
-8.75
 21
8
  0
LINE
  8
0
  6
DASHED
 62
     7
 10
8.75
 20
22
 11
8.75
 21
8
  0
LINE
  8
0
  6
DASHED
 62
     7
 10
-5.5
 20
8
 11
-5.5
 21
0
  0
LINE
  8
0
  6
DASHED
 62
     7
 10
5.5
 20
8
 11
5.5
 21
0
  0
LINE
  8
0
  6
DASHED
 62
     7
 10
-8.75
 20
8
 11
8.75
 21
8
  0
LINE
  8
0
  6
CONTINUOUS
 62
     7
 10
17
 20
5.004180908203125
 11
17
 21
1.5
  0
LINE
  8
0
  6
CONTINUOUS
 62
     7
 10
-16.99997520446777
 20
18.12996864318848
 11
-16.39035224914551
 21
18.73959159851074
  0
LINE
  8
0
  6
CONTINUOUS
 62
     7
 10
15.50013542175293
 20
21.99985122680664
 11
17.00014686584473
 21
20.49983787536621
  0
LINE
  8
0
  6
CONTINUOUS
 62
     7
 10
-16.9998779296875
 20
1.499892234802246
 11
-15.49986553192139
 21
-0.000119949909276329
  0
LINE
  8
0
  6
CONTINUOUS
 62
     7
 10
17.00001525878906
 20
1.500008225440979
 11
15.50001430511475
 21
6.827787274232833E-006
  0
LINE
  8
0
  6
CONTINUOUS
 62
     7
 10
5.00007963180542
 20
0.4999358057975769
 11
5.500026226043701
 21
-1.078959303413285E-005
  0
LINE
  8
0
  6
CONTINUOUS
 62
     7
 10
-5.499898910522461
 20
-7.62015042710118E-005
 11
-4.999897956848145
 21
0.4999243319034576
  0
LINE
  8
0
  6
CONTINUOUS
 62
     7
 10
-4.999755859375
 20
0.5
 11
5
 21
0.5
  0
LINE
  8
0
  6
CONTINUOUS
 62
     7
 10
5.5
 20
0
 11
15.5
 21
0
  0
LINE
  8
0
  6
CONTINUOUS
 62
     7
 10
-13.63959217071533
 20
21.49035263061523
 11
-13.12995338439941
 21
21.99999046325684
  0
LINE
  8
0
  6
CONTINUOUS
 62
     7
 10
16.80923271179199
 20
17.29447174072266
 11
17.0001277923584
 21
17.52197456359863
  0
LINE
  8
0
  6
CONTINUOUS
 62
     7
 10
-29.5
 20
38
 11
-19.499755859375
 21
38
  0
LINE
  8
0
  6
CONTINUOUS
 62
     7
 10
37
 20
36.5
 11
37
 21
22.39999389648438
  0
LINE
  8
0
  6
CONTINUOUS
 62
     7
 10
-19
 20
37.5
 11
-11
 21
37.5
  0
LINE
  8
0
  6
CONTINUOUS
 62
     7
 10
3
 20
37.5
 11
21
 21
37.5
  0
LINE
  8
0
  6
CONTINUOUS
 62
     7
 10
-10.499755859375
 20
38
 11
2.5
 21
38
  0
LINE
  8
0
  6
CONTINUOUS
 62
     7
 10
21.5
 20
38
 11
35.5
 21
38
  0
LINE
  8
0
  6
CONTINUOUS
 62
     7
 10
-19.49989128112793
 20
37.99990081787109
 11
-18.99994659423828
 21
37.49995422363281
  0
LINE
  8
0
  6
CONTINUOUS
 62
     7
 10
2.500132083892822
 20
37.99985885620117
 11
3.000078678131104
 21
37.49991226196289
  0
LINE
  8
0
  6
CONTINUOUS
 62
     7
 10
21.00016212463379
 20
37.49984741210938
 11
21.50016212463379
 21
37.99984741210938
  0
LINE
  8
0
  6
CONTINUOUS
 62
     7
 10
-10.99986076354981
 20
37.49985885620117
 11
-10.49985980987549
 21
37.99985885620117
  0
LINE
  8
0
  6
CONTINUOUS
 62
     7
 10
36.60009765625
 20
22
 11
36.60009765625
 21
7.400084495544434
  0
LINE
  8
0
  6
CONTINUOUS
 62
     7
 10
36.60000610351563
 20
22.00000190734863
 11
37.00000762939453
 21
22.40000534057617
  0
LINE
  8
0
  6
CONTINUOUS
 62
     7
 10
-29.49981117248535
 20
37.99982452392578
 11
-30.99981117248535
 21
36.49982070922852
  0
LINE
  8
0
  6
CONTINUOUS
 62
     7
 10
37.00010299682617
 20
36.49990463256836
 11
35.50008392333984
 21
37.99990844726563
  0
LINE
  8
0
  6
CONTINUOUS
 62
     7
 10
-30.59992790222168
 20
19.34993362426758
 11
-29.59986305236816
 21
18.34986686706543
  0
LINE
  8
0
  6
CENTER
 62
     7
 10
-4
 20
38.50947570800781
 11
-4
 21
21.46023559570313
  0
LINE
  8
0
  6
CONTINUOUS
 62
     7
 10
-30.099853515625
 20
35.79998779296875
 11
-30.099853515625
 21
18.94999694824219
  0
LINE
  8
0
  6
CONTINUOUS
 62
     7
 10
36.10009765625
 20
35.79998779296875
 11
36.10009765625
 21
6.899993896484375
  0
LINE
  8
0
  6
CONTINUOUS
 62
     7
 10
-28.89990234375
 20
37
 11
34.90008544921875
 21
37
  0
LINE
  8
0
  6
CONTINUOUS
 62
     7
 10
-28.89990234375
 20
17.75
 11
-17
 21
17.75
  0
LINE
  8
0
  6
CONTINUOUS
 62
     7
 10
15.794921875
 20
5.699996948242188
 11
34.900146484375
 21
5.699996948242188
  0
LINE
  8
0
  6
CONTINUOUS
 62
     7
 10
-28.89989471435547
 20
36.99992752075195
 11
-30.09988975524902
 21
35.79993057250977
  0
LINE
  8
0
  6
CONTINUOUS
 62
     7
 10
36.60009384155273
 20
7.400079727172852
 11
34.90000915527344
 21
5.699995994567871
  0
LINE
  8
0
  6
CONTINUOUS
 62
     7
 10
-30.09978485107422
 20
18.94983100891113
 11
-28.89980888366699
 21
17.74985694885254
  0
LINE
  8
0
  6
CONTINUOUS
 62
     7
 10
15.40020656585693
 20
9.391944885253906
 11
21.79496002197266
 21
5.699933052062988
  0
LINE
  8
0
  6
CONTINUOUS
 62
     7
 10
15.400146484375
 20
10.94807434082031
 11
15.400146484375
 21
9.392044067382813
  0
LINE
  8
0
  6
CONTINUOUS
 62
     7
 10
15.40012645721436
 20
10.94799327850342
 11
19.99999618530273
 21
16.42990493774414
  0
LINE
  8
0
  6
CONTINUOUS
 62
     7
 10
20
 20
21.74261474609375
 11
20
 21
16.42990112304688
  0
LINE
  8
0
  6
CONTINUOUS
 62
     7
 10
16.74275207519531
 20
24.99987602233887
 11
20.00017356872559
 21
21.74245452880859
  0
LINE
  8
0
  6
CONTINUOUS
 62
     7
 10
-8.669677734375
 20
25
 11
16.74267578125
 21
25
  0
LINE
  8
0
  6
CONTINUOUS
 62
     7
 10
-19.99996757507324
 20
19.37261772155762
 11
-15.43530464172363
 21
23.93728065490723
  0
LINE
  8
0
  6
CONTINUOUS
 62
     7
 10
-20
 20
19.37261962890625
 11
-20
 21
17.75
  0
LINE
  8
0
  6
CONTINUOUS
 62
     7
 10
1.780029296875
 20
33.5
 11
5.860107421875
 21
33.5
  0
LINE
  8
0
  6
CONTINUOUS
 62
     7
 10
1.780029296875
 20
26.5
 11
5.860107421875
 21
26.5
  0
LINE
  8
0
  6
CONTINUOUS
 62
     7
 10
1.130075454711914
 20
29.99994468688965
 11
1.780069351196289
 21
26.49994468688965
  0
LINE
  8
0
  6
CONTINUOUS
 62
     7
 10
1.13021457195282
 20
29.9998950958252
 11
1.780205607414246
 21
33.49988174438477
  0
LINE
  8
0
  6
CONTINUOUS
 62
     7
 10
3.44005012512207
 20
29.99991607666016
 11
4.090061187744141
 21
26.49990272521973
  0
LINE
  8
0
  6
CONTINUOUS
 62
     7
 10
3.440162897109985
 20
29.99989700317383
 11
4.090174198150635
 21
33.49990844726563
  0
LINE
  8
0
  6
CONTINUOUS
 62
     7
 10
5.95018196105957
 20
26.96990203857422
 11
5.860169887542725
 21
26.49989700317383
  0
LINE
  8
0
  6
CONTINUOUS
 62
     7
 10
5.950168609619141
 20
33.01998519897461
 11
5.860160827636719
 21
33.49997711181641
  0
LINE
  8
0
  6
CONTINUOUS
 62
     7
 10
7.76613712310791
 20
26.75429534912109
 11
10.52000617980957
 21
27.49992561340332
  0
LINE
  8
0
  6
CONTINUOUS
 62
     7
 10
7.750105381011963
 20
33.24991989135742
 11
10.51999855041504
 21
32.49995040893555
  0
LINE
  8
0
  6
CONTINUOUS
 62
     7
 10
0.0005248924135230482
 20
25.38086700439453
 11
1.947741389274597
 21
26.49996948242188
  0
LINE
  8
0
  6
CONTINUOUS
 62
     7
 10
0.0006781570846214891
 20
25.38080215454102
 11
-4.000454425811768
 21
27.69085502624512
  0
LINE
  8
0
  6
CONTINUOUS
 62
     7
 10
-4.000370502471924
 20
27.69085121154785
 11
-4.000886917114258
 21
32.3099479675293
  0
LINE
  8
0
  6
CONTINUOUS
 62
     7
 10
-4.000985622406006
 20
32.30998992919922
 11
-0.0004809997917618603
 21
34.61908721923828
  0
LINE
  8
0
  6
CONTINUOUS
 62
     7
 10
-0.0004547688877210021
 20
34.61906051635742
 11
1.937947154045105
 21
33.49992370605469
  0
LINE
  8
0
  6
CONTINUOUS
 62
     7
 10
-20
 20
37
 11
-20
 21
30.5
  0
LINE
  8
0
  6
CONTINUOUS
 62
     7
 10
-6
 20
37
 11
-6
 21
30.5
  0
LINE
  8
0
  6
CONTINUOUS
 62
     7
 10
18.995849609375
 20
5.499984741210938
 11
30.60009765625
 21
5.499984741210938
  0
LINE
  8
0
  6
CONTINUOUS
 62
     7
 10
-29.599853515625
 20
17.5
 11
-17
 21
17.5
  0
LINE
  8
0
  6
CONTINUOUS
 62
     7
 10
-29.599853515625
 20
18.34999084472656
 11
-29.599853515625
 21
17.5
  0
LINE
  8
0
  6
CONTINUOUS
 62
     7
 10
30.60009765625
 20
5.699996948242188
 11
30.60009765625
 21
5.499984741210938
  0
LINE
  8
0
  6
CONTINUOUS
 62
     7
 10
18.64941024780273
 20
5.699904918670654
 11
18.99573516845703
 21
5.499953746795654
  0
LINE
  8
0
  6
CENTER
 62
     7
 10
28
 20
38.50947570800781
 11
28
 21
17.01608276367188
  0
LINE
  8
0
  6
CONTINUOUS
 62
     7
 10
100
 20
112.2194213867188
 11
100
 21
78.21942138671875
  0
LINE
  8
0
  6
CONTINUOUS
 62
     7
 10
300
 20
112.2194213867188
 11
300
 21
78.21942138671875
  0
LINE
  8
0
  6
CONTINUOUS
 62
     7
 10
100
 20
78.21942138671875
 11
141.5
 21
78.21942138671875
  0
LINE
  8
0
  6
CONTINUOUS
 62
     7
 10
100
 20
108.349365234375
 11
141.5
 21
108.349365234375
  0
LINE
  8
0
  6
CONTINUOUS
 62
     7
 10
100
 20
112.2194213867188
 11
141.5
 21
112.2194213867188
  0
LINE
  8
0
  6
CENTER
 62
     7
 10
98
 20
95.21942138671875
 11
302
 21
95.21942138671875
  0
LINE
  8
0
  6
CONTINUOUS
 62
     7
 10
141.5
 20
113.2193908691406
 11
141.5
 21
77.21940612792969
  0
LINE
  8
0
  6
CONTINUOUS
 62
     7
 10
143.5
 20
125.3192749023438
 11
143.5
 21
59.11932373046875
  0
LINE
  8
0
  6
CONTINUOUS
 62
     7
 10
145
 20
125.3192749023438
 11
145
 21
59.11932373046875
  0
LINE
  8
0
  6
CONTINUOUS
 62
     7
 10
159.85009765625
 20
126.2194213867188
 11
159.85009765625
 21
58.21942138671875
  0
LINE
  8
0
  6
CONTINUOUS
 62
     7
 10
240.1499938964844
 20
126.2194213867188
 11
240.1499938964844
 21
58.21942138671875
  0
LINE
  8
0
  6
CONTINUOUS
 62
     7
 10
159.85009765625
 20
58.21942138671875
 11
240.1499938964844
 21
58.21942138671875
  0
LINE
  8
0
  6
CONTINUOUS
 62
     7
 10
159.85009765625
 20
126.2194213867188
 11
240.1499938964844
 21
126.2194213867188
  0
LINE
  8
0
  6
CONTINUOUS
 62
     7
 10
159.85009765625
 20
114.7194213867188
 11
240.1499938964844
 21
114.7194213867188
  0
LINE
  8
0
  6
CONTINUOUS
 62
     7
 10
159.85009765625
 20
105.7191314697266
 11
240.1499938964844
 21
105.7191314697266
  0
LINE
  8
0
  6
CONTINUOUS
 62
     7
 10
159.85009765625
 20
92.71940612792969
 11
240.1499938964844
 21
92.71940612792969
  0
LINE
  8
0
  6
CONTINUOUS
 62
     7
 10
159.85009765625
 20
73.71910095214844
 11
240.1499938964844
 21
73.71910095214844
  0
LINE
  8
0
  6
CONTINUOUS
 62
     7
 10
258.5
 20
112.2194213867188
 11
300
 21
112.2194213867188
  0
LINE
  8
0
  6
CONTINUOUS
 62
     7
 10
258.5
 20
108.349365234375
 11
300
 21
108.349365234375
  0
LINE
  8
0
  6
CONTINUOUS
 62
     7
 10
258.5
 20
78.21942138671875
 11
300
 21
78.21942138671875
  0
LINE
  8
0
  6
CONTINUOUS
 62
     7
 10
143.5
 20
59.11932373046875
 11
159.85009765625
 21
59.11932373046875
  0
LINE
  8
0
  6
CONTINUOUS
 62
     7
 10
143.5
 20
125.3192749023438
 11
159.85009765625
 21
125.3192749023438
  0
LINE
  8
0
  6
CONTINUOUS
 62
     7
 10
143.4999847412109
 20
115.2194366455078
 11
141.4999847412109
 21
113.2194137573242
  0
LINE
  8
0
  6
CONTINUOUS
 62
     7
 10
143.5
 20
75.21940612792969
 11
141.5
 21
77.21941375732422
  0
LINE
  8
0
  6
CONTINUOUS
 62
     7
 10
256.5
 20
125.3192749023438
 11
240.1499938964844
 21
125.3192749023438
  0
LINE
  8
0
  6
CONTINUOUS
 62
     7
 10
256.4999389648438
 20
115.2192764282227
 11
258.4999389648438
 21
113.2192535400391
  0
LINE
  8
0
  6
CONTINUOUS
 62
     7
 10
256.5000915527344
 20
75.21939086914063
 11
258.5000915527344
 21
77.21940612792969
  0
LINE
  8
0
  6
CONTINUOUS
 62
     7
 10
258.5
 20
113.2193908691406
 11
258.5
 21
77.21940612792969
  0
LINE
  8
0
  6
CONTINUOUS
 62
     7
 10
256.5
 20
125.3192749023438
 11
256.5
 21
59.11932373046875
  0
LINE
  8
0
  6
CONTINUOUS
 62
     7
 10
255.0000915527344
 20
125.3192749023438
 11
255.0000915527344
 21
59.11932373046875
  0
LINE
  8
0
  6
CONTINUOUS
 62
     7
 10
256.5
 20
59.11932373046875
 11
240.1499938964844
 21
59.11932373046875
  0
LINE
  8
0
  6
CONTINUOUS
 62
     7
 10
138.2001037597656
 20
99.21942138671875
 11
143.5
 21
99.21942138671875
  0
LINE
  8
0
  6
CONTINUOUS
 62
     7
 10
139.8201293945313
 20
91.21942138671875
 11
143.5
 21
91.21942138671875
  0
LINE
  8
0
  6
CONTINUOUS
 62
     7
 10
134.2001037597656
 20
95.21942138671875
 11
134.2001037597656
 21
93.54730224609375
  0
LINE
  8
0
  6
CONTINUOUS
 62
     7
 10
131.9827728271484
 20
85.6978759765625
 11
136.4174041748047
 21
83.86099243164063
  0
LINE
  8
0
  6
CONTINUOUS
 62
     7
 10
132.1845397949219
 20
88.53677368164063
 11
138.2821350097656
 21
86.01106262207031
  0
LINE
  8
0
  6
CONTINUOUS
 62
     7
 10
131.9827728271484
 20
85.69788360595703
 11
132.1845397949219
 21
88.53677368164063
  0
LINE
  8
0
  6
CONTINUOUS
 62
     7
 10
136.4174041748047
 20
83.86098480224609
 11
138.2821502685547
 21
86.01106262207031
  0
LINE
  8
0
  6
CONTINUOUS
 62
     7
 10
132.9232635498047
 20
92.25762176513672
 11
133.3379364013672
 21
93.25869750976563
  0
LINE
  8
0
  6
CONTINUOUS
 62
     7
 10
140.3908538818359
 20
89.16443634033203
 11
140.8054962158203
 21
90.16549682617188
  0
LINE
  8
0
  6
CONTINUOUS
 62
     7
 10
134.1173706054688
 20
93.58151245117188
 11
133.3379211425781
 21
93.25865936279297
  0
LINE
  8
0
  6
CONTINUOUS
 62
     7
 10
134.1173706054688
 20
93.58158874511719
 11
140.4826812744141
 21
90.94499206542969
  0
LINE
  8
0
  6
CONTINUOUS
 62
     7
 10
140.8055114746094
 20
90.16547393798828
 11
140.4826507568359
 21
90.94492340087891
  0
LINE
  8
0
  6
CENTER
 62
     7
 10
181
 20
67.21942138671875
 11
169
 21
67.21942138671875
  0
LINE
  8
0
  6
CENTER
 62
     7
 10
175
 20
73.21942138671875
 11
175
 21
61.21942138671875
  0
LINE
  8
0
  6
CENTER
 62
     7
 10
181
 20
99.21942138671875
 11
169
 21
99.21942138671875
  0
LINE
  8
0
  6
CENTER
 62
     7
 10
175
 20
105.2194213867188
 11
175
 21
93.21942138671875
  0
LINE
  8
0
  6
CENTER
 62
     7
 10
231
 20
99.21942138671875
 11
219
 21
99.21942138671875
  0
LINE
  8
0
  6
CENTER
 62
     7
 10
225
 20
105.2194213867188
 11
225
 21
93.21942138671875
  0
LINE
  8
0
  6
CENTER
 62
     7
 10
231
 20
67.21942138671875
 11
219
 21
67.21942138671875
  0
LINE
  8
0
  6
CENTER
 62
     7
 10
225
 20
73.21942138671875
 11
225
 21
61.21942138671875
  0
LINE
  8
0
  6
CENTER
 62
     7
 10
120
 20
105.9694213867188
 11
120
 21
84.46942138671875
  0
LINE
  8
0
  6
CENTER
 62
     7
 10
280
 20
105.9694213867188
 11
280
 21
84.46942138671875
  0
LINE
  8
0
  6
CONTINUOUS
 62
     7
 10
34.90008926391602
 20
36.99999237060547
 11
36.10009002685547
 21
35.79999160766602
  0
LINE
  8
0
  6
CONTINUOUS
 62
     7
 10
-30.99980163574219
 20
36.49981689453125
 11
-30.99980163574219
 21
26.39987182617188
  0
LINE
  8
0
  6
CONTINUOUS
 62
     7
 10
-30.59991455078125
 20
26
 11
-30.59991455078125
 21
19.34992980957031
  0
LINE
  8
0
  6
CONTINUOUS
 62
     7
 10
-30.99980735778809
 20
26.39987945556641
 11
-30.59992218017578
 21
25.99999618530273
  0
LINE
  8
0
  6
CONTINUOUS
 62
     7
 10
134.5605621337891
 20
90.93002319335938
 11
135.4331512451172
 21
93.03658294677734
  0
LINE
  8
0
  6
CONTINUOUS
 62
     7
 10
138.2943267822266
 20
89.38343048095703
 11
139.1669006347656
 21
91.49000549316406
  0
LINE
  8
0
  6
CONTINUOUS
 62
     7
 10
143.5
 20
32.30996704101563
 11
141.5
 21
32.30996704101563
  0
LINE
  8
0
  6
CENTER
 62
     7
 10
200
 20
105.9694213867188
 11
200
 21
84.46942138671875
  0
LINE
  8
0
  6
CENTER
 62
     7
 10
200
 20
24.38888549804688
 11
200
 21
-2.001937866210938
  0
LINE
  8
0
  6
CENTER
 62
     7
 10
280
 20
24.38888549804688
 11
280
 21
-2.001937866210938
  0
LINE
  8
0
  6
CONTINUOUS
 62
     7
 10
133.1530456542969
 20
91.51303100585938
 11
139.7018280029297
 21
88.8004150390625
  0
LINE
  8
0
  6
CENTER
 62
     7
 10
-5.298137187957764
 20
30
 11
12.77158737182617
 21
30
  0
LINE
  8
0
  6
CENTER
 62
     7
 10
144.6989440917969
 20
29.99999237060547
 11
130.5371551513672
 21
29.99999237060547
  0
LINE
  8
0
  6
CENTER
 62
     7
 10
133.1864776611328
 20
82.33090209960938
 11
138.5252227783203
 21
95.21942138671875
  0
ARC
  8
0
  6
CONTINUOUS
 62
     7
 10
138.500244140625
 20
30.00004577636719
 40
3.999999999999998
 50
89.99998201391055
 51
118.4958044387709
  0
ARC
  8
0
  6
CONTINUOUS
 62
     7
 10
138.500244140625
 20
30.00004577636719
 40
3.982465744018556
 50
241.5040862782025
 51
269.9999087030627
  0
ARC
  8
0
  6
CONTINUOUS
 62
     7
 10
-13
 20
30.5
 40
7.000000000000001
 50
180.0000359721787
 51
359.9999826971572
  0
CIRCLE
  8
0
  6
CONTINUOUS
 62
     7
 10
28
 20
21
 40
7
  0
ARC
  8
0
  6
CONTINUOUS
 62
     7
 10
6.6201171875
 20
25.91999816894531
 40
1.246148109436036
 50
47.22292388366019
 51
142.1250351177266
  0
ARC
  8
0
  6
CONTINUOUS
 62
     7
 10
6.6201171875
 20
34.08000183105469
 40
1.254199028015138
 50
217.8749648822736
 51
301.890499069959
  0
ARC
  8
0
  6
CONTINUOUS
 62
     7
 10
0
 20
30
 40
3.998106002807619
 50
61.09402038976974
 51
298.9059076658729
  0
CIRCLE
  8
0
  6
CONTINUOUS
 62
     7
 10
28
 20
21
 40
3.5
  0
ARC
  8
0
  6
CONTINUOUS
 62
     7
 10
135.2333526611328
 20
87.27389526367188
 40
3.299999237060557
 50
131.5803705110075
 51
157.4999548639651
  0
ARC
  8
0
  6
CONTINUOUS
 62
     7
 10
135.2333526611328
 20
87.27389526367188
 40
3.29999923706055
 50
337.5000181569006
 51
3.419602296415186
  0
ARC
  8
0
  6
CONTINUOUS
 62
     7
 10
127.3170013427734
 20
90.1199951171875
 40
6.00000000000001
 50
2.43365082934552
 51
20.87173987704913
  0
ARC
  8
0
  6
CONTINUOUS
 62
     7
 10
142.8435363769531
 20
83.68869018554688
 40
6.000000000000011
 50
114.1278165022775
 51
132.5663219780771
  0
ARC
  8
0
  6
CONTINUOUS
 62
     7
 10
132.5122985839844
 20
90.34078979492188
 40
0.7999999523162822
 50
311.5798327472963
 51
2.433049772698627
  0
ARC
  8
0
  6
CONTINUOUS
 62
     7
 10
139.3260345458984
 20
87.51844787597656
 40
0.7999999523162747
 50
132.5669776762372
 51
183.4201402735702
  0
ARC
  8
0
  6
CONTINUOUS
 62
     7
 10
138.2001037597656
 20
95.21942138671875
 40
3.999999999999998
 50
89.99998201391055
 51
180.0000186693347
  0
CIRCLE
  8
0
  6
CONTINUOUS
 62
     7
 10
175
 20
67.21942138671875
 40
4
  0
CIRCLE
  8
0
  6
CONTINUOUS
 62
     7
 10
175.0001220703125
 20
67.21942138671875
 40
3.4000244140625
  0
CIRCLE
  8
0
  6
CONTINUOUS
 62
     7
 10
120
 20
95.21942138671875
 40
8.75
  0
CIRCLE
  8
0
  6
CONTINUOUS
 62
     7
 10
120
 20
95.21942138671875
 40
5.5
  0
CIRCLE
  8
0
  6
CONTINUOUS
 62
     7
 10
-13
 20
30.5
 40
3.5
  0
ARC
  8
0
  6
CONTINUOUS
 62
     7
 10
-16.89999389648438
 20
22
 40
3.299999237060546
 50
278.884290926335
 51
351.1157577956056
  0
ARC
  8
0
  6
CONTINUOUS
 62
     7
 10
17
 20
14
 40
3.299999237060547
 50
93.31382587466078
 51
186.6861181686168
  0
POLYLINE
  8
0
  6
CONTINUOUS
 62
     7
 66
     1
 10
0
 20
0
  0
VERTEX
  8
0
  6
CONTINUOUS
 62
     7
 10
133.0762244564498
 20
27.81894277708054
 42
0.06283198508481606
  0
VERTEX
  8
0
  6
CONTINUOUS
 62
     7
 10
133.6405232163363
 20
27.29277312049795
 42
0.06649676067273175
  0
VERTEX
  8
0
  6
CONTINUOUS
 62
     7
 10
134.3205227180578
 20
26.92827046024966
 42
0.06915512411598
  0
VERTEX
  8
0
  6
CONTINUOUS
 62
     7
 10
135.0728758025445
 20
26.75941252127277
 42
0.06975247308025548
  0
VERTEX
  8
0
  6
CONTINUOUS
 62
     7
 10
135.841629113036
 20
26.80340952147025
 42
0.06816312141338174
  0
VERTEX
  8
0
  6
CONTINUOUS
 62
     7
 10
136.5694717452494
 20
27.05522858541243
 42
0.06499571049772515
  0
VERTEX
  8
0
  6
CONTINUOUS
 62
     7
 10
137.2060377380676
 20
27.4900566012334
 42
0.06129093994033894
  0
VERTEX
  8
0
  6
CONTINUOUS
 62
     7
 10
137.7140964820719
 20
28.07015423341716
 42
0.05807983005426491
  0
VERTEX
  8
0
  6
CONTINUOUS
 62
     7
 10
138.0710952230491
 20
28.75414540936391
 42
0.05590571921602219
  0
VERTEX
  8
0
  6
CONTINUOUS
 62
     7
 10
138.2647552681773
 20
29.50128722983867
 42
0.05496416328791426
  0
VERTEX
  8
0
  6
CONTINUOUS
 62
     7
 10
138.2897707359325
 20
30.27200792882756
 42
0.0554742035656632
  0
VERTEX
  8
0
  6
CONTINUOUS
 62
     7
 10
138.1456915695562
 20
31.0298954134253
 42
0.05728065953316654
  0
VERTEX
  8
0
  6
CONTINUOUS
 62
     7
 10
137.8362813569894
 20
31.7363349628491
 42
0.06026839807724266
  0
VERTEX
  8
0
  6
CONTINUOUS
 62
     7
 10
137.3710418696775
 20
32.35164144105059
 42
0.06395235190755368
  0
VERTEX
  8
0
  6
CONTINUOUS
 62
     7
 10
136.7688354957499
 20
32.83401728678797
 42
0.06744465500357
  0
VERTEX
  8
0
  6
CONTINUOUS
 62
     7
 10
136.0621791382832
 20
33.14347709683701
 42
0.06944112704347653
  0
VERTEX
  8
0
  6
CONTINUOUS
 62
     7
 10
135.30029296875
 20
33.25003051757813
 42
0
  0
SEQEND
  8
0
  0
POLYLINE
  8
0
  6
CONTINUOUS
 62
     7
 66
     1
 10
0
 20
0
  0
VERTEX
  8
0
  6
CONTINUOUS
 62
     7
 10
134.2006172261303
 20
32.50004734663563
 42
0.1103659070379672
  0
VERTEX
  8
0
  6
CONTINUOUS
 62
     7
 10
133.2884577732166
 20
32.29502756824523
 42
0.1024787436323948
  0
VERTEX
  8
0
  6
CONTINUOUS
 62
     7
 10
132.5410768051802
 20
31.73107891322992
 42
0.0932674681494331
  0
VERTEX
  8
0
  6
CONTINUOUS
 62
     7
 10
132.0633227594842
 20
30.92427271845659
 42
0.08779721585242144
  0
VERTEX
  8
0
  6
CONTINUOUS
 62
     7
 10
131.9002056330325
 20
30.00037991890595
 42
0.08777914031284408
  0
VERTEX
  8
0
  6
CONTINUOUS
 62
     7
 10
132.0626483166999
 20
29.07671186103866
 42
0.09328109143539941
  0
VERTEX
  8
0
  6
CONTINUOUS
 62
     7
 10
132.5397404514486
 20
28.26978703501604
 42
0.1026573097127059
  0
VERTEX
  8
0
  6
CONTINUOUS
 62
     7
 10
133.287854918586
 20
27.70494074037264
 42
0.1104400837017642
  0
VERTEX
  8
0
  6
CONTINUOUS
 62
     7
 10
134.2004148161597
 20
27.50004622626614
 42
0.1103626255050152
  0
VERTEX
  8
0
  6
CONTINUOUS
 62
     7
 10
135.1125144011512
 20
27.70533874538462
 42
0.1024721705626794
  0
VERTEX
  8
0
  6
CONTINUOUS
 62
     7
 10
135.8597394756936
 20
28.26949568692926
 42
0.09326228886382726
  0
VERTEX
  8
0
  6
CONTINUOUS
 62
     7
 10
136.3372893185981
 20
29.07642401354648
 42
0.08779163940498211
  0
VERTEX
  8
0
  6
CONTINUOUS
 62
     7
 10
136.5001851123493
 20
30.00031594365043
 42
0.08778096892501487
  0
VERTEX
  8
0
  6
CONTINUOUS
 62
     7
 10
136.3375346363474
 20
30.92394803491413
 42
0.09328607934679607
  0
VERTEX
  8
0
  6
CONTINUOUS
 62
     7
 10
135.8602499357172
 20
31.73075912745265
 42
0.1026635642721131
  0
VERTEX
  8
0
  6
CONTINUOUS
 62
     7
 10
135.1119880222865
 20
32.29540943752875
 42
0.1104333225206741
  0
VERTEX
  8
0
  6
CONTINUOUS
 62
     7
 10
134.1994541268452
 20
32.50004699867187
 42
0
  0
SEQEND
  8
0
  0
POLYLINE
  8
0
  6
CONTINUOUS
 62
     7
 66
     1
 10
0
 20
0
  0
VERTEX
  8
0
  6
CONTINUOUS
 62
     7
 10
135.30029296875
 20
33.25003051757813
 42
0.01434914067188528
  0
VERTEX
  8
0
  6
CONTINUOUS
 62
     7
 10
135.1414122211047
 20
33.2454695574443
 42
0.01426048773089413
  0
VERTEX
  8
0
  6
CONTINUOUS
 62
     7
 10
134.9838014344322
 20
33.23189430766998
 42
0.01417560955015368
  0
VERTEX
  8
0
  6
CONTINUOUS
 62
     7
 10
134.8277026061423
 20
33.20945179657122
 42
0.01415080432863194
  0
VERTEX
  8
0
  6
CONTINUOUS
 62
     7
 10
134.6727406609055
 20
33.17812874339051
 42
0.01410152023202079
  0
VERTEX
  8
0
  6
CONTINUOUS
 62
     7
 10
134.5194788641681
 20
33.13802142752923
 42
0.014029521537748
  0
VERTEX
  8
0
  6
CONTINUOUS
 62
     7
 10
134.3684621980284
 20
33.08927766700294
 42
0.01393694729780229
  0
VERTEX
  8
0
  6
CONTINUOUS
 62
     7
 10
134.2202118817417
 20
33.03209260536184
 42
0.01382623430961173
  0
VERTEX
  8
0
  6
CONTINUOUS
 62
     7
 10
134.0752207520646
 20
32.96670372166621
 42
0.01370003240323287
  0
VERTEX
  8
0
  6
CONTINUOUS
 62
     7
 10
133.9339496207611
 20
32.8933852810355
 42
0.0135611177889282
  0
VERTEX
  8
0
  6
CONTINUOUS
 62
     7
 10
133.7968246732223
 20
32.8124424599708
 42
0.013322381854868
  0
VERTEX
  8
0
  6
CONTINUOUS
 62
     7
 10
133.6651144697146
 20
32.72482437699019
 42
0.01328781805097658
  0
VERTEX
  8
0
  6
CONTINUOUS
 62
     7
 10
133.5370933666186
 20
32.62946151436852
 42
0.01315488209411003
  0
VERTEX
  8
0
  6
CONTINUOUS
 62
     7
 10
133.4140409260313
 20
32.52725647281282
 42
0.01293834409751291
  0
VERTEX
  8
0
  6
CONTINUOUS
 62
     7
 10
133.2969965516353
 20
32.41924248809757
 42
0.01278036065942957
  0
VERTEX
  8
0
  6
CONTINUOUS
 62
     7
 10
133.1856600222186
 20
32.30535384578391
 42
0.01262535790361535
  0
VERTEX
  8
0
  6
CONTINUOUS
 62
     7
 10
133.080250462811
 20
32.18595711233201
 42
0
  0
SEQEND
  8
0
  0
POLYLINE
  8
0
  6
CONTINUOUS
 62
     7
 66
     1
 10
0
 20
0
  0
VERTEX
  8
0
  6
CONTINUOUS
 62
     7
 10
10.51928772580433
 20
32.50000469401967
 42
0.2564025572254735
  0
VERTEX
  8
0
  6
CONTINUOUS
 62
     7
 10
9.98896638250184
 20
32.07621826714074
 42
0.06333899339793984
  0
VERTEX
  8
0
  6
CONTINUOUS
 62
     7
 10
9.735103198071515
 20
31.41325166436812
 42
0.03522185782474208
  0
VERTEX
  8
0
  6
CONTINUOUS
 62
     7
 10
9.608837569909941
 20
30.71311644407149
 42
0.02793833537035271
  0
VERTEX
  8
0
  6
CONTINUOUS
 62
     7
 10
9.570004672667473
 20
30.00236172717878
 42
0.0278851121340097
  0
VERTEX
  8
0
  6
CONTINUOUS
 62
     7
 10
9.609503956472983
 20
29.29224748536653
 42
0.035099038583322
  0
VERTEX
  8
0
  6
CONTINUOUS
 62
     7
 10
9.736261820473361
 20
28.59200093408622
 42
0.06289677363647905
  0
VERTEX
  8
0
  6
CONTINUOUS
 62
     7
 10
9.990180239968806
 20
27.92820145262772
 42
0.253657070310941
  0
VERTEX
  8
0
  6
CONTINUOUS
 62
     7
 10
10.52020895864665
 20
27.49999797288839
 42
0.2567621290861634
  0
VERTEX
  8
0
  6
CONTINUOUS
 62
     7
 10
11.05080350714724
 20
27.92330604252924
 42
0.06338140463911317
  0
VERTEX
  8
0
  6
CONTINUOUS
 62
     7
 10
11.30479828790313
 20
28.5862183726246
 42
0.03523193960974888
  0
VERTEX
  8
0
  6
CONTINUOUS
 62
     7
 10
11.43114037156502
 20
29.28633902817781
 42
0.02794117566334465
  0
VERTEX
  8
0
  6
CONTINUOUS
 62
     7
 10
11.47003465433462
 20
29.99710344606094
 42
0.02788276774483524
  0
VERTEX
  8
0
  6
CONTINUOUS
 62
     7
 10
11.43059548299302
 20
30.70721828185567
 42
0.03508923216273341
  0
VERTEX
  8
0
  6
CONTINUOUS
 62
     7
 10
11.30391254586731
 20
31.40747831459616
 42
0.06285553670432664
  0
VERTEX
  8
0
  6
CONTINUOUS
 62
     7
 10
11.05012335017014
 20
32.07132900552556
 42
0.2533523730462436
  0
VERTEX
  8
0
  6
CONTINUOUS
 62
     7
 10
10.52029009356831
 20
32.49999912671957
 42
0
  0
SEQEND
  8
0
  0
POLYLINE
  8
0
  6
CONTINUOUS
 62
     7
 66
     1
 10
0
 20
0
  0
VERTEX
  8
0
  6
CONTINUOUS
 62
     7
 10
7.750870504453556
 20
33.25000474322553
 42
0.1879556766496163
  0
VERTEX
  8
0
  6
CONTINUOUS
 62
     7
 10
7.336430414591209
 20
33.06473254423484
 42
0.07560052289518666
  0
VERTEX
  8
0
  6
CONTINUOUS
 62
     7
 10
7.055139914401486
 20
32.69783634418385
 42
0.03936547617048623
  0
VERTEX
  8
0
  6
CONTINUOUS
 62
     7
 10
6.859640487297325
 20
32.27633217141733
 42
0.02585389639541994
  0
VERTEX
  8
0
  6
CONTINUOUS
 62
     7
 10
6.719276898355364
 20
31.83312198573339
 42
0.01961179184929569
  0
VERTEX
  8
0
  6
CONTINUOUS
 62
     7
 10
6.619089785124386
 20
31.37837174353204
 42
0.01634459935655693
  0
VERTEX
  8
0
  6
CONTINUOUS
 62
     7
 10
6.55157443546771
 20
30.9174703621159
 42
0.01462646070818044
  0
VERTEX
  8
0
  6
CONTINUOUS
 62
     7
 10
6.51257581308079
 20
30.45321706479314
 42
0.01388209933762856
  0
VERTEX
  8
0
  6
CONTINUOUS
 62
     7
 10
6.499999190266132
 20
29.98750900986247
 42
0.01386296192088558
  0
VERTEX
  8
0
  6
CONTINUOUS
 62
     7
 10
6.513146425466728
 20
29.52315873856561
 42
0.01467805695557378
  0
VERTEX
  8
0
  6
CONTINUOUS
 62
     7
 10
6.552741311684907
 20
29.05942113456003
 42
0.01651865441525684
  0
VERTEX
  8
0
  6
CONTINUOUS
 62
     7
 10
6.621256625831816
 20
28.59752241897245
 42
0.01987768887552534
  0
VERTEX
  8
0
  6
CONTINUOUS
 62
     7
 10
6.722699806731963
 20
28.14285929466675
 42
0.02643651555355144
  0
VERTEX
  8
0
  6
CONTINUOUS
 62
     7
 10
6.865262639210949
 20
27.69934166925512
 42
0.04075818161074762
  0
VERTEX
  8
0
  6
CONTINUOUS
 62
     7
 10
7.064639554758533
 20
27.27835518328508
 42
0.08022564165667347
  0
VERTEX
  8
0
  6
CONTINUOUS
 62
     7
 10
7.354204008422728
 20
26.91508375675122
 42
0.1984416978067041
  0
VERTEX
  8
0
  6
CONTINUOUS
 62
     7
 10
7.777045753512047
 20
26.75090604195247
 42
0
  0
SEQEND
  8
0
  0
TEXT
  8
0
  6
CONTINUOUS
 62
     7
 10
-1.599999904632568
 20
-16.79999971389771
 40
3.59999942779541
 41
1.039215701857426
  1
GSR35T
  0
ENDSEC
  0
EOF
