  0
SECTION
  2
HEADER
  0
ENDSEC
  0
SECTION
  2
TABLES
  0
TABLE
  2
LTYPE
 70
    22
  0
LTYPE
  2
CONTINUOUS
 70
    64
  3
Solid line
 72
    65
 73
     0
 40
0.000000
  0
LTYPE
  2
DASHED
 70
    64
  3
__ __ __ __ __ __ __ __ __ __ __ __ __ __ __
 72
    65
 73
     2
 40
3.500000
 49
2.000000
 49
-1.500000
  0
LTYPE
  2
CENTER
 70
    64
  3
____ _ ____ _ ____ _ ____ _ ____ _ ____ _ ____
 72
    65
 73
     4
 40
17.500000
 49
13.000000
 49
-1.500000
 49
1.500000
 49
-1.500000
  0
LTYPE
  2
PHANTOM
 70
    64
  3
_____ _ _ _____ _ _ _____ _ _ _____ _ _ ____  
 72
    65
 73
     6
 40
15.500000
 49
8.000000
 49
-1.500000
 49
1.500000
 49
-1.500000
 49
1.500000
 49
-1.500000
  0
LTYPE
  2
DOT
 70
    64
  3
. . . . . . . . . . . . . . . . . . . . . . . .
 72
    65
 73
     2
 40
0.25
 49
0.0
 49
-0.25
  0
ENDTAB
  0
TABLE
  2
LAYER
 70
     1
  0
LAYER
  2
0
 70
     0
 62
     7
  6
CONTINUOUS
  0
ENDTAB
  0
TABLE
  2
STYLE
 70
     1
  0
STYLE
  2
STANDARD
 70
     0
 40
0.000000
 41
1.000000
 50
0.000000
 71
     0
 42
0.200000
  3
txt
  0
ENDTAB
  0
TABLE
  2
VIEW
 70
     0
  0
ENDTAB
  0
ENDSEC
  0
SECTION
  2
BLOCKS
  0
ENDSEC
  0
SECTION
  2
ENTITIES
  0
LINE
  8
0
  6
CONTINUOUS
 62
     7
 10
98.17659759521484
 20
13.99993133544922
 11
131.0765686035156
 21
13.99993133544922
  0
LINE
  8
0
  6
CONTINUOUS
 62
     7
 10
131.0765686035156
 20
13.99993133544922
 11
131.0765686035156
 21
2.499931335449219
  0
LINE
  8
0
  6
CONTINUOUS
 62
     7
 10
39.67659759521484
 20
-8.392333984375E-005
 11
149.6766357421875
 21
-8.392333984375E-005
  0
LINE
  8
0
  6
CONTINUOUS
 62
     7
 10
39.67659759521484
 20
7.199699401855469
 11
91.8765869140625
 21
7.199699401855469
  0
LINE
  8
0
  6
CONTINUOUS
 62
     7
 10
98.17659759521484
 20
8.314826965332031
 11
131.0765686035156
 21
8.314826965332031
  0
LINE
  8
0
  6
CONTINUOUS
 62
     7
 10
92.37667083740234
 20
13.69991302490234
 11
98.17659759521484
 21
13.69991302490234
  0
LINE
  8
0
  6
CONTINUOUS
 62
     7
 10
136.8765563964844
 20
13.69991302490234
 11
131.0765686035156
 21
13.69991302490234
  0
LINE
  8
0
  6
CONTINUOUS
 62
     7
 10
98.17659759521484
 20
13.99993133544922
 11
98.17659759521484
 21
2.499931335449219
  0
LINE
  8
0
  6
CONTINUOUS
 62
     7
 10
92.37667083740234
 20
2.499931335449219
 11
136.8765563964844
 21
2.499931335449219
  0
LINE
  8
0
  6
CENTER
 62
     7
 10
107.1265487670898
 20
15.26091766357422
 11
107.1265487670898
 21
7.291145324707031
  0
LINE
  8
0
  6
CENTER
 62
     7
 10
122.1265487670898
 20
15.26091766357422
 11
122.1265487670898
 21
7.291145324707031
  0
LINE
  8
0
  6
CONTINUOUS
 62
     7
 10
136.2265625
 20
2.499931335449219
 11
136.2265625
 21
1.999931335449219
  0
LINE
  8
0
  6
CONTINUOUS
 62
     7
 10
91.8765869140625
 20
12.79991912841797
 11
91.8765869140625
 21
1.999931335449219
  0
LINE
  8
0
  6
CENTER
 62
     7
 10
54.67659759521484
 20
7.89111328125
 11
54.67659759521484
 21
-0.7844696044921875
  0
LINE
  8
0
  6
CONTINUOUS
 62
     7
 10
93.07662200927734
 20
2.499931335449219
 11
93.07662200927734
 21
1.999931335449219
  0
LINE
  8
0
  6
CONTINUOUS
 62
     7
 10
92.37667083740234
 20
13.69991302490234
 11
92.37667083740234
 21
2.499931335449219
  0
LINE
  8
0
  6
CONTINUOUS
 62
     7
 10
91.8765869140625
 20
12.79991912841797
 11
92.37667083740234
 21
12.79991912841797
  0
LINE
  8
0
  6
CONTINUOUS
 62
     7
 10
137.3765869140625
 20
12.79991912841797
 11
137.3765869140625
 21
1.999931335449219
  0
LINE
  8
0
  6
CONTINUOUS
 62
     7
 10
137.3765869140625
 20
12.79991912841797
 11
136.8765563964844
 21
12.79991912841797
  0
LINE
  8
0
  6
CONTINUOUS
 62
     7
 10
136.8765563964844
 20
13.69991302490234
 11
136.8765563964844
 21
2.499931335449219
  0
LINE
  8
0
  6
CONTINUOUS
 62
     7
 10
149.6766357421875
 20
7.199699401855469
 11
137.3765869140625
 21
7.199699401855469
  0
LINE
  8
0
  6
CONTINUOUS
 62
     7
 10
39.67659759521484
 20
7.199699401855469
 11
39.67659759521484
 21
-8.392333984375E-005
  0
LINE
  8
0
  6
CONTINUOUS
 62
     7
 10
91.8765869140625
 20
1.999931335449219
 11
93.07662200927734
 21
1.999931335449219
  0
LINE
  8
0
  6
CONTINUOUS
 62
     7
 10
136.2265625
 20
1.999931335449219
 11
137.3765869140625
 21
1.999931335449219
  0
LINE
  8
0
  6
CENTER
 62
     7
 10
-15.23793029785156
 20
11.20012664794922
 11
-11.77076721191406
 21
11.20012664794922
  0
LINE
  8
0
  6
DASHED
 62
     7
 10
-3.75
 20
1.900009155273438
 11
3.75
 21
1.900009155273438
  0
LINE
  8
0
  6
CENTER
 62
     7
 10
0
 20
14.15089797973633
 11
0
 21
-0.4542999267578125
  0
LINE
  8
0
  6
CONTINUOUS
 62
     7
 10
-3.800048828125
 20
0
 11
3.800048828125
 21
0
  0
LINE
  8
0
  6
CONTINUOUS
 62
     7
 10
12
 20
2.000015258789063
 11
12
 21
0.5999908447265625
  0
LINE
  8
0
  6
CONTINUOUS
 62
     7
 10
11.39990234375
 20
0
 11
8.199951171875
 21
0
  0
LINE
  8
0
  6
DASHED
 62
     7
 10
2.25
 20
1.900009155273438
 11
2.25
 21
0
  0
LINE
  8
0
  6
DASHED
 62
     7
 10
3.75
 20
7.199996948242188
 11
3.75
 21
1.900009155273438
  0
LINE
  8
0
  6
CONTINUOUS
 62
     7
 10
11.99992942810059
 20
0.6000242829322815
 11
11.39997577667236
 21
2.393003160250373E-005
  0
LINE
  8
0
  6
CONTINUOUS
 62
     7
 10
4
 20
0.1999969482421875
 11
8
 21
0.1999969482421875
  0
LINE
  8
0
  6
CONTINUOUS
 62
     7
 10
7.999826908111572
 20
0.2001486420631409
 11
8.199909210205078
 21
6.642343214480206E-005
  0
LINE
  8
0
  6
CONTINUOUS
 62
     7
 10
3.800193548202515
 20
-0.0001062100564013235
 11
4.000211238861084
 21
0.1999112665653229
  0
LINE
  8
0
  6
CONTINUOUS
 62
     7
 10
20
 20
13.49992370605469
 11
20
 21
8.757049560546875
  0
LINE
  8
0
  6
CONTINUOUS
 62
     7
 10
19.50002098083496
 20
13.99991130828857
 11
20.00012016296387
 21
13.49982452392578
  0
LINE
  8
0
  6
CONTINUOUS
 62
     7
 10
19.49989318847656
 20
13.99993133544922
 11
8.299819946289063
 21
13.99993133544922
  0
LINE
  8
0
  6
CONTINUOUS
 62
     7
 10
18.69993591308594
 20
13.69995880126953
 11
-18.69993591308594
 21
13.69995880126953
  0
LINE
  8
0
  6
CENTER
 62
     7
 10
14
 20
15.260986328125
 11
14
 21
7.92718505859375
  0
LINE
  8
0
  6
CONTINUOUS
 62
     7
 10
10.89634704589844
 20
4.949241638183594
 11
10.89987468719482
 21
4.952769756317139
  0
LINE
  8
0
  6
CENTER
 62
     7
 10
1.811050415039063
 20
10.69992828369141
 11
-1.807357788085938
 21
10.69992828369141
  0
LINE
  8
0
  6
CONTINUOUS
 62
     7
 10
8.000015258789063
 20
13.69992828369141
 11
-7.999984741210938
 21
13.69992828369141
  0
LINE
  8
0
  6
CONTINUOUS
 62
     7
 10
7.999950408935547
 20
13.70002841949463
 11
8.299961090087891
 21
14.00003814697266
  0
LINE
  8
0
  6
CONTINUOUS
 62
     7
 10
-12
 20
2
 11
-12
 21
0.5999908447265625
  0
LINE
  8
0
  6
CONTINUOUS
 62
     7
 10
-11.39990234375
 20
0
 11
-8.199951171875
 21
0
  0
LINE
  8
0
  6
DASHED
 62
     7
 10
-2.25
 20
1.900009155273438
 11
-2.25
 21
0
  0
LINE
  8
0
  6
DASHED
 62
     7
 10
-3.75
 20
7.199996948242188
 11
-3.75
 21
1.900009155273438
  0
LINE
  8
0
  6
CONTINUOUS
 62
     7
 10
-11.5
 20
7.20001220703125
 11
-11.003173828125
 21
7.20001220703125
  0
LINE
  8
0
  6
CONTINUOUS
 62
     7
 10
-11.50004482269287
 20
7.199820995330811
 11
-12.00005626678467
 21
6.699766159057617
  0
LINE
  8
0
  6
CONTINUOUS
 62
     7
 10
-12
 20
6.699920654296875
 11
-12
 21
6.052719116210938
  0
LINE
  8
0
  6
CONTINUOUS
 62
     7
 10
-10.75
 20
4.595626831054688
 11
-10.75
 21
2.894912719726563
  0
LINE
  8
0
  6
CONTINUOUS
 62
     7
 10
-12.00021171569824
 20
0.6002286076545715
 11
-11.40016174316406
 21
0.0001311588566750288
  0
LINE
  8
0
  6
CONTINUOUS
 62
     7
 10
-4
 20
0.1999969482421875
 11
-5.5999755859375
 21
0.1999969482421875
  0
LINE
  8
0
  6
CONTINUOUS
 62
     7
 10
-7.999872207641602
 20
0.1999382376670837
 11
-8.199889183044434
 21
-7.923607336124405E-005
  0
LINE
  8
0
  6
CONTINUOUS
 62
     7
 10
-3.800087690353394
 20
-1.449851606594166E-005
 11
-3.999997138977051
 21
0.1998950839042664
  0
LINE
  8
0
  6
CONTINUOUS
 62
     7
 10
-20
 20
13.49992370605469
 11
-20
 21
9.300048828125
  0
LINE
  8
0
  6
CONTINUOUS
 62
     7
 10
-19.49981880187988
 20
13.99999237060547
 11
-19.99991226196289
 21
13.49991130828857
  0
LINE
  8
0
  6
CONTINUOUS
 62
     7
 10
-19.49977111816406
 20
14.00008392333984
 11
-8.299819946289063
 21
14.00008392333984
  0
LINE
  8
0
  6
CENTER
 62
     7
 10
-13.5
 20
12.51570129394531
 11
-13.5
 21
9.880966186523438
  0
LINE
  8
0
  6
CONTINUOUS
 62
     7
 10
-19
 20
13.40005493164063
 11
-19
 21
3.514877319335938
  0
LINE
  8
0
  6
CONTINUOUS
 62
     7
 10
-18.00004005432129
 20
2.514829635620117
 11
-19.00010490417481
 21
3.514895915985107
  0
LINE
  8
0
  6
CONTINUOUS
 62
     7
 10
-18.69992256164551
 20
13.6999683380127
 11
-18.99997138977051
 21
13.39992046356201
  0
LINE
  8
0
  6
CONTINUOUS
 62
     7
 10
-11.78832530975342
 20
5.841072082519531
 11
-11.99997329711914
 21
6.052720546722412
  0
LINE
  8
0
  6
CONTINUOUS
 62
     7
 10
-18.300048828125
 20
12.39999389648438
 11
-18.300048828125
 21
2.814743041992188
  0
LINE
  8
0
  6
CONTINUOUS
 62
     7
 10
-17.79985237121582
 20
12.89991092681885
 11
-18.29987525939941
 21
12.39988803863525
  0
LINE
  8
0
  6
CONTINUOUS
 62
     7
 10
-8.000022888183594
 20
13.70007133483887
 11
-8.299887657165527
 21
13.9999361038208
  0
LINE
  8
0
  6
CONTINUOUS
 62
     7
 10
-19.19996643066406
 20
2.500099182128906
 11
-17.98524475097656
 21
2.500099182128906
  0
LINE
  8
0
  6
CONTINUOUS
 62
     7
 10
-6.4000244140625
 20
0.1999969482421875
 11
-8
 21
0.1999969482421875
  0
LINE
  8
0
  6
CONTINUOUS
 62
     7
 10
-19.699951171875
 20
7.258377075195313
 11
-19.699951171875
 21
3.000015258789063
  0
LINE
  8
0
  6
CONTINUOUS
 62
     7
 10
-10.90014266967773
 20
2.635013103485107
 11
-12.00022315979004
 21
1.999881267547607
  0
LINE
  8
0
  6
CENTER
 62
     7
 10
-14
 20
15.260986328125
 11
-14
 21
8.3546142578125
  0
LINE
  8
0
  6
DASHED
 62
     7
 10
108.6265487670898
 20
13.99993133544922
 11
108.6265487670898
 21
9.999931335449219
  0
LINE
  8
0
  6
DASHED
 62
     7
 10
105.6265487670898
 20
13.99993133544922
 11
105.6265487670898
 21
10
  0
LINE
  8
0
  6
DASHED
 62
     7
 10
108.6265640258789
 20
9.999931335449219
 11
105.6265640258789
 21
9.999931335449219
  0
LINE
  8
0
  6
DASHED
 62
     7
 10
108.3765640258789
 20
8.999931335449219
 11
105.8765640258789
 21
8.999931335449219
  0
LINE
  8
0
  6
DASHED
 62
     7
 10
108.3765487670898
 20
13.99993133544922
 11
108.3765487670898
 21
9
  0
LINE
  8
0
  6
DASHED
 62
     7
 10
105.8765487670898
 20
13.99993133544922
 11
105.8765487670898
 21
9
  0
LINE
  8
0
  6
DASHED
 62
     7
 10
107.1265716552734
 20
8.278282165527344
 11
108.3766021728516
 21
8.999984741210938
  0
LINE
  8
0
  6
DASHED
 62
     7
 10
107.1263046264648
 20
8.27843189239502
 11
105.8763198852539
 21
9.00011157989502
  0
LINE
  8
0
  6
CONTINUOUS
 62
     7
 10
19.699951171875
 20
8.457000732421875
 11
19.699951171875
 21
3
  0
LINE
  8
0
  6
CONTINUOUS
 62
     7
 10
19.70001411437988
 20
2.999922513961792
 11
19.19995307922363
 21
2.499917507171631
  0
LINE
  8
0
  6
CONTINUOUS
 62
     7
 10
19.69991111755371
 20
8.457046508789063
 11
19.99995803833008
 21
8.757094383239746
  0
LINE
  8
0
  6
CONTINUOUS
 62
     7
 10
-19.69986343383789
 20
2.999921321868897
 11
-19.19991493225098
 21
2.49997615814209
  0
LINE
  8
0
  6
CONTINUOUS
 62
     7
 10
-19.699951171875
 20
9
 11
-19.699951171875
 21
8.741622924804688
  0
LINE
  8
0
  6
CONTINUOUS
 62
     7
 10
-19.69990158081055
 20
8.99996280670166
 11
-19.99993896484375
 21
9.300000190734863
  0
LINE
  8
0
  6
CONTINUOUS
 62
     7
 10
-11.5
 20
7.20001220703125
 11
-11.003173828125
 21
7.20001220703125
  0
LINE
  8
0
  6
CONTINUOUS
 62
     7
 10
-11.50013160705566
 20
7.199907302856445
 11
-12.00014305114746
 21
6.699852466583252
  0
LINE
  8
0
  6
CONTINUOUS
 62
     7
 10
-10.75
 20
4.595626831054688
 11
-10.75
 21
2.894912719726563
  0
LINE
  8
0
  6
CONTINUOUS
 62
     7
 10
-17.4852466583252
 20
2.000036478042603
 11
-18.19994926452637
 21
2.714739322662354
  0
LINE
  8
0
  6
CONTINUOUS
 62
     7
 10
-10.90014266967773
 20
2.635013103485107
 11
-12.00022315979004
 21
1.999881267547607
  0
LINE
  8
0
  6
CONTINUOUS
 62
     7
 10
-17.48524475097656
 20
2.000106811523438
 11
-12.00001525878906
 21
2.000106811523438
  0
LINE
  8
0
  6
CONTINUOUS
 62
     7
 10
-18.2000732421875
 20
12.29995727539063
 11
-18.2000732421875
 21
2.714797973632813
  0
LINE
  8
0
  6
CONTINUOUS
 62
     7
 10
-17.69994354248047
 20
12.79990482330322
 11
-18.19993591308594
 21
12.29987335205078
  0
LINE
  8
0
  6
CONTINUOUS
 62
     7
 10
-15.25
 20
12.80000305175781
 11
-15.25
 21
11.20004272460938
  0
LINE
  8
0
  6
CONTINUOUS
 62
     7
 10
-11.75
 20
12.80000305175781
 11
-11.75
 21
11.20004272460938
  0
LINE
  8
0
  6
CONTINUOUS
 62
     7
 10
-11.7366533279419
 20
7.771513938903809
 11
-12.57199954986572
 21
6.936167240142822
  0
LINE
  8
0
  6
CONTINUOUS
 62
     7
 10
-11.32165336608887
 20
4.566065788269043
 11
-12.57200527191162
 21
5.816417694091797
  0
LINE
  8
0
  6
CONTINUOUS
 62
     7
 10
-11.3216552734375
 20
4.566066741943359
 11
-11.3216552734375
 21
3.051620483398438
  0
LINE
  8
0
  6
CONTINUOUS
 62
     7
 10
-11.32175350189209
 20
3.051545143127441
 11
-12.57163429260254
 21
2.329926490783691
  0
LINE
  8
0
  6
CONTINUOUS
 62
     7
 10
-12.5714111328125
 20
2.330001831054688
 11
-12.5714111328125
 21
2.000030517578125
  0
LINE
  8
0
  6
CONTINUOUS
 62
     7
 10
19.699951171875
 20
7.258377075195313
 11
19.699951171875
 21
3.000015258789063
  0
LINE
  8
0
  6
CONTINUOUS
 62
     7
 10
-12.57200622558594
 20
6.936168670654297
 11
-12.57200622558594
 21
5.816411972045898
  0
LINE
  8
0
  6
CONTINUOUS
 62
     7
 10
-11.05833625793457
 20
5.057435512542725
 11
-10.74999713897705
 21
4.595628261566162
  0
LINE
  8
0
  6
CONTINUOUS
 62
     7
 10
-17.79983520507813
 20
12.89992523193359
 11
17.80003356933594
 21
12.89992523193359
  0
LINE
  8
0
  6
CONTINUOUS
 62
     7
 10
-17.69992065429688
 20
12.7999267578125
 11
17.70005798339844
 21
12.7999267578125
  0
LINE
  8
0
  6
CONTINUOUS
 62
     7
 10
11.75
 20
12.80000305175781
 11
11.75
 21
11.20004272460938
  0
LINE
  8
0
  6
CONTINUOUS
 62
     7
 10
15.25
 20
12.80000305175781
 11
15.25
 21
11.20004272460938
  0
LINE
  8
0
  6
CONTINUOUS
 62
     7
 10
17.69994163513184
 20
12.79990673065186
 11
18.19993209838867
 21
12.29987621307373
  0
LINE
  8
0
  6
CONTINUOUS
 62
     7
 10
17.79985618591309
 20
12.89991092681885
 11
18.29987716674805
 21
12.39988803863525
  0
LINE
  8
0
  6
CONTINUOUS
 62
     7
 10
18.2000732421875
 20
12.29995727539063
 11
18.2000732421875
 21
2.714797973632813
  0
LINE
  8
0
  6
CONTINUOUS
 62
     7
 10
18.300048828125
 20
12.39999389648438
 11
18.300048828125
 21
2.814743041992188
  0
LINE
  8
0
  6
CONTINUOUS
 62
     7
 10
18.69993019104004
 20
13.69996070861816
 11
18.99997329711914
 21
13.39991855621338
  0
LINE
  8
0
  6
CONTINUOUS
 62
     7
 10
19
 20
13.40005493164063
 11
19
 21
3.514877319335938
  0
LINE
  8
0
  6
CONTINUOUS
 62
     7
 10
18.00003814697266
 20
2.51482629776001
 11
19.00010299682617
 21
3.514892578125
  0
LINE
  8
0
  6
CONTINUOUS
 62
     7
 10
17.48524475097656
 20
2.000106811523438
 11
12.00001525878906
 21
2.000106811523438
  0
LINE
  8
0
  6
CONTINUOUS
 62
     7
 10
17.48524475097656
 20
2.000033140182495
 11
18.19994735717773
 21
2.714735984802246
  0
LINE
  8
0
  6
CENTER
 62
     7
 10
15.23793029785156
 20
11.20012664794922
 11
11.77076721191406
 21
11.20012664794922
  0
LINE
  8
0
  6
CENTER
 62
     7
 10
13.5
 20
12.51570129394531
 11
13.5
 21
9.880966186523438
  0
LINE
  8
0
  6
CONTINUOUS
 62
     7
 10
19.19996643066406
 20
2.500099182128906
 11
17.98524475097656
 21
2.500099182128906
  0
LINE
  8
0
  6
CONTINUOUS
 62
     7
 10
11.73658752441406
 20
7.771575927734375
 11
-11.73658752441406
 21
7.771575927734375
  0
LINE
  8
0
  6
CONTINUOUS
 62
     7
 10
9.996826171875
 20
7.199996948242188
 11
-9.996826171875
 21
7.199996948242188
  0
LINE
  8
0
  6
CONTINUOUS
 62
     7
 10
11.50013446807861
 20
7.199904918670654
 11
12.00014591217041
 21
6.699850559234619
  0
LINE
  8
0
  6
CONTINUOUS
 62
     7
 10
11.5
 20
7.20001220703125
 11
11.003173828125
 21
7.20001220703125
  0
LINE
  8
0
  6
CONTINUOUS
 62
     7
 10
11.73665618896484
 20
7.77151346206665
 11
12.57200336456299
 21
6.936166763305664
  0
LINE
  8
0
  6
CONTINUOUS
 62
     7
 10
12.57200622558594
 20
6.936168670654297
 11
12.57200622558594
 21
5.816411972045898
  0
LINE
  8
0
  6
CONTINUOUS
 62
     7
 10
12
 20
6.699920654296875
 11
12
 21
6.052719116210938
  0
LINE
  8
0
  6
CONTINUOUS
 62
     7
 10
11.05834293365479
 20
5.057430744171143
 11
10.75000381469727
 21
4.595623970031738
  0
LINE
  8
0
  6
CONTINUOUS
 62
     7
 10
11.78832817077637
 20
5.841071605682373
 11
11.99997615814209
 21
6.052720546722412
  0
LINE
  8
0
  6
CONTINUOUS
 62
     7
 10
10.75
 20
4.595626831054688
 11
10.75
 21
2.894912719726563
  0
LINE
  8
0
  6
CONTINUOUS
 62
     7
 10
10.75
 20
4.595626831054688
 11
10.75
 21
2.894912719726563
  0
LINE
  8
0
  6
CONTINUOUS
 62
     7
 10
11.32165622711182
 20
4.566065311431885
 11
12.57200336456299
 21
5.816411972045898
  0
LINE
  8
0
  6
CONTINUOUS
 62
     7
 10
11.3216552734375
 20
4.566066741943359
 11
11.3216552734375
 21
3.051620483398438
  0
LINE
  8
0
  6
CONTINUOUS
 62
     7
 10
10.90014457702637
 20
2.635009527206421
 11
12.00022506713867
 21
1.999877691268921
  0
LINE
  8
0
  6
CONTINUOUS
 62
     7
 10
11.32175636291504
 20
3.051541566848755
 11
12.57163619995117
 21
2.329922914505005
  0
LINE
  8
0
  6
CONTINUOUS
 62
     7
 10
12.5714111328125
 20
2.330001831054688
 11
12.5714111328125
 21
2.000030517578125
  0
LINE
  8
0
  6
CONTINUOUS
 62
     7
 10
39.67659759521484
 20
6.699920654296875
 11
91.8765869140625
 21
6.699920654296875
  0
LINE
  8
0
  6
CONTINUOUS
 62
     7
 10
39.67659759521484
 20
6.052719116210938
 11
91.8765869140625
 21
6.052719116210938
  0
LINE
  8
0
  6
CONTINUOUS
 62
     7
 10
39.67659759521484
 20
2.000015258789063
 11
149.6766357421875
 21
2.000015258789063
  0
LINE
  8
0
  6
CONTINUOUS
 62
     7
 10
39.67659759521484
 20
4.595626831054688
 11
91.8765869140625
 21
4.595626831054688
  0
LINE
  8
0
  6
CONTINUOUS
 62
     7
 10
137.3765869140625
 20
6.699920654296875
 11
149.6766357421875
 21
6.699920654296875
  0
LINE
  8
0
  6
CONTINUOUS
 62
     7
 10
137.3765869140625
 20
6.052719116210938
 11
149.6766357421875
 21
6.052719116210938
  0
LINE
  8
0
  6
CONTINUOUS
 62
     7
 10
137.3765869140625
 20
4.595626831054688
 11
149.6766357421875
 21
4.595626831054688
  0
LINE
  8
0
  6
CONTINUOUS
 62
     7
 10
39.67659759521484
 20
53.92263793945313
 11
39.67659759521484
 21
29.92263793945313
  0
LINE
  8
0
  6
CONTINUOUS
 62
     7
 10
136.8765563964844
 20
61.92263793945313
 11
136.8765563964844
 21
21.92263793945313
  0
LINE
  8
0
  6
CONTINUOUS
 62
     7
 10
137.3765869140625
 20
61.92263793945313
 11
137.3765869140625
 21
21.92263793945313
  0
LINE
  8
0
  6
CONTINUOUS
 62
     7
 10
131.0765686035156
 20
61.92263793945313
 11
131.0765686035156
 21
21.92263793945313
  0
LINE
  8
0
  6
CONTINUOUS
 62
     7
 10
98.17659759521484
 20
61.92263793945313
 11
98.17659759521484
 21
21.92263793945313
  0
LINE
  8
0
  6
CONTINUOUS
 62
     7
 10
92.37667083740234
 20
61.92263793945313
 11
92.37667083740234
 21
21.92263793945313
  0
LINE
  8
0
  6
CONTINUOUS
 62
     7
 10
91.8765869140625
 20
61.92263793945313
 11
91.8765869140625
 21
21.92263793945313
  0
LINE
  8
0
  6
CONTINUOUS
 62
     7
 10
91.8765869140625
 20
21.92263793945313
 11
137.3765869140625
 21
21.92263793945313
  0
LINE
  8
0
  6
CONTINUOUS
 62
     7
 10
91.8765869140625
 20
61.92263793945313
 11
137.3765869140625
 21
61.92263793945313
  0
LINE
  8
0
  6
CONTINUOUS
 62
     7
 10
39.67659759521484
 20
53.92263793945313
 11
91.8765869140625
 21
53.92263793945313
  0
LINE
  8
0
  6
CONTINUOUS
 62
     7
 10
39.67659759521484
 20
29.92263793945313
 11
91.8765869140625
 21
29.92263793945313
  0
LINE
  8
0
  6
CONTINUOUS
 62
     7
 10
137.3765869140625
 20
53.92263793945313
 11
149.6766357421875
 21
53.92263793945313
  0
LINE
  8
0
  6
CONTINUOUS
 62
     7
 10
137.3765869140625
 20
29.92263793945313
 11
149.6766357421875
 21
29.92263793945313
  0
LINE
  8
0
  6
CENTER
 62
     7
 10
36.67659759521484
 20
41.92263793945313
 11
152.1319580078125
 21
41.92263793945313
  0
LINE
  8
0
  6
CONTINUOUS
 62
     7
 10
39.67659759521484
 20
52.92584228515625
 11
91.8765869140625
 21
52.92584228515625
  0
LINE
  8
0
  6
CONTINUOUS
 62
     7
 10
39.67659759521484
 20
51.91945648193359
 11
91.8765869140625
 21
51.91945648193359
  0
LINE
  8
0
  6
CONTINUOUS
 62
     7
 10
39.67659759521484
 20
31.92582321166992
 11
91.8765869140625
 21
31.92582321166992
  0
LINE
  8
0
  6
CONTINUOUS
 62
     7
 10
39.67659759521484
 20
30.91943740844727
 11
91.8765869140625
 21
30.91943740844727
  0
LINE
  8
0
  6
CONTINUOUS
 62
     7
 10
137.3765869140625
 20
51.91945648193359
 11
149.6766357421875
 21
51.91945648193359
  0
LINE
  8
0
  6
CONTINUOUS
 62
     7
 10
137.3765869140625
 20
52.92584228515625
 11
149.6766357421875
 21
52.92584228515625
  0
LINE
  8
0
  6
CONTINUOUS
 62
     7
 10
137.3765869140625
 20
31.92582321166992
 11
149.6766357421875
 21
31.92582321166992
  0
LINE
  8
0
  6
CONTINUOUS
 62
     7
 10
137.3765869140625
 20
30.91943740844727
 11
149.6766357421875
 21
30.91943740844727
  0
LINE
  8
0
  6
CENTER
 62
     7
 10
109.1265487670898
 20
55.92263793945313
 11
105.1265487670898
 21
55.92263793945313
  0
LINE
  8
0
  6
CENTER
 62
     7
 10
107.1265487670898
 20
57.92263793945313
 11
107.1265487670898
 21
53.92263793945313
  0
LINE
  8
0
  6
CENTER
 62
     7
 10
107.1265487670898
 20
29.92263793945313
 11
107.1265487670898
 21
25.92263793945313
  0
LINE
  8
0
  6
CENTER
 62
     7
 10
109.1265487670898
 20
27.92263793945313
 11
105.1265487670898
 21
27.92263793945313
  0
LINE
  8
0
  6
CENTER
 62
     7
 10
122.1265487670898
 20
29.92263793945313
 11
122.1265487670898
 21
25.92263793945313
  0
LINE
  8
0
  6
CENTER
 62
     7
 10
124.1265487670898
 20
27.92263793945313
 11
120.1265487670898
 21
27.92263793945313
  0
LINE
  8
0
  6
CENTER
 62
     7
 10
122.1265487670898
 20
57.92263793945313
 11
122.1265487670898
 21
53.92263793945313
  0
LINE
  8
0
  6
CENTER
 62
     7
 10
124.1265487670898
 20
55.92263793945313
 11
120.1265487670898
 21
55.92263793945313
  0
LINE
  8
0
  6
CENTER
 62
     7
 10
54.67659759521484
 20
45.92263793945313
 11
54.67659759521484
 21
37.92263793945313
  0
LINE
  8
0
  6
CONTINUOUS
 62
     7
 10
98.17659759521484
 20
49.92262268066406
 11
131.0765686035156
 21
49.92262268066406
  0
LINE
  8
0
  6
CONTINUOUS
 62
     7
 10
98.17659759521484
 20
33.92262268066406
 11
131.0765686035156
 21
33.92262268066406
  0
LINE
  8
0
  6
DASHED
 62
     7
 10
52.42659759521484
 20
1.899711608886719
 11
52.42659759521484
 21
-8.392333984375E-005
  0
LINE
  8
0
  6
DASHED
 62
     7
 10
50.92659759521484
 20
7.199699401855469
 11
50.92659759521484
 21
1.899711608886719
  0
LINE
  8
0
  6
DASHED
 62
     7
 10
50.92659759521484
 20
1.899711608886719
 11
58.42659759521484
 21
1.899711608886719
  0
LINE
  8
0
  6
DASHED
 62
     7
 10
56.92659759521484
 20
1.899711608886719
 11
56.92659759521484
 21
-8.392333984375E-005
  0
LINE
  8
0
  6
DASHED
 62
     7
 10
58.42659759521484
 20
7.199699401855469
 11
58.42659759521484
 21
1.899711608886719
  0
LINE
  8
0
  6
DASHED
 62
     7
 10
-15.5
 20
14.00008392333984
 11
-15.5
 21
10.00015258789063
  0
LINE
  8
0
  6
DASHED
 62
     7
 10
-15.25
 20
14.00008392333984
 11
-15.25
 21
9.000152587890625
  0
LINE
  8
0
  6
DASHED
 62
     7
 10
-12.74998474121094
 20
9.000083923339844
 11
-15.24998474121094
 21
9.000083923339844
  0
LINE
  8
0
  6
DASHED
 62
     7
 10
-14.00024127960205
 20
8.278584480285645
 11
-15.25022697448731
 21
9.000264167785645
  0
LINE
  8
0
  6
DASHED
 62
     7
 10
-13.99997615814209
 20
8.278434753417969
 11
-12.74995040893555
 21
9.000137329101563
  0
LINE
  8
0
  6
DASHED
 62
     7
 10
-12.49998474121094
 20
10.00008392333984
 11
-15.49998474121094
 21
10.00008392333984
  0
LINE
  8
0
  6
DASHED
 62
     7
 10
-12.75
 20
14.00008392333984
 11
-12.75
 21
9.000152587890625
  0
LINE
  8
0
  6
DASHED
 62
     7
 10
-12.5
 20
14.00008392333984
 11
-12.5
 21
10.00008392333984
  0
LINE
  8
0
  6
CONTINUOUS
 62
     7
 10
149.6766357421875
 20
53.92263793945313
 11
149.6766357421875
 21
29.92263793945313
  0
LINE
  8
0
  6
CONTINUOUS
 62
     7
 10
149.6766357421875
 20
7.199699401855469
 11
149.6766357421875
 21
-8.392333984375E-005
  0
LINE
  8
0
  6
CENTER
 62
     7
 10
134.6766357421875
 20
45.92263793945313
 11
134.6766357421875
 21
37.92263793945313
  0
LINE
  8
0
  6
CENTER
 62
     7
 10
134.6766357421875
 20
3.690666198730469
 11
134.6766357421875
 21
-0.7049636840820313
  0
LINE
  8
0
  6
CENTER
 62
     7
 10
94.67662811279297
 20
45.92263793945313
 11
94.67662811279297
 21
37.92263793945313
  0
LINE
  8
0
  6
CENTER
 62
     7
 10
94.67662811279297
 20
3.690666198730469
 11
94.67662811279297
 21
-0.7049636840820313
  0
CIRCLE
  8
0
  6
CONTINUOUS
 62
     7
 10
-13.5
 20
11.20004272460938
 40
1.5
  0
CIRCLE
  8
0
  6
CONTINUOUS
 62
     7
 10
-13.5
 20
11.20004272460938
 40
1.5
  0
ARC
  8
0
  6
CONTINUOUS
 62
     7
 10
-10.5
 20
8.12158203125
 40
1.050000190734864
 50
241.3643132870274
 51
298.6346844963973
  0
ARC
  8
0
  6
CONTINUOUS
 62
     7
 10
-12.084228515625
 20
4.833709716796875
 40
1.050000190734863
 50
12.30239586037532
 51
73.6300403093844
  0
ARC
  8
0
  6
CONTINUOUS
 62
     7
 10
-6
 20
-0.100006103515625
 40
0.5000000000000003
 50
36.86978802655193
 51
143.1302203974989
  0
ARC
  8
0
  6
CONTINUOUS
 62
     7
 10
-20
 20
8
 40
0.8000001907348637
 50
292.0233892289052
 51
67.97661077109476
  0
ARC
  8
0
  6
CONTINUOUS
 62
     7
 10
11.0499267578125
 20
2.894912719726563
 40
0.2999999523162846
 50
179.999909386308
 51
239.999952037095
  0
ARC
  8
0
  6
CONTINUOUS
 62
     7
 10
-11.050048828125
 20
2.894912719726563
 40
0.2999999523162838
 50
300.0000666322396
 51
9.061371092656781E-005
  0
CIRCLE
  8
0
  6
CONTINUOUS
 62
     7
 10
0
 20
10.70002746582031
 40
1.100000381469727
  0
ARC
  8
0
  6
CONTINUOUS
 62
     7
 10
-10.5
 20
8.12158203125
 40
1.050000190734864
 50
241.3643132870274
 51
298.6346844963973
  0
ARC
  8
0
  6
CONTINUOUS
 62
     7
 10
-11.0499267578125
 20
2.894912719726563
 40
0.2999999523162838
 50
300.0000666322396
 51
9.061371092656781E-005
  0
ARC
  8
0
  6
CONTINUOUS
 62
     7
 10
-13.5
 20
11.20004272460938
 40
1.75
 50
179.9999640278213
 51
1.001791266906166E-005
  0
CIRCLE
  8
0
  6
CONTINUOUS
 62
     7
 10
13.5
 20
11.20004272460938
 40
1.5
  0
ARC
  8
0
  6
CONTINUOUS
 62
     7
 10
13.5
 20
11.20004272460938
 40
1.75
 50
179.999991348578
 51
1.001791266906166E-005
  0
ARC
  8
0
  6
CONTINUOUS
 62
     7
 10
10.5
 20
8.12158203125
 40
1.050000190734863
 50
241.3653104946463
 51
298.6356885342054
  0
ARC
  8
0
  6
CONTINUOUS
 62
     7
 10
12.084228515625
 20
4.833709716796875
 40
1.050000190734864
 50
106.3699578693828
 51
167.6976048797128
  0
CIRCLE
  8
0
  6
CONTINUOUS
 62
     7
 10
107.1265487670898
 20
27.92263793945313
 40
1.5
  0
CIRCLE
  8
0
  6
CONTINUOUS
 62
     7
 10
107.1265487670898
 20
27.92263793945313
 40
1.25
  0
CIRCLE
  8
0
  6
CONTINUOUS
 62
     7
 10
54.67659759521484
 20
41.92263793945313
 40
3.75
  0
CIRCLE
  8
0
  6
CONTINUOUS
 62
     7
 10
54.67659759521484
 20
41.92263793945313
 40
2.25
  0
TEXT
  8
0
  6
CONTINUOUS
 62
     7
 10
-1.142857670783997
 20
-21.60000002384186
 40
3.200000047683716
 41
1.007142905039446
  1
HRW14LR
  0
ENDSEC
  0
EOF
