  0
SECTION
  2
HEADER
  0
ENDSEC
  0
SECTION
  2
TABLES
  0
TABLE
  2
LTYPE
 70
    22
  0
LTYPE
  2
CONTINUOUS
 70
    64
  3
Solid line
 72
    65
 73
     0
 40
0.000000
  0
LTYPE
  2
DASHED
 70
    64
  3
__ __ __ __ __ __ __ __ __ __ __ __ __ __ __
 72
    65
 73
     2
 40
3.500000
 49
2.000000
 49
-1.500000
  0
LTYPE
  2
CENTER
 70
    64
  3
____ _ ____ _ ____ _ ____ _ ____ _ ____ _ ____
 72
    65
 73
     4
 40
17.500000
 49
13.000000
 49
-1.500000
 49
1.500000
 49
-1.500000
  0
LTYPE
  2
PHANTOM
 70
    64
  3
_____ _ _ _____ _ _ _____ _ _ _____ _ _ ____  
 72
    65
 73
     6
 40
15.500000
 49
8.000000
 49
-1.500000
 49
1.500000
 49
-1.500000
 49
1.500000
 49
-1.500000
  0
LTYPE
  2
DOT
 70
    64
  3
. . . . . . . . . . . . . . . . . . . . . . . .
 72
    65
 73
     2
 40
0.25
 49
0.0
 49
-0.25
  0
ENDTAB
  0
TABLE
  2
LAYER
 70
     1
  0
LAYER
  2
0
 70
     0
 62
     7
  6
CONTINUOUS
  0
ENDTAB
  0
TABLE
  2
STYLE
 70
     1
  0
STYLE
  2
STANDARD
 70
     0
 40
0.000000
 41
1.000000
 50
0.000000
 71
     0
 42
0.200000
  3
txt
  0
ENDTAB
  0
TABLE
  2
VIEW
 70
     0
  0
ENDTAB
  0
ENDSEC
  0
SECTION
  2
BLOCKS
  0
ENDSEC
  0
SECTION
  2
ENTITIES
  0
LINE
  8
0
  6
DASHED
 62
     7
 10
-5.249755859375
 20
8.499997138977051
 11
-5.249755859375
 21
3.199994325637817
  0
LINE
  8
0
  6
CONTINUOUS
 62
     7
 10
103.1999816894531
 20
16
 11
103.1999816894531
 21
2.5
  0
LINE
  8
0
  6
CONTINUOUS
 62
     7
 10
136.7999572753906
 20
16
 11
136.7999572753906
 21
2.5
  0
LINE
  8
0
  6
CONTINUOUS
 62
     7
 10
103.7023468017578
 20
16.5
 11
136.2999572753906
 21
16.5
  0
LINE
  8
0
  6
CONTINUOUS
 62
     7
 10
136.8510437011719
 20
16
 11
136.7999572753906
 21
16
  0
LINE
  8
0
  6
CENTER
 62
     7
 10
14.5
 20
17.73428153991699
 11
14.5
 21
9.170224189758301
  0
LINE
  8
0
  6
CONTINUOUS
 62
     7
 10
128.0002136230469
 20
2.000213623046875
 11
131.0002136230469
 21
2.000213623046875
  0
LINE
  8
0
  6
CONTINUOUS
 62
     7
 10
131.0001525878906
 20
2.29998779296875
 11
131.0001525878906
 21
2
  0
LINE
  8
0
  6
CONTINUOUS
 62
     7
 10
131.0004730224609
 20
2.299672365188599
 11
130.8004760742188
 21
2.499668121337891
  0
LINE
  8
0
  6
CONTINUOUS
 62
     7
 10
128.0007476806641
 20
2.299402475357056
 11
128.2007446289063
 21
2.499398469924927
  0
LINE
  8
0
  6
CONTINUOUS
 62
     7
 10
128.0001525878906
 20
2.29998779296875
 11
128.0001525878906
 21
1.999989867210388
  0
LINE
  8
0
  6
CONTINUOUS
 62
     7
 10
103.1999816894531
 20
15.99763202667236
 11
103.7023468017578
 21
16.50000190734863
  0
LINE
  8
0
  6
CONTINUOUS
 62
     7
 10
136.30029296875
 20
16.49960708618164
 11
136.8003234863281
 21
15.99957466125488
  0
LINE
  8
0
  6
CENTER
 62
     7
 10
129.4999694824219
 20
4.976369380950928
 11
129.4999694824219
 21
1.036753296852112
  0
LINE
  8
0
  6
CENTER
 62
     7
 10
110.5000305175781
 20
4.597564697265625
 11
110.5000305175781
 21
0.8852437138557434
  0
LINE
  8
0
  6
CONTINUOUS
 62
     7
 10
109.0006103515625
 20
2.299472808837891
 11
109.2006072998047
 21
2.499468564987183
  0
LINE
  8
0
  6
CONTINUOUS
 62
     7
 10
109.0001525878906
 20
2.29998779296875
 11
109.0001525878906
 21
1.999989867210388
  0
LINE
  8
0
  6
CONTINUOUS
 62
     7
 10
109.000617980957
 20
2.000264406204224
 11
112.000617980957
 21
2.000264406204224
  0
LINE
  8
0
  6
CONTINUOUS
 62
     7
 10
112.0001525878906
 20
2.29998779296875
 11
112.0001525878906
 21
2
  0
LINE
  8
0
  6
CONTINUOUS
 62
     7
 10
112.0005722045898
 20
2.299634456634522
 11
111.8005752563477
 21
2.499630451202393
  0
LINE
  8
0
  6
DASHED
 62
     7
 10
-16.5
 20
16.49999809265137
 11
-16.5
 21
11.49999713897705
  0
LINE
  8
0
  6
CONTINUOUS
 62
     7
 10
-16.499755859375
 20
6.880002498626709
 11
-16.499755859375
 21
6.119992733001709
  0
LINE
  8
0
  6
CONTINUOUS
 62
     7
 10
-3.499755859375
 20
8.499997138977051
 11
-14.8797607421875
 21
8.499997138977051
  0
LINE
  8
0
  6
CONTINUOUS
 62
     7
 10
-14.34955024719238
 20
3.969701051712036
 11
-15.6119327545166
 21
5.232083320617676
  0
LINE
  8
0
  6
CONTINUOUS
 62
     7
 10
24.69999122619629
 20
10.19999980926514
 11
24.69999122619629
 21
3.79999041557312
  0
LINE
  8
0
  6
DASHED
 62
     7
 10
110.5000305175781
 20
16.5
 11
110.5000305175781
 21
11.5
  0
LINE
  8
0
  6
CENTER
 62
     7
 10
0
 20
17.24995613098145
 11
0
 21
-2.377093076705933
  0
LINE
  8
0
  6
CENTER
 62
     7
 10
112.5000305175781
 20
17.5
 11
112.5000305175781
 21
9.17022705078125
  0
LINE
  8
0
  6
CONTINUOUS
 62
     7
 10
-14.87963199615479
 20
8.49954891204834
 11
-15.61241626739502
 21
7.766761302947998
  0
LINE
  8
0
  6
CONTINUOUS
 62
     7
 10
-3.499755859375
 20
-0.5
 11
-15.999755859375
 21
-0.5
  0
LINE
  8
0
  6
CENTER
 62
     7
 10
127.4999694824219
 20
17.5
 11
127.4999694824219
 21
9.17022705078125
  0
LINE
  8
0
  6
DASHED
 62
     7
 10
114.5000228881836
 20
11.5000114440918
 11
114.2000198364258
 21
10.98039722442627
  0
LINE
  8
0
  6
DASHED
 62
     7
 10
110.8000335693359
 20
10.98038005828857
 11
110.5000228881836
 21
11.50001049041748
  0
LINE
  8
0
  6
DASHED
 62
     7
 10
103.1999816894531
 20
10.60999584197998
 11
136.7999572753906
 21
10.60999584197998
  0
LINE
  8
0
  6
DASHED
 62
     7
 10
114.5000305175781
 20
16.5
 11
114.5000305175781
 21
11.5
  0
LINE
  8
0
  6
DASHED
 62
     7
 10
114.2000198364258
 20
16.5
 11
114.2000198364258
 21
10.60999584197998
  0
LINE
  8
0
  6
DASHED
 62
     7
 10
110.5000305175781
 20
11.5
 11
114.5000305175781
 21
11.5
  0
LINE
  8
0
  6
DASHED
 62
     7
 10
110.8000411987305
 20
16.5
 11
110.8000411987305
 21
10.60999584197998
  0
LINE
  8
0
  6
CONTINUOUS
 62
     7
 10
-16.49955749511719
 20
-0.000207699675229378
 11
-15.99969673156738
 21
-0.500067949295044
  0
LINE
  8
0
  6
CONTINUOUS
 62
     7
 10
-16.3380241394043
 20
5.958571910858154
 11
-16.49943733215332
 21
6.119982242584229
  0
LINE
  8
0
  6
CONTINUOUS
 62
     7
 10
-16.499755859375
 20
1.300000548362732
 11
-16.499755859375
 21
-2.543131586207892E-006
  0
LINE
  8
0
  6
CONTINUOUS
 62
     7
 10
-14.349853515625
 20
3.969998598098755
 11
-14.349853515625
 21
2.541302919387817
  0
LINE
  8
0
  6
CONTINUOUS
 62
     7
 10
103.1999816894531
 20
2.5
 11
136.7999572753906
 21
2.5
  0
LINE
  8
0
  6
CONTINUOUS
 62
     7
 10
3.000244140625
 20
0
 11
-2.999755859375
 21
0
  0
LINE
  8
0
  6
CONTINUOUS
 62
     7
 10
3.000244140625
 20
7.999997615814209
 11
-2.999755859375
 21
7.999997615814209
  0
LINE
  8
0
  6
CONTINUOUS
 62
     7
 10
-2.999699831008911
 20
8.000170707702637
 11
-3.499557733535767
 21
8.500032424926758
  0
LINE
  8
0
  6
CONTINUOUS
 62
     7
 10
-2.999561071395874
 20
-0.0004338158178143203
 11
-3.499570369720459
 21
-0.5004470348358154
  0
LINE
  8
0
  6
DASHED
 62
     7
 10
-5.249755859375
 20
3.199999570846558
 11
-12.749755859375
 21
3.199999570846558
  0
LINE
  8
0
  6
DASHED
 62
     7
 10
-12.749755859375
 20
8.499997138977051
 11
-12.749755859375
 21
3.199994325637817
  0
LINE
  8
0
  6
DASHED
 62
     7
 10
-11.249755859375
 20
3.199994325637817
 11
-11.249755859375
 21
-0.5
  0
LINE
  8
0
  6
CENTER
 62
     7
 10
-8.999755859375
 20
9.205990791320801
 11
-8.999755859375
 21
-2.21362566947937
  0
LINE
  8
0
  6
CONTINUOUS
 62
     7
 10
-16.33675575256348
 20
7.042296886444092
 11
-16.49953460693359
 21
6.879518032073975
  0
LINE
  8
0
  6
DASHED
 62
     7
 10
-6.749755859375
 20
3.199994325637817
 11
-6.749755859375
 21
-0.5
  0
LINE
  8
0
  6
CONTINUOUS
 62
     7
 10
3.500244140625
 20
-0.5
 11
16.000244140625
 21
-0.5
  0
LINE
  8
0
  6
CONTINUOUS
 62
     7
 10
16.500244140625
 20
6.880002498626709
 11
16.500244140625
 21
6.119992733001709
  0
LINE
  8
0
  6
CONTINUOUS
 62
     7
 10
3.500244140625
 20
8.499997138977051
 11
14.8802490234375
 21
8.499997138977051
  0
LINE
  8
0
  6
CONTINUOUS
 62
     7
 10
14.88007354736328
 20
8.500041007995606
 11
15.61285781860352
 21
7.767253398895264
  0
LINE
  8
0
  6
CONTINUOUS
 62
     7
 10
14.35007095336914
 20
3.969923496246338
 11
15.61247444152832
 21
5.232327461242676
  0
LINE
  8
0
  6
CONTINUOUS
 62
     7
 10
14.3502197265625
 20
3.969998598098755
 11
14.3502197265625
 21
2.541302919387817
  0
LINE
  8
0
  6
CONTINUOUS
 62
     7
 10
16.500244140625
 20
1.300000548362732
 11
16.500244140625
 21
-2.543131586207892E-006
  0
LINE
  8
0
  6
CONTINUOUS
 62
     7
 10
16.33724021911621
 20
7.042842864990234
 11
16.50001907348633
 21
6.880063533782959
  0
LINE
  8
0
  6
CONTINUOUS
 62
     7
 10
16.33892631530762
 20
5.958263397216797
 11
16.50032615661621
 21
6.119659423828125
  0
LINE
  8
0
  6
CONTINUOUS
 62
     7
 10
16.50004005432129
 20
-3.506617940729484E-005
 11
16.00003623962402
 21
-0.5000389814376831
  0
LINE
  8
0
  6
CONTINUOUS
 62
     7
 10
3.000458002090454
 20
7.999598026275635
 11
3.500452756881714
 21
8.49959659576416
  0
LINE
  8
0
  6
CONTINUOUS
 62
     7
 10
3.000247478485107
 20
0.0003261735255364329
 11
3.500264167785645
 21
-0.4996943175792694
  0
LINE
  8
0
  6
CENTER
 62
     7
 10
9.000244140625
 20
9.205990791320801
 11
9.000244140625
 21
-2.21362566947937
  0
LINE
  8
0
  6
CONTINUOUS
 62
     7
 10
7.499996185302734
 20
15.99999713897705
 11
7.999999046325684
 21
16.5
  0
LINE
  8
0
  6
DASHED
 62
     7
 10
-16.50000953674316
 20
11.50000476837158
 11
-16.20000648498535
 21
10.98038387298584
  0
LINE
  8
0
  6
CONTINUOUS
 62
     7
 10
24.4999942779541
 20
16.50000953674316
 11
24.99999809265137
 21
16.00000381469727
  0
LINE
  8
0
  6
CONTINUOUS
 62
     7
 10
8
 20
16.49999809265137
 11
24.5
 21
16.49999809265137
  0
LINE
  8
0
  6
CONTINUOUS
 62
     7
 10
24
 20
3.099993467330933
 11
22.5
 21
3.099993467330933
  0
LINE
  8
0
  6
CONTINUOUS
 62
     7
 10
25
 20
15.99999713897705
 11
25
 21
10.49999809265137
  0
LINE
  8
0
  6
CONTINUOUS
 62
     7
 10
-25
 20
15.99999713897705
 11
-25
 21
10.49999809265137
  0
LINE
  8
0
  6
CENTER
 62
     7
 10
-14.5
 20
17.73428153991699
 11
-14.5
 21
9.170224189758301
  0
LINE
  8
0
  6
DASHED
 62
     7
 10
-11.56207275390625
 20
10.60999774932861
 11
-16.46938133239746
 21
10.60999774932861
  0
LINE
  8
0
  6
CONTINUOUS
 62
     7
 10
-2.378877401351929
 20
9.499855041503906
 11
-2.878893613815308
 21
9.999875068664551
  0
LINE
  8
0
  6
CONTINUOUS
 62
     7
 10
15.5184326171875
 20
2.5
 11
21.90006446838379
 21
2.5
  0
LINE
  8
0
  6
CENTER
 62
     7
 10
19.2183837890625
 20
4.819806575775147
 11
19.2183837890625
 21
1.418362975120544
  0
LINE
  8
0
  6
CENTER
 62
     7
 10
8.2340087890625
 20
13.39999103546143
 11
15.6387939453125
 21
13.39999103546143
  0
LINE
  8
0
  6
CENTER
 62
     7
 10
12.000244140625
 20
17.27793121337891
 11
12.000244140625
 21
9.676928520202637
  0
LINE
  8
0
  6
CENTER
 62
     7
 10
17.4532470703125
 20
8.520007133483887
 11
24.465576171875
 21
8.520007133483887
  0
LINE
  8
0
  6
CENTER
 62
     7
 10
21.000244140625
 20
12.32503032684326
 11
21.000244140625
 21
4.331693172454834
  0
LINE
  8
0
  6
CONTINUOUS
 62
     7
 10
16.49994659423828
 20
1.300114750862122
 11
14.35024833679199
 21
2.541244506835938
  0
LINE
  8
0
  6
CONTINUOUS
 62
     7
 10
-16.49961471557617
 20
1.300075769424439
 11
-14.34963226318359
 21
2.541368722915649
  0
LINE
  8
0
  6
DASHED
 62
     7
 10
-12.8000078201294
 20
16.49999809265137
 11
-12.8000078201294
 21
10.60999774932861
  0
LINE
  8
0
  6
CONTINUOUS
 62
     7
 10
23.4000244140625
 20
14.49999713897705
 11
23.4000244140625
 21
3.99999737739563
  0
LINE
  8
0
  6
CONTINUOUS
 62
     7
 10
21.90000152587891
 20
16.00009727478027
 11
23.40001487731934
 21
14.50008487701416
  0
LINE
  8
0
  6
CONTINUOUS
 62
     7
 10
21.90022468566895
 20
2.499676704406738
 11
23.40027618408203
 21
3.999735116958618
  0
LINE
  8
0
  6
DASHED
 62
     7
 10
-12.80001068115234
 20
10.98039245605469
 11
-12.50001049041748
 21
11.50000858306885
  0
LINE
  8
0
  6
DASHED
 62
     7
 10
-12.5
 20
16.49999809265137
 11
-12.5
 21
11.49999713897705
  0
LINE
  8
0
  6
DASHED
 62
     7
 10
-16.19999122619629
 20
16.49999809265137
 11
-16.19999122619629
 21
10.60999774932861
  0
LINE
  8
0
  6
CONTINUOUS
 62
     7
 10
-8
 20
16.49999809265137
 11
-24.5
 21
16.49999809265137
  0
LINE
  8
0
  6
CONTINUOUS
 62
     7
 10
-8.000010490417481
 20
16.50000762939453
 11
-7.500006198883057
 21
16.00000381469727
  0
LINE
  8
0
  6
CONTINUOUS
 62
     7
 10
24.99999618530273
 20
10.50000476837158
 11
24.69999504089356
 21
10.2000036239624
  0
LINE
  8
0
  6
CENTER
 62
     7
 10
-2.648844480514526
 20
12.49999809265137
 11
2.556905031204224
 21
12.49999809265137
  0
LINE
  8
0
  6
CONTINUOUS
 62
     7
 10
16.33736228942871
 20
7.042850017547607
 11
16.50014114379883
 21
6.88007116317749
  0
LINE
  8
0
  6
CONTINUOUS
 62
     7
 10
16.33899879455566
 20
5.958220481872559
 11
16.50039100646973
 21
6.119609355926514
  0
LINE
  8
0
  6
CONTINUOUS
 62
     7
 10
-2.3790283203125
 20
9.499997138977051
 11
2.3790283203125
 21
9.499997138977051
  0
LINE
  8
0
  6
CONTINUOUS
 62
     7
 10
23.300048828125
 20
14.40000152587891
 11
23.300048828125
 21
4.100003719329834
  0
LINE
  8
0
  6
CONTINUOUS
 62
     7
 10
18.000244140625
 20
7.501309871673584
 11
18.000244140625
 21
5.498674869537354
  0
LINE
  8
0
  6
CONTINUOUS
 62
     7
 10
17.24837684631348
 20
2.600070476531982
 11
15.88745975494385
 21
3.385796546936035
  0
LINE
  8
0
  6
CONTINUOUS
 62
     7
 10
15.8873291015625
 20
3.385775089263916
 11
16.78325271606445
 21
4.281699657440186
  0
LINE
  8
0
  6
CONTINUOUS
 62
     7
 10
15.50166416168213
 20
10.00023555755615
 11
16.78352737426758
 21
8.718376159667969
  0
LINE
  8
0
  6
CONTINUOUS
 62
     7
 10
2.8790283203125
 20
9.999997138977051
 11
15.5015869140625
 21
9.999997138977051
  0
LINE
  8
0
  6
CONTINUOUS
 62
     7
 10
2.378865957260132
 20
9.49985408782959
 11
2.878882169723511
 21
9.999874114990234
  0
LINE
  8
0
  6
CONTINUOUS
 62
     7
 10
17.28934288024902
 20
4.78778886795044
 11
18.00014686584473
 21
5.498593807220459
  0
LINE
  8
0
  6
CONTINUOUS
 62
     7
 10
17.28824806213379
 20
8.213237762451172
 11
18.00010490417481
 21
7.501385688781738
  0
LINE
  8
0
  6
CONTINUOUS
 62
     7
 10
21.80007553100586
 20
15.90008449554443
 11
23.3000602722168
 21
14.40010070800781
  0
LINE
  8
0
  6
CONTINUOUS
 62
     7
 10
14.3502197265625
 20
2.600006103515625
 11
21.80023193359375
 21
2.600006103515625
  0
LINE
  8
0
  6
CONTINUOUS
 62
     7
 10
21.80010604858398
 20
2.599955558776856
 11
23.30010223388672
 21
4.099953174591065
  0
LINE
  8
0
  6
CONTINUOUS
 62
     7
 10
-21.899658203125
 20
2.5
 11
-15.5179443359375
 21
2.5
  0
LINE
  8
0
  6
CONTINUOUS
 62
     7
 10
-20.71759033203125
 20
1.99957275390625
 11
-17.71771240234375
 21
1.99957275390625
  0
LINE
  8
0
  6
CONTINUOUS
 62
     7
 10
-20.7178955078125
 20
1.999997496604919
 11
-20.7178955078125
 21
2.300000429153442
  0
LINE
  8
0
  6
CONTINUOUS
 62
     7
 10
-20.51753616333008
 20
2.499589920043945
 11
-20.71752548217773
 21
2.299601554870606
  0
LINE
  8
0
  6
CENTER
 62
     7
 10
-19.2178955078125
 20
1.418362975120544
 11
-19.2178955078125
 21
4.819806575775147
  0
LINE
  8
0
  6
CONTINUOUS
 62
     7
 10
-17.91772651672363
 20
2.499799013137817
 11
-17.71764373779297
 21
2.299716711044312
  0
LINE
  8
0
  6
CONTINUOUS
 62
     7
 10
-17.7178955078125
 20
1.999982237815857
 11
-17.7178955078125
 21
2.300000429153442
  0
LINE
  8
0
  6
CENTER
 62
     7
 10
-24.4654541015625
 20
8.520007133483887
 11
-17.4527587890625
 21
8.520007133483887
  0
LINE
  8
0
  6
CENTER
 62
     7
 10
-20.999755859375
 20
4.331693172454834
 11
-20.999755859375
 21
12.32503032684326
  0
LINE
  8
0
  6
CONTINUOUS
 62
     7
 10
-23.3997802734375
 20
3.99999737739563
 11
-23.3997802734375
 21
14.49999713897705
  0
LINE
  8
0
  6
CONTINUOUS
 62
     7
 10
-23.39931488037109
 20
14.49942302703857
 11
-21.89930152893066
 21
15.99943542480469
  0
LINE
  8
0
  6
CONTINUOUS
 62
     7
 10
-23.39920043945313
 20
4.000047206878662
 11
-21.89910507202148
 21
2.499945878982544
  0
LINE
  8
0
  6
CONTINUOUS
 62
     7
 10
-23.2998046875
 20
4.100003719329834
 11
-23.2998046875
 21
14.40000152587891
  0
LINE
  8
0
  6
CONTINUOUS
 62
     7
 10
-17.999755859375
 20
5.498674869537354
 11
-17.999755859375
 21
7.501309871673584
  0
LINE
  8
0
  6
CONTINUOUS
 62
     7
 10
-15.88690376281738
 20
3.385883569717407
 11
-17.24785614013672
 21
2.600136995315552
  0
LINE
  8
0
  6
CONTINUOUS
 62
     7
 10
-16.78267478942871
 20
4.281448364257813
 11
-15.8867073059082
 21
3.385480403900147
  0
LINE
  8
0
  6
CONTINUOUS
 62
     7
 10
-16.78225898742676
 20
8.717263221740723
 11
-15.49952030181885
 21
9.999998092651367
  0
LINE
  8
0
  6
CONTINUOUS
 62
     7
 10
-15.49951934814453
 20
9.999997138977051
 11
-2.879048585891724
 21
9.999997138977051
  0
LINE
  8
0
  6
CONTINUOUS
 62
     7
 10
-17.99946784973145
 20
5.498240470886231
 11
-17.28873634338379
 21
4.787508487701416
  0
LINE
  8
0
  6
CONTINUOUS
 62
     7
 10
-17.99942779541016
 20
7.500901222229004
 11
-17.28756332397461
 21
8.212760925292969
  0
LINE
  8
0
  6
CONTINUOUS
 62
     7
 10
-23.29952430725098
 20
14.39958953857422
 11
-21.79952621459961
 21
15.89958763122559
  0
LINE
  8
0
  6
CONTINUOUS
 62
     7
 10
-21.7998046875
 20
2.600006103515625
 11
-14.349853515625
 21
2.600006103515625
  0
LINE
  8
0
  6
CONTINUOUS
 62
     7
 10
-23.29953765869141
 20
4.099743366241455
 11
-21.79944038391113
 21
2.599644660949707
  0
LINE
  8
0
  6
CONTINUOUS
 62
     7
 10
-21.7998046875
 20
15.90000152587891
 11
21.80023193359375
 21
15.90000152587891
  0
LINE
  8
0
  6
CONTINUOUS
 62
     7
 10
-24.49999809265137
 20
16.5000057220459
 11
-25.00000190734863
 21
16
  0
LINE
  8
0
  6
CONTINUOUS
 62
     7
 10
-24.99999237060547
 20
10.49999713897705
 11
-24.69999885559082
 21
10.2000036239624
  0
LINE
  8
0
  6
DASHED
 62
     7
 10
-12.5
 20
11.49999713897705
 11
-16.5
 21
11.49999713897705
  0
LINE
  8
0
  6
CONTINUOUS
 62
     7
 10
-24
 20
3.099993467330933
 11
-22.5
 21
3.099993467330933
  0
LINE
  8
0
  6
CONTINUOUS
 62
     7
 10
-24.69999122619629
 20
10.19999980926514
 11
-24.69999122619629
 21
3.79999041557312
  0
LINE
  8
0
  6
CONTINUOUS
 62
     7
 10
24.69999694824219
 20
3.799989223480225
 11
23.99999618530273
 21
3.099988698959351
  0
LINE
  8
0
  6
CONTINUOUS
 62
     7
 10
-21.89874267578125
 20
15.99998760223389
 11
21.90010643005371
 21
15.99998760223389
  0
LINE
  8
0
  6
CONTINUOUS
 62
     7
 10
-24.70000076293945
 20
3.79998517036438
 11
-24.00000190734863
 21
3.099984645843506
  0
LINE
  8
0
  6
CONTINUOUS
 62
     7
 10
144.6000671386719
 20
65.20000457763672
 11
143.3999938964844
 21
63.99992752075195
  0
LINE
  8
0
  6
CONTINUOUS
 62
     7
 10
136.7999572753906
 20
57
 11
103.1999816894531
 21
57
  0
LINE
  8
0
  6
CONTINUOUS
 62
     7
 10
144.6000671386719
 20
72.25
 11
144.6000671386719
 21
91.75
  0
LINE
  8
0
  6
CONTINUOUS
 62
     7
 10
45
 20
65.5
 11
95.39987182617188
 21
65.5
  0
LINE
  8
0
  6
CENTER
 62
     7
 10
195.9999389648438
 20
82
 11
44
 21
82
  0
LINE
  8
0
  6
CONTINUOUS
 62
     7
 10
194.9999389648438
 20
67.11988830566406
 11
144.6000671386719
 21
67.11988830566406
  0
LINE
  8
0
  6
CONTINUOUS
 62
     7
 10
97.89987182617188
 20
2.541275024414063
 11
103.1999816894531
 21
2.541275024414063
  0
LINE
  8
0
  6
CONTINUOUS
 62
     7
 10
45
 20
8.5
 11
94.49996948242188
 21
8.5
  0
LINE
  8
0
  6
CENTER
 62
     7
 10
94.31503295898438
 20
8.519989013671875
 11
100.0768737792969
 21
8.519989013671875
  0
LINE
  8
0
  6
CONTINUOUS
 62
     7
 10
98.40076446533203
 20
16
 11
103.1999816894531
 21
16
  0
LINE
  8
0
  6
CONTINUOUS
 62
     7
 10
98.40076446533203
 20
15.99999809265137
 11
97.89987182617188
 21
15.49910736083984
  0
LINE
  8
0
  6
CENTER
 62
     7
 10
91.87863159179688
 20
12.5
 11
99.04611206054688
 21
12.5
  0
LINE
  8
0
  6
CONTINUOUS
 62
     7
 10
45
 20
-0.5
 11
195
 21
-0.5
  0
LINE
  8
0
  6
CONTINUOUS
 62
     7
 10
194.9999389648438
 20
78.49933624267578
 11
144.6000671386719
 21
78.49933624267578
  0
LINE
  8
0
  6
CONTINUOUS
 62
     7
 10
96.59994506835938
 20
58.699951171875
 11
97.89987182617188
 21
58.699951171875
  0
LINE
  8
0
  6
CONTINUOUS
 62
     7
 10
97.89987182617188
 20
58.59999847412109
 11
103.1999816894531
 21
58.59999847412109
  0
LINE
  8
0
  6
CONTINUOUS
 62
     7
 10
97.89987182617188
 20
15.89999389648438
 11
97.89987182617188
 21
2.5
  0
LINE
  8
0
  6
CONTINUOUS
 62
     7
 10
96.59994506835938
 20
15.89999389648438
 11
96.59994506835938
 21
10.76998901367188
  0
LINE
  8
0
  6
CONTINUOUS
 62
     7
 10
96.59994506835938
 20
15.89999389648438
 11
97.89987182617188
 21
15.89999389648438
  0
LINE
  8
0
  6
CENTER
 62
     7
 10
93.43893432617188
 20
13.39999389648438
 11
99.41183471679688
 21
13.39999389648438
  0
LINE
  8
0
  6
CONTINUOUS
 62
     7
 10
95.39987182617188
 20
6.269989013671875
 11
95.39987182617188
 21
2.600006103515625
  0
LINE
  8
0
  6
CONTINUOUS
 62
     7
 10
97.09994506835938
 20
15.89999389648438
 11
97.09994506835938
 21
2.5
  0
LINE
  8
0
  6
CONTINUOUS
 62
     7
 10
95.39987182617188
 20
2.600006103515625
 11
96.59994506835938
 21
2.600006103515625
  0
LINE
  8
0
  6
CONTINUOUS
 62
     7
 10
94.79989624023438
 20
10.76998901367188
 11
97.09994506835938
 21
10.76998901367188
  0
LINE
  8
0
  6
CONTINUOUS
 62
     7
 10
94.79989624023438
 20
6.269989013671875
 11
97.09994506835938
 21
6.269989013671875
  0
LINE
  8
0
  6
CONTINUOUS
 62
     7
 10
94.79989624023438
 20
15.64999389648438
 11
96.59994506835938
 21
15.64999389648438
  0
LINE
  8
0
  6
CONTINUOUS
 62
     7
 10
94.79989624023438
 20
11.14999389648438
 11
96.59994506835938
 21
11.14999389648438
  0
LINE
  8
0
  6
CONTINUOUS
 62
     7
 10
94.49996948242188
 20
15.34999084472656
 11
94.49996948242188
 21
11.44999694824219
  0
LINE
  8
0
  6
CONTINUOUS
 62
     7
 10
94.49996948242188
 20
10.46998596191406
 11
94.49996948242188
 21
6.569992065429688
  0
LINE
  8
0
  6
CONTINUOUS
 62
     7
 10
96.59994506835938
 20
6.269989013671875
 11
96.59994506835938
 21
2.499984741210938
  0
LINE
  8
0
  6
CONTINUOUS
 62
     7
 10
94.80025482177734
 20
15.64966011047363
 11
94.50025939941406
 21
15.34966087341309
  0
LINE
  8
0
  6
CONTINUOUS
 62
     7
 10
94.50019073486328
 20
11.44976234436035
 11
94.80023193359375
 21
11.14972591400147
  0
LINE
  8
0
  6
CONTINUOUS
 62
     7
 10
94.80042266845703
 20
10.76945877075195
 11
94.50042724609375
 21
10.46946430206299
  0
LINE
  8
0
  6
CONTINUOUS
 62
     7
 10
94.50020599365234
 20
6.569769859313965
 11
94.80023956298828
 21
6.26973295211792
  0
LINE
  8
0
  6
CONTINUOUS
 62
     7
 10
143.4000549316406
 20
2.5
 11
142.1001281738281
 21
2.5
  0
LINE
  8
0
  6
CONTINUOUS
 62
     7
 10
145.4998016357422
 20
6.569766998291016
 11
145.1997680664063
 21
6.269730091094971
  0
LINE
  8
0
  6
CONTINUOUS
 62
     7
 10
145.1995697021484
 20
10.76946449279785
 11
145.4995727539063
 21
10.46947002410889
  0
LINE
  8
0
  6
CONTINUOUS
 62
     7
 10
145.4998168945313
 20
11.4497594833374
 11
145.1997833251953
 21
11.14972305297852
  0
LINE
  8
0
  6
CONTINUOUS
 62
     7
 10
145.1997528076172
 20
15.64965724945068
 11
145.499755859375
 21
15.34965801239014
  0
LINE
  8
0
  6
CONTINUOUS
 62
     7
 10
143.4000549316406
 20
6.269989013671875
 11
143.4000549316406
 21
2.499984741210938
  0
LINE
  8
0
  6
CONTINUOUS
 62
     7
 10
145.5000305175781
 20
10.46998596191406
 11
145.5000305175781
 21
6.569992065429688
  0
LINE
  8
0
  6
CONTINUOUS
 62
     7
 10
145.5000305175781
 20
15.34999084472656
 11
145.5000305175781
 21
11.44999694824219
  0
LINE
  8
0
  6
CONTINUOUS
 62
     7
 10
145.2001037597656
 20
11.14999389648438
 11
143.4000549316406
 21
11.14999389648438
  0
LINE
  8
0
  6
CONTINUOUS
 62
     7
 10
145.2001037597656
 20
15.64999389648438
 11
143.4000549316406
 21
15.64999389648438
  0
LINE
  8
0
  6
CONTINUOUS
 62
     7
 10
145.2001037597656
 20
6.269989013671875
 11
142.9000549316406
 21
6.269989013671875
  0
LINE
  8
0
  6
CONTINUOUS
 62
     7
 10
145.2001037597656
 20
10.76998901367188
 11
142.9000549316406
 21
10.76998901367188
  0
LINE
  8
0
  6
CONTINUOUS
 62
     7
 10
144.6001281738281
 20
2.600006103515625
 11
143.4000549316406
 21
2.600006103515625
  0
LINE
  8
0
  6
CONTINUOUS
 62
     7
 10
142.9000549316406
 20
15.89999389648438
 11
142.9000549316406
 21
2.5
  0
LINE
  8
0
  6
CONTINUOUS
 62
     7
 10
144.6001281738281
 20
6.269989013671875
 11
144.6001281738281
 21
2.600006103515625
  0
LINE
  8
0
  6
CENTER
 62
     7
 10
146.5610656738281
 20
13.39999389648438
 11
140.5881652832031
 21
13.39999389648438
  0
LINE
  8
0
  6
CONTINUOUS
 62
     7
 10
143.4000549316406
 20
15.89999389648438
 11
142.1001281738281
 21
15.89999389648438
  0
LINE
  8
0
  6
CONTINUOUS
 62
     7
 10
143.4000549316406
 20
15.89999389648438
 11
143.4000549316406
 21
10.76998901367188
  0
LINE
  8
0
  6
CONTINUOUS
 62
     7
 10
142.1001281738281
 20
15.89999389648438
 11
142.1001281738281
 21
2.5
  0
LINE
  8
0
  6
CONTINUOUS
 62
     7
 10
141.5997161865234
 20
15.99952125549316
 11
142.0997161865234
 21
15.49952030181885
  0
LINE
  8
0
  6
CONTINUOUS
 62
     7
 10
141.6001281738281
 20
16
 11
136.8000183105469
 21
16
  0
LINE
  8
0
  6
CENTER
 62
     7
 10
145.6849670410156
 20
8.519989013671875
 11
139.9231262207031
 21
8.519989013671875
  0
LINE
  8
0
  6
CONTINUOUS
 62
     7
 10
195
 20
8.5
 11
145.5000305175781
 21
8.5
  0
LINE
  8
0
  6
CONTINUOUS
 62
     7
 10
142.1001281738281
 20
2.541275024414063
 11
136.8000183105469
 21
2.541275024414063
  0
LINE
  8
0
  6
CENTER
 62
     7
 10
95.24993896484375
 20
73
 11
104.7499389648438
 21
73
  0
LINE
  8
0
  6
CONTINUOUS
 62
     7
 10
96.59994506835938
 20
2.5
 11
97.89987182617188
 21
2.5
  0
LINE
  8
0
  6
CONTINUOUS
 62
     7
 10
45
 20
67.11988830566406
 11
95.39987182617188
 21
67.11988830566406
  0
LINE
  8
0
  6
CONTINUOUS
 62
     7
 10
45
 20
78.49933624267578
 11
95.39987182617188
 21
78.49933624267578
  0
LINE
  8
0
  6
CONTINUOUS
 62
     7
 10
45
 20
8.5
 11
45
 21
-0.5
  0
LINE
  8
0
  6
CONTINUOUS
 62
     7
 10
144.6000671386719
 20
65.19999694824219
 11
144.6000671386719
 21
67.75
  0
LINE
  8
0
  6
CENTER
 62
     7
 10
175.2499389648438
 20
73
 11
184.7499389648438
 21
73
  0
LINE
  8
0
  6
CENTER
 62
     7
 10
179.9999389648438
 20
77.75
 11
179.9999389648438
 21
68.25
  0
LINE
  8
0
  6
CONTINUOUS
 62
     7
 10
142.8999938964844
 20
58.699951171875
 11
142.8999938964844
 21
105.300048828125
  0
LINE
  8
0
  6
CONTINUOUS
 62
     7
 10
136.7999572753906
 20
57
 11
136.7999572753906
 21
107
  0
LINE
  8
0
  6
CONTINUOUS
 62
     7
 10
142.1000671386719
 20
58.59999847412109
 11
142.1000671386719
 21
105.4000015258789
  0
LINE
  8
0
  6
CONTINUOUS
 62
     7
 10
143.3999938964844
 20
105.300048828125
 11
142.1000671386719
 21
105.300048828125
  0
LINE
  8
0
  6
CONTINUOUS
 62
     7
 10
194.9999389648438
 20
85.50066375732422
 11
144.6000671386719
 21
85.50066375732422
  0
LINE
  8
0
  6
CENTER
 62
     7
 10
99.99993896484375
 20
77.75
 11
99.99993896484375
 21
68.25
  0
LINE
  8
0
  6
CONTINUOUS
 62
     7
 10
194.9999389648438
 20
98.5
 11
144.6000671386719
 21
98.5
  0
LINE
  8
0
  6
CENTER
 62
     7
 10
99.99993896484375
 20
86.25
 11
99.99993896484375
 21
95.75
  0
LINE
  8
0
  6
CONTINUOUS
 62
     7
 10
142.1000671386719
 20
105.4000015258789
 11
136.7999572753906
 21
105.4000015258789
  0
LINE
  8
0
  6
CONTINUOUS
 62
     7
 10
144.6000671386719
 20
98.80000305175781
 11
143.3999938964844
 21
100.0000762939453
  0
LINE
  8
0
  6
CONTINUOUS
 62
     7
 10
142.1000671386719
 20
58.59999847412109
 11
136.7999572753906
 21
58.59999847412109
  0
LINE
  8
0
  6
CONTINUOUS
 62
     7
 10
194.9999389648438
 20
96.88011169433594
 11
144.6000671386719
 21
96.88011169433594
  0
LINE
  8
0
  6
CONTINUOUS
 62
     7
 10
194.9999389648438
 20
65.5
 11
194.9999389648438
 21
98.5
  0
LINE
  8
0
  6
CENTER
 62
     7
 10
179.9999389648438
 20
86.25
 11
179.9999389648438
 21
95.75
  0
LINE
  8
0
  6
CENTER
 62
     7
 10
95.24993896484375
 20
91
 11
104.7499389648438
 21
91
  0
LINE
  8
0
  6
CENTER
 62
     7
 10
175.2499389648438
 20
91
 11
184.7499389648438
 21
91
  0
LINE
  8
0
  6
CONTINUOUS
 62
     7
 10
95.39987182617188
 20
98.80000305175781
 11
96.59994506835938
 21
100.0000686645508
  0
LINE
  8
0
  6
CONTINUOUS
 62
     7
 10
143.3999938964844
 20
58.699951171875
 11
142.1000671386719
 21
58.699951171875
  0
LINE
  8
0
  6
CENTER
 62
     7
 10
135.2499389648438
 20
73
 11
144.7499389648438
 21
73
  0
LINE
  8
0
  6
CENTER
 62
     7
 10
60
 20
86.25
 11
60
 21
95.75
  0
LINE
  8
0
  6
CENTER
 62
     7
 10
64.75
 20
91
 11
55.25
 21
91
  0
LINE
  8
0
  6
CENTER
 62
     7
 10
139.9999389648438
 20
77.75
 11
139.9999389648438
 21
68.25
  0
LINE
  8
0
  6
CONTINUOUS
 62
     7
 10
194.9999389648438
 20
65.5
 11
144.6000671386719
 21
65.5
  0
LINE
  8
0
  6
CONTINUOUS
 62
     7
 10
45
 20
96.88011169433594
 11
95.39987182617188
 21
96.88011169433594
  0
LINE
  8
0
  6
CONTINUOUS
 62
     7
 10
97.89987182617188
 20
105.4000015258789
 11
103.1999816894531
 21
105.4000015258789
  0
LINE
  8
0
  6
CONTINUOUS
 62
     7
 10
45
 20
65.5
 11
45
 21
98.5
  0
LINE
  8
0
  6
CONTINUOUS
 62
     7
 10
96.59994506835938
 20
105.300048828125
 11
97.89987182617188
 21
105.300048828125
  0
LINE
  8
0
  6
CONTINUOUS
 62
     7
 10
45
 20
85.50066375732422
 11
95.39987182617188
 21
85.50066375732422
  0
LINE
  8
0
  6
CONTINUOUS
 62
     7
 10
97.89987182617188
 20
58.59999847412109
 11
97.89987182617188
 21
105.4000015258789
  0
LINE
  8
0
  6
CONTINUOUS
 62
     7
 10
45
 20
98.5
 11
95.39987182617188
 21
98.5
  0
LINE
  8
0
  6
CONTINUOUS
 62
     7
 10
97.09994506835938
 20
58.699951171875
 11
97.09994506835938
 21
105.300048828125
  0
LINE
  8
0
  6
CONTINUOUS
 62
     7
 10
95.39987182617188
 20
65.19999694824219
 11
95.39987182617188
 21
67.75
  0
LINE
  8
0
  6
CONTINUOUS
 62
     7
 10
103.1999816894531
 20
57
 11
103.1999816894531
 21
107
  0
LINE
  8
0
  6
CONTINUOUS
 62
     7
 10
95.39987182617188
 20
72.25
 11
95.39987182617188
 21
80.25
  0
LINE
  8
0
  6
CENTER
 62
     7
 10
139.9999389648438
 20
86.25
 11
139.9999389648438
 21
95.75
  0
LINE
  8
0
  6
CENTER
 62
     7
 10
64.75
 20
73
 11
55.25
 21
73
  0
LINE
  8
0
  6
CENTER
 62
     7
 10
135.2499389648438
 20
91
 11
144.7499389648438
 21
91
  0
LINE
  8
0
  6
CENTER
 62
     7
 10
60
 20
77.75
 11
60
 21
68.25
  0
LINE
  8
0
  6
CONTINUOUS
 62
     7
 10
195
 20
6.119635105133057
 11
144.6001281738281
 21
6.119635105133057
  0
LINE
  8
0
  6
CONTINUOUS
 62
     7
 10
95.39987182617188
 20
65.19999694824219
 11
96.59994506835938
 21
63.99992752075195
  0
LINE
  8
0
  6
CENTER
 62
     7
 10
140
 20
3.541275024414063
 11
140
 21
-1.5
  0
LINE
  8
0
  6
CENTER
 62
     7
 10
180
 20
9.5
 11
180
 21
-1.5
  0
LINE
  8
0
  6
CONTINUOUS
 62
     7
 10
195
 20
6.879950046539307
 11
145.5000305175781
 21
6.879950046539307
  0
LINE
  8
0
  6
CONTINUOUS
 62
     7
 10
45
 20
2.541239261627197
 11
96.59994506835938
 21
2.541239261627197
  0
LINE
  8
0
  6
CONTINUOUS
 62
     7
 10
195
 20
8.5
 11
145.5000305175781
 21
8.5
  0
LINE
  8
0
  6
CONTINUOUS
 62
     7
 10
45
 20
1.29992139339447
 11
195
 21
1.29992139339447
  0
LINE
  8
0
  6
CONTINUOUS
 62
     7
 10
195
 20
8.5
 11
195
 21
-0.5
  0
LINE
  8
0
  6
DASHED
 62
     7
 10
63.75
 20
8.5
 11
63.75
 21
3.199996948242188
  0
LINE
  8
0
  6
DASHED
 62
     7
 10
62.25
 20
3.199996948242188
 11
62.25
 21
-0.5
  0
LINE
  8
0
  6
DASHED
 62
     7
 10
57.75
 20
3.199996948242188
 11
57.75
 21
-0.5
  0
LINE
  8
0
  6
DASHED
 62
     7
 10
63.75
 20
3.199996948242188
 11
56.25
 21
3.199996948242188
  0
LINE
  8
0
  6
CONTINUOUS
 62
     7
 10
45
 20
3.970115184783936
 11
95.39987182617188
 21
3.970115184783936
  0
LINE
  8
0
  6
CENTER
 62
     7
 10
100
 20
3.541275024414063
 11
100
 21
-1.5
  0
LINE
  8
0
  6
CONTINUOUS
 62
     7
 10
195
 20
2.541239261627197
 11
143.4000549316406
 21
2.541239261627197
  0
LINE
  8
0
  6
DASHED
 62
     7
 10
56.25
 20
8.5
 11
56.25
 21
3.199996948242188
  0
LINE
  8
0
  6
CENTER
 62
     7
 10
60
 20
9.5
 11
60
 21
-1.5
  0
LINE
  8
0
  6
CONTINUOUS
 62
     7
 10
45
 20
6.879950046539307
 11
94.49996948242188
 21
6.879950046539307
  0
LINE
  8
0
  6
CONTINUOUS
 62
     7
 10
195
 20
3.970115184783936
 11
144.6001281738281
 21
3.970115184783936
  0
LINE
  8
0
  6
CONTINUOUS
 62
     7
 10
45
 20
6.119635105133057
 11
95.39987182617188
 21
6.119635105133057
  0
LINE
  8
0
  6
CONTINUOUS
 62
     7
 10
96.59994506835938
 20
105.25
 11
96.59994506835938
 21
96.25
  0
LINE
  8
0
  6
CONTINUOUS
 62
     7
 10
94.79989624023438
 20
105.25
 11
96.59994506835938
 21
105.25
  0
LINE
  8
0
  6
CONTINUOUS
 62
     7
 10
96.59994506835938
 20
67.75
 11
96.59994506835938
 21
58.699951171875
  0
LINE
  8
0
  6
CONTINUOUS
 62
     7
 10
94.79989624023438
 20
63.25
 11
96.59994506835938
 21
63.25
  0
LINE
  8
0
  6
CONTINUOUS
 62
     7
 10
94.79989624023438
 20
58.75
 11
96.59994506835938
 21
58.75
  0
LINE
  8
0
  6
CENTER
 62
     7
 10
93.49996948242188
 20
70
 11
98.09994506835938
 21
70
  0
LINE
  8
0
  6
CONTINUOUS
 62
     7
 10
94.79989624023438
 20
72.25
 11
97.09994506835938
 21
72.25
  0
LINE
  8
0
  6
CONTINUOUS
 62
     7
 10
94.79989624023438
 20
100.75
 11
96.59994506835938
 21
100.75
  0
LINE
  8
0
  6
CONTINUOUS
 62
     7
 10
94.79989624023438
 20
67.75
 11
97.09994506835938
 21
67.75
  0
LINE
  8
0
  6
CONTINUOUS
 62
     7
 10
94.49996948242188
 20
71.94999694824219
 11
94.49996948242188
 21
68.05000305175781
  0
LINE
  8
0
  6
CONTINUOUS
 62
     7
 10
94.80042266845703
 20
72.24947357177734
 11
94.50042724609375
 21
71.94947814941406
  0
LINE
  8
0
  6
CONTINUOUS
 62
     7
 10
94.50019836425781
 20
68.04977416992188
 11
94.80023193359375
 21
67.74974060058594
  0
LINE
  8
0
  6
CENTER
 62
     7
 10
93.49996948242188
 20
61
 11
98.09994506835938
 21
61
  0
LINE
  8
0
  6
CONTINUOUS
 62
     7
 10
94.49996948242188
 20
62.94999694824219
 11
94.49996948242188
 21
59.05000305175781
  0
LINE
  8
0
  6
CONTINUOUS
 62
     7
 10
94.80042266845703
 20
63.24947357177734
 11
94.50042724609375
 21
62.94947814941406
  0
LINE
  8
0
  6
CONTINUOUS
 62
     7
 10
94.50019836425781
 20
59.04977416992188
 11
94.80023193359375
 21
58.74973678588867
  0
LINE
  8
0
  6
CENTER
 62
     7
 10
93.49996948242188
 20
94
 11
98.09994506835938
 21
94
  0
LINE
  8
0
  6
CONTINUOUS
 62
     7
 10
94.79989624023438
 20
91.75
 11
97.09994506835938
 21
91.75
  0
LINE
  8
0
  6
CONTINUOUS
 62
     7
 10
94.79989624023438
 20
96.25
 11
97.09994506835938
 21
96.25
  0
LINE
  8
0
  6
CONTINUOUS
 62
     7
 10
94.49996948242188
 20
92.05000305175781
 11
94.49996948242188
 21
95.94999694824219
  0
LINE
  8
0
  6
CONTINUOUS
 62
     7
 10
94.80042266845703
 20
91.75052642822266
 11
94.50042724609375
 21
92.05052185058594
  0
LINE
  8
0
  6
CONTINUOUS
 62
     7
 10
94.50019836425781
 20
95.95021820068359
 11
94.80023956298828
 21
96.25025939941406
  0
LINE
  8
0
  6
CENTER
 62
     7
 10
93.49996948242188
 20
103
 11
98.09994506835938
 21
103
  0
LINE
  8
0
  6
CONTINUOUS
 62
     7
 10
94.49996948242188
 20
101.0500030517578
 11
94.49996948242188
 21
104.9499969482422
  0
LINE
  8
0
  6
CONTINUOUS
 62
     7
 10
94.8004150390625
 20
100.7505264282227
 11
94.50042724609375
 21
101.0505218505859
  0
LINE
  8
0
  6
CONTINUOUS
 62
     7
 10
94.50019836425781
 20
104.9502182006836
 11
94.80023193359375
 21
105.2502517700195
  0
LINE
  8
0
  6
CONTINUOUS
 62
     7
 10
95.39987182617188
 20
96.25
 11
95.39987182617188
 21
98.80000305175781
  0
LINE
  8
0
  6
CONTINUOUS
 62
     7
 10
96.59994506835938
 20
91.75
 11
96.59994506835938
 21
72.25
  0
LINE
  8
0
  6
CONTINUOUS
 62
     7
 10
143.3999938964844
 20
105.25
 11
143.3999938964844
 21
96.25
  0
LINE
  8
0
  6
CONTINUOUS
 62
     7
 10
145.2000427246094
 20
105.25
 11
143.3999938964844
 21
105.25
  0
LINE
  8
0
  6
CONTINUOUS
 62
     7
 10
143.3999938964844
 20
67.75
 11
143.3999938964844
 21
58.699951171875
  0
LINE
  8
0
  6
CONTINUOUS
 62
     7
 10
145.2000427246094
 20
63.25
 11
143.3999938964844
 21
63.25
  0
LINE
  8
0
  6
CONTINUOUS
 62
     7
 10
145.2000427246094
 20
58.75
 11
143.3999938964844
 21
58.75
  0
LINE
  8
0
  6
CENTER
 62
     7
 10
146.4999694824219
 20
70
 11
141.8999938964844
 21
70
  0
LINE
  8
0
  6
CONTINUOUS
 62
     7
 10
145.2000427246094
 20
72.25
 11
142.8999938964844
 21
72.25
  0
LINE
  8
0
  6
CONTINUOUS
 62
     7
 10
145.2000427246094
 20
100.75
 11
143.3999938964844
 21
100.75
  0
LINE
  8
0
  6
CONTINUOUS
 62
     7
 10
145.2000427246094
 20
67.75
 11
142.8999938964844
 21
67.75
  0
LINE
  8
0
  6
CONTINUOUS
 62
     7
 10
145.4999694824219
 20
71.94999694824219
 11
145.4999694824219
 21
68.05000305175781
  0
LINE
  8
0
  6
CONTINUOUS
 62
     7
 10
145.1995239257813
 20
72.24947357177734
 11
145.49951171875
 21
71.94947814941406
  0
LINE
  8
0
  6
CONTINUOUS
 62
     7
 10
145.4997406005859
 20
68.04978179931641
 11
145.19970703125
 21
67.74974060058594
  0
LINE
  8
0
  6
CENTER
 62
     7
 10
146.4999694824219
 20
61
 11
141.8999938964844
 21
61
  0
LINE
  8
0
  6
CONTINUOUS
 62
     7
 10
145.4999694824219
 20
62.94999694824219
 11
145.4999694824219
 21
59.05000305175781
  0
LINE
  8
0
  6
CONTINUOUS
 62
     7
 10
145.1995239257813
 20
63.24947357177734
 11
145.49951171875
 21
62.94947814941406
  0
LINE
  8
0
  6
CONTINUOUS
 62
     7
 10
145.4997253417969
 20
59.04977416992188
 11
145.1996917724609
 21
58.74973678588867
  0
LINE
  8
0
  6
CENTER
 62
     7
 10
146.4999694824219
 20
94
 11
141.8999938964844
 21
94
  0
LINE
  8
0
  6
CONTINUOUS
 62
     7
 10
145.2000427246094
 20
91.75
 11
142.8999938964844
 21
91.75
  0
LINE
  8
0
  6
CONTINUOUS
 62
     7
 10
145.2000427246094
 20
96.25
 11
142.8999938964844
 21
96.25
  0
LINE
  8
0
  6
CONTINUOUS
 62
     7
 10
145.4999694824219
 20
92.05000305175781
 11
145.4999694824219
 21
95.94999694824219
  0
LINE
  8
0
  6
CONTINUOUS
 62
     7
 10
145.1995239257813
 20
91.75052642822266
 11
145.49951171875
 21
92.05052185058594
  0
LINE
  8
0
  6
CONTINUOUS
 62
     7
 10
145.4997406005859
 20
95.95021820068359
 11
145.19970703125
 21
96.25025939941406
  0
LINE
  8
0
  6
CENTER
 62
     7
 10
146.4999694824219
 20
103
 11
141.8999938964844
 21
103
  0
LINE
  8
0
  6
CONTINUOUS
 62
     7
 10
145.4999694824219
 20
101.0500030517578
 11
145.4999694824219
 21
104.9499969482422
  0
LINE
  8
0
  6
CONTINUOUS
 62
     7
 10
145.1995239257813
 20
100.7505264282227
 11
145.49951171875
 21
101.0505218505859
  0
LINE
  8
0
  6
CONTINUOUS
 62
     7
 10
145.4997253417969
 20
104.9502182006836
 11
145.1996917724609
 21
105.2502517700195
  0
LINE
  8
0
  6
CONTINUOUS
 62
     7
 10
144.6000671386719
 20
96.25
 11
144.6000671386719
 21
98.80000305175781
  0
LINE
  8
0
  6
CONTINUOUS
 62
     7
 10
143.3999938964844
 20
91.75
 11
143.3999938964844
 21
72.25
  0
LINE
  8
0
  6
CONTINUOUS
 62
     7
 10
96.39987182617188
 20
80.25
 11
94.64987182617188
 21
80.25
  0
LINE
  8
0
  6
CONTINUOUS
 62
     7
 10
96.59994506835938
 20
79.75
 11
96.39987182617188
 21
79.75
  0
LINE
  8
0
  6
CONTINUOUS
 62
     7
 10
95.39987182617188
 20
83.75
 11
95.39987182617188
 21
91.75
  0
LINE
  8
0
  6
CONTINUOUS
 62
     7
 10
96.39987182617188
 20
83.75
 11
94.64987182617188
 21
83.75
  0
LINE
  8
0
  6
CONTINUOUS
 62
     7
 10
96.59994506835938
 20
84.25
 11
96.39987182617188
 21
84.25
  0
LINE
  8
0
  6
CONTINUOUS
 62
     7
 10
96.39987182617188
 20
79.75
 11
96.39987182617188
 21
84.25
  0
LINE
  8
0
  6
CENTER
 62
     7
 10
-8.2340087890625
 20
13.39999103546143
 11
-15.6387939453125
 21
13.39999103546143
  0
LINE
  8
0
  6
CENTER
 62
     7
 10
-12.000244140625
 20
17.27793121337891
 11
-12.000244140625
 21
9.676928520202637
  0
LINE
  8
0
  6
CONTINUOUS
 62
     7
 10
103.1999816894531
 20
3.099993467330933
 11
136.7999572753906
 21
3.099993467330933
  0
LINE
  8
0
  6
CONTINUOUS
 62
     7
 10
103.1999816894531
 20
10.65000247955322
 11
136.7999572753906
 21
10.65000247955322
  0
LINE
  8
0
  6
CONTINUOUS
 62
     7
 10
136.7999572753906
 20
107
 11
103.1999816894531
 21
107
  0
LINE
  8
0
  6
CONTINUOUS
 62
     7
 10
136.7999572753906
 20
74.00000762939453
 11
103.1999816894531
 21
74.00000762939453
  0
LINE
  8
0
  6
CENTER
 62
     7
 10
112.5000305175781
 20
70.5
 11
112.5000305175781
 21
64.5
  0
LINE
  8
0
  6
CENTER
 62
     7
 10
109.5000305175781
 20
67.5
 11
115.5000305175781
 21
67.5
  0
LINE
  8
0
  6
CENTER
 62
     7
 10
112.5000305175781
 20
93.5
 11
112.5000305175781
 21
99.5
  0
LINE
  8
0
  6
CENTER
 62
     7
 10
109.5000305175781
 20
96.5
 11
115.5000305175781
 21
96.5
  0
LINE
  8
0
  6
CONTINUOUS
 62
     7
 10
136.7999572753906
 20
89.99999237060547
 11
103.1999816894531
 21
89.99999237060547
  0
LINE
  8
0
  6
CENTER
 62
     7
 10
127.4999084472656
 20
70.5
 11
127.4999084472656
 21
64.5
  0
LINE
  8
0
  6
CENTER
 62
     7
 10
130.4999084472656
 20
96.5
 11
124.4999084472656
 21
96.5
  0
LINE
  8
0
  6
CENTER
 62
     7
 10
130.4999084472656
 20
67.5
 11
124.4999084472656
 21
67.5
  0
LINE
  8
0
  6
CENTER
 62
     7
 10
127.4999084472656
 20
93.5
 11
127.4999084472656
 21
99.5
  0
ARC
  8
0
  6
CONTINUOUS
 62
     7
 10
-16.61474609375
 20
4.955991268157959
 40
1.03999900817871
 50
15.41248578667388
 51
74.58725034042664
  0
ARC
  8
0
  6
CONTINUOUS
 62
     7
 10
-16.61474609375
 20
8.045001029968262
 40
1.039999008178711
 50
285.4917066463787
 51
344.5085299057641
  0
ARC
  8
0
  6
CONTINUOUS
 62
     7
 10
16.615234375
 20
4.955991268157959
 40
1.039999008178711
 50
105.4126590458813
 51
164.5874509203908
  0
ARC
  8
0
  6
CONTINUOUS
 62
     7
 10
16.615234375
 20
8.045001029968262
 40
1.039999008178711
 50
195.4914514249012
 51
254.5083293258001
  0
CIRCLE
  8
0
  6
CONTINUOUS
 62
     7
 10
12.000244140625
 20
13.39999103546143
 40
2.249999046325684
  0
CIRCLE
  8
0
  6
CONTINUOUS
 62
     7
 10
21.000244140625
 20
8.520007133483887
 40
2.249999046325684
  0
ARC
  8
0
  6
CONTINUOUS
 62
     7
 10
15.5184326171875
 20
3.099993467330933
 40
0.5999989509582523
 50
236.4406484804187
 51
270.0000179860894
  0
CIRCLE
  8
0
  6
CONTINUOUS
 62
     7
 10
0
 20
12.49999809265137
 40
1.749999046325684
  0
ARC
  8
0
  6
CONTINUOUS
 62
     7
 10
15.5184326171875
 20
3.099993467330933
 40
0.5999989509582517
 50
258.818014767538
 51
270.0000179860894
  0
ARC
  8
0
  6
CONTINUOUS
 62
     7
 10
17.3223876953125
 20
4.248888492584229
 40
0.5399985313415529
 50
93.49266754788839
 51
179.9999640278213
  0
ARC
  8
0
  6
CONTINUOUS
 62
     7
 10
17.2711181640625
 20
8.700793266296387
 40
0.4879294931888583
 50
179.9999640278213
 51
272.0367630937431
  0
CIRCLE
  8
0
  6
CONTINUOUS
 62
     7
 10
0
 20
12.50000858306885
 40
2.249999046325684
  0
CIRCLE
  8
0
  6
CONTINUOUS
 62
     7
 10
-20.999755859375
 20
8.520007133483887
 40
2.249999046325684
  0
ARC
  8
0
  6
CONTINUOUS
 62
     7
 10
-15.5179443359375
 20
3.099993467330933
 40
0.5999989509582522
 50
270.0000179860894
 51
303.5593567559087
  0
ARC
  8
0
  6
CONTINUOUS
 62
     7
 10
-17.3218994140625
 20
4.248888492584229
 40
0.5399985313415526
 50
3.597217806743286E-005
 51
86.50729647993288
  0
ARC
  8
0
  6
CONTINUOUS
 62
     7
 10
-17.2706298828125
 20
8.700793266296387
 40
0.4879294931888583
 50
267.9632555755915
 51
3.597217810816098E-005
  0
ARC
  8
0
  6
CONTINUOUS
 62
     7
 10
94.64987182617188
 20
12.5
 40
1.749999999999999
 50
94.91389331038455
 51
274.4708239478821
  0
CIRCLE
  8
0
  6
CONTINUOUS
 62
     7
 10
60
 20
73
 40
2.25
  0
CIRCLE
  8
0
  6
CONTINUOUS
 62
     7
 10
60
 20
73
 40
3.75
  0
ARC
  8
0
  6
CONTINUOUS
 62
     7
 10
94.64987182617188
 20
82
 40
1.750000000000002
 50
90.00000250447801
 51
270.0000006832453
  0
CIRCLE
  8
0
  6
CONTINUOUS
 62
     7
 10
-12.000244140625
 20
13.39999103546143
 40
2.249999046325684
  0
CIRCLE
  8
0
  6
CONTINUOUS
 62
     7
 10
112.5000305175781
 20
67.5
 40
2
  0
CIRCLE
  8
0
  6
CONTINUOUS
 62
     7
 10
112.5000305175781
 20
67.5
 40
1.699991822242737
  0
TEXT
  8
0
  6
CONTINUOUS
 62
     7
 10
-11.28550004959106
 20
-32.29999995231628
 40
3.599999904632568
 41
1.00619571870364
  1
HRW17CRM
  0
ENDSEC
  0
EOF
