  0
SECTION
  2
HEADER
  0
ENDSEC
  0
SECTION
  2
TABLES
  0
TABLE
  2
LTYPE
 70
    22
  0
LTYPE
  2
CONTINUOUS
 70
    64
  3
Solid line
 72
    65
 73
     0
 40
0.000000
  0
LTYPE
  2
DASHED
 70
    64
  3
__ __ __ __ __ __ __ __ __ __ __ __ __ __ __
 72
    65
 73
     2
 40
3.500000
 49
2.000000
 49
-1.500000
  0
LTYPE
  2
CENTER
 70
    64
  3
____ _ ____ _ ____ _ ____ _ ____ _ ____ _ ____
 72
    65
 73
     4
 40
17.500000
 49
13.000000
 49
-1.500000
 49
1.500000
 49
-1.500000
  0
LTYPE
  2
PHANTOM
 70
    64
  3
_____ _ _ _____ _ _ _____ _ _ _____ _ _ ____  
 72
    65
 73
     6
 40
15.500000
 49
8.000000
 49
-1.500000
 49
1.500000
 49
-1.500000
 49
1.500000
 49
-1.500000
  0
LTYPE
  2
DOT
 70
    64
  3
. . . . . . . . . . . . . . . . . . . . . . . .
 72
    65
 73
     2
 40
0.25
 49
0.0
 49
-0.25
  0
ENDTAB
  0
TABLE
  2
LAYER
 70
     1
  0
LAYER
  2
0
 70
     0
 62
     7
  6
CONTINUOUS
  0
ENDTAB
  0
TABLE
  2
STYLE
 70
     1
  0
STYLE
  2
STANDARD
 70
     0
 40
0.000000
 41
1.000000
 50
0.000000
 71
     0
 42
0.200000
  3
txt
  0
ENDTAB
  0
TABLE
  2
VIEW
 70
     0
  0
ENDTAB
  0
ENDSEC
  0
SECTION
  2
BLOCKS
  0
ENDSEC
  0
SECTION
  2
ENTITIES
  0
LINE
  8
0
  6
CONTINUOUS
 62
     7
 10
177.3998260498047
 20
8.889999389648438
 11
177.3998260498047
 21
4.30999755859375
  0
LINE
  8
0
  6
CONTINUOUS
 62
     7
 10
176.8998718261719
 20
20.34999084472656
 11
176.8998718261719
 21
4.30999755859375
  0
LINE
  8
0
  6
CONTINUOUS
 62
     7
 10
169.9998168945313
 20
4.30999755859375
 11
178.5998229980469
 21
4.30999755859375
  0
LINE
  8
0
  6
CONTINUOUS
 62
     7
 10
179.4998168945313
 20
11
 11
240
 21
11
  0
LINE
  8
0
  6
CONTINUOUS
 62
     7
 10
179.5003662109375
 20
19.09941101074219
 11
179.2003326416016
 21
19.39945030212402
  0
LINE
  8
0
  6
CONTINUOUS
 62
     7
 10
179.5003662109375
 20
14.69941139221191
 11
179.2003631591797
 21
14.39941024780273
  0
LINE
  8
0
  6
CONTINUOUS
 62
     7
 10
179.5004730224609
 20
9.189352035522461
 11
179.2004699707031
 21
8.889344215393066
  0
LINE
  8
0
  6
CONTINUOUS
 62
     7
 10
179.5002136230469
 20
13.58954334259033
 11
179.2003479003906
 21
13.88940906524658
  0
LINE
  8
0
  6
CONTINUOUS
 62
     7
 10
179.4998168945313
 20
13.58999633789063
 11
179.4998168945313
 21
9.189987182617188
  0
LINE
  8
0
  6
CONTINUOUS
 62
     7
 10
179.4998168945313
 20
19.09999084472656
 11
179.4998168945313
 21
14.69999694824219
  0
LINE
  8
0
  6
CONTINUOUS
 62
     7
 10
179.1998291015625
 20
8.889999389648438
 11
176.8998718261719
 21
8.889999389648438
  0
LINE
  8
0
  6
CONTINUOUS
 62
     7
 10
179.1998291015625
 20
13.88999938964844
 11
176.8998718261719
 21
13.88999938964844
  0
LINE
  8
0
  6
CONTINUOUS
 62
     7
 10
179.1998138427734
 20
14.39999389648438
 11
177.3998260498047
 21
14.39999389648438
  0
LINE
  8
0
  6
CONTINUOUS
 62
     7
 10
179.1998291015625
 20
19.39999389648438
 11
177.3998260498047
 21
19.39999389648438
  0
LINE
  8
0
  6
CENTER
 62
     7
 10
180.2541046142578
 20
11.38999938964844
 11
174.8998260498047
 21
11.38999938964844
  0
LINE
  8
0
  6
CENTER
 62
     7
 10
181.0048828125
 20
16.89999389648438
 11
174.8998260498047
 21
16.89999389648438
  0
LINE
  8
0
  6
CONTINUOUS
 62
     7
 10
177.3998260498047
 20
20.34999084472656
 11
177.3998260498047
 21
13.88999938964844
  0
LINE
  8
0
  6
CONTINUOUS
 62
     7
 10
177.3998260498047
 20
20.34999084472656
 11
169.9998168945313
 21
20.34999084472656
  0
LINE
  8
0
  6
CONTINUOUS
 62
     7
 10
178.5998229980469
 20
8.889999389648438
 11
178.5998229980469
 21
4.30999755859375
  0
LINE
  8
0
  6
CONTINUOUS
 62
     7
 10
176.0998229980469
 20
20.34999084472656
 11
176.0998229980469
 21
4.30999755859375
  0
LINE
  8
0
  6
CONTINUOUS
 62
     7
 10
60
 20
0
 11
240
 21
0
  0
LINE
  8
0
  6
CONTINUOUS
 62
     7
 10
60
 20
11
 11
120.5001907348633
 21
11
  0
LINE
  8
0
  6
CONTINUOUS
 62
     7
 10
60
 20
11
 11
60
 21
0
  0
LINE
  8
0
  6
CENTER
 62
     7
 10
75
 20
12
 11
75
 21
-1
  0
LINE
  8
0
  6
DASHED
 62
     7
 10
78.75
 20
11
 11
78.75
 21
5.699999809265137
  0
LINE
  8
0
  6
DASHED
 62
     7
 10
71.25
 20
11
 11
71.25
 21
5.699999809265137
  0
LINE
  8
0
  6
DASHED
 62
     7
 10
72.75
 20
5.699999809265137
 11
72.75
 21
0
  0
LINE
  8
0
  6
DASHED
 62
     7
 10
77.25
 20
5.699999809265137
 11
77.25
 21
0
  0
LINE
  8
0
  6
CENTER
 62
     7
 10
125
 20
5.30999755859375
 11
125
 21
-1
  0
LINE
  8
0
  6
CONTINUOUS
 62
     7
 10
59.90000152587891
 20
4.139986515045166
 11
137.0809936523438
 21
4.139986515045166
  0
LINE
  8
0
  6
CONTINUOUS
 62
     7
 10
60
 20
2.812053203582764
 11
240
 21
2.812053203582764
  0
LINE
  8
0
  6
CONTINUOUS
 62
     7
 10
60
 20
6.319368362426758
 11
121.4001846313477
 21
6.319368362426758
  0
LINE
  8
0
  6
CONTINUOUS
 62
     7
 10
60
 20
9.385069847106934
 11
120.5001907348633
 21
9.385069847106934
  0
LINE
  8
0
  6
CONTINUOUS
 62
     7
 10
60
 20
8.619417190551758
 11
121.4001846313477
 21
8.619417190551758
  0
LINE
  8
0
  6
CONTINUOUS
 62
     7
 10
139.9201965332031
 20
4.139986515045166
 11
240.1000061035156
 21
4.139986515045166
  0
LINE
  8
0
  6
CONTINUOUS
 62
     7
 10
240
 20
11
 11
240
 21
0
  0
LINE
  8
0
  6
CONTINUOUS
 62
     7
 10
240
 20
8.619417190551758
 11
178.6000061035156
 21
8.619417190551758
  0
LINE
  8
0
  6
CONTINUOUS
 62
     7
 10
240
 20
9.385069847106934
 11
179.5001525878906
 21
9.385069847106934
  0
LINE
  8
0
  6
CONTINUOUS
 62
     7
 10
240
 20
6.319368362426758
 11
178.6000061035156
 21
6.319368362426758
  0
LINE
  8
0
  6
CENTER
 62
     7
 10
175
 20
5.30999755859375
 11
175
 21
-1
  0
LINE
  8
0
  6
CENTER
 62
     7
 10
225
 20
12
 11
225
 21
-1
  0
LINE
  8
0
  6
DASHED
 62
     7
 10
71.25
 20
5.699999809265137
 11
78.75
 21
5.699999809265137
  0
LINE
  8
0
  6
CONTINUOUS
 62
     7
 10
122.60009765625
 20
71.36000061035156
 11
130
 21
71.36000061035156
  0
LINE
  8
0
  6
CONTINUOUS
 62
     7
 10
60
 20
79.5
 11
121.4000015258789
 21
79.5
  0
LINE
  8
0
  6
CONTINUOUS
 62
     7
 10
60
 20
92.49894714355469
 11
112.6164245605469
 21
92.49894714355469
  0
LINE
  8
0
  6
CONTINUOUS
 62
     7
 10
60
 20
81.11492919921875
 11
121.4000015258789
 21
81.11492919921875
  0
LINE
  8
0
  6
CONTINUOUS
 62
     7
 10
120.800048828125
 20
82.61499786376953
 11
123.10009765625
 21
82.61499786376953
  0
LINE
  8
0
  6
CONTINUOUS
 62
     7
 10
120.5
 20
87.31499481201172
 11
120.5
 21
82.91500091552734
  0
LINE
  8
0
  6
CONTINUOUS
 62
     7
 10
120.5008239746094
 20
82.91434478759766
 11
120.8008651733398
 21
82.61431121826172
  0
LINE
  8
0
  6
CONTINUOUS
 62
     7
 10
120.5009613037109
 20
87.31415557861328
 11
120.8009567260742
 21
87.61416625976563
  0
LINE
  8
0
  6
CONTINUOUS
 62
     7
 10
120.800048828125
 20
87.61499786376953
 11
123.10009765625
 21
87.61499786376953
  0
LINE
  8
0
  6
CENTER
 62
     7
 10
119.5
 20
85.11499786376953
 11
123.60009765625
 21
85.11499786376953
  0
LINE
  8
0
  6
CONTINUOUS
 62
     7
 10
120.800048828125
 20
71.96499633789063
 11
122.60009765625
 21
71.96499633789063
  0
LINE
  8
0
  6
CONTINUOUS
 62
     7
 10
120.5
 20
76.66499328613281
 11
120.5
 21
72.26499938964844
  0
LINE
  8
0
  6
CONTINUOUS
 62
     7
 10
120.5008163452148
 20
72.26433563232422
 11
120.8008575439453
 21
71.96430206298828
  0
LINE
  8
0
  6
CONTINUOUS
 62
     7
 10
120.5009460449219
 20
76.66414642333984
 11
120.8009490966797
 21
76.96415710449219
  0
LINE
  8
0
  6
CONTINUOUS
 62
     7
 10
120.800048828125
 20
76.96499633789063
 11
122.60009765625
 21
76.96499633789063
  0
LINE
  8
0
  6
CENTER
 62
     7
 10
119.5
 20
74.46499633789063
 11
123.60009765625
 21
74.46499633789063
  0
LINE
  8
0
  6
CONTINUOUS
 62
     7
 10
121.400146484375
 20
82.61499786376953
 11
121.400146484375
 21
79.19999694824219
  0
LINE
  8
0
  6
CONTINUOUS
 62
     7
 10
122.60009765625
 20
82.61499786376953
 11
122.60009765625
 21
71.36000061035156
  0
LINE
  8
0
  6
CENTER
 62
     7
 10
75
 20
91.75
 11
75
 21
82.25
  0
LINE
  8
0
  6
CENTER
 62
     7
 10
70.25
 20
87
 11
79.75
 21
87
  0
LINE
  8
0
  6
CONTINUOUS
 62
     7
 10
121.4001388549805
 20
79.19999694824219
 11
122.6000900268555
 21
78.00004577636719
  0
LINE
  8
0
  6
CONTINUOUS
 62
     7
 10
122.60009765625
 20
87.61499786376953
 11
122.60009765625
 21
93.3800048828125
  0
LINE
  8
0
  6
CONTINUOUS
 62
     7
 10
123.10009765625
 20
71.36000061035156
 11
123.10009765625
 21
124.6399993896484
  0
LINE
  8
0
  6
CONTINUOUS
 62
     7
 10
121.400146484375
 20
87.61499786376953
 11
121.400146484375
 21
93.57994079589844
  0
LINE
  8
0
  6
CONTINUOUS
 62
     7
 10
130
 20
71
 11
130
 21
125
  0
LINE
  8
0
  6
CONTINUOUS
 62
     7
 10
123.900146484375
 20
71.36000061035156
 11
123.900146484375
 21
124.6399993896484
  0
LINE
  8
0
  6
CONTINUOUS
 62
     7
 10
122.60009765625
 20
124.6399993896484
 11
130
 21
124.6399993896484
  0
LINE
  8
0
  6
CONTINUOUS
 62
     7
 10
60
 20
114.8850708007813
 11
121.4000015258789
 21
114.8850708007813
  0
LINE
  8
0
  6
CONTINUOUS
 62
     7
 10
60
 20
103.5010528564453
 11
121.4000015258789
 21
103.5010528564453
  0
LINE
  8
0
  6
CONTINUOUS
 62
     7
 10
60
 20
116.5
 11
121.4000015258789
 21
116.5
  0
LINE
  8
0
  6
CONTINUOUS
 62
     7
 10
121.400146484375
 20
113.3850021362305
 11
121.400146484375
 21
116.8000030517578
  0
LINE
  8
0
  6
CONTINUOUS
 62
     7
 10
120.800048828125
 20
113.3850021362305
 11
123.10009765625
 21
113.3850021362305
  0
LINE
  8
0
  6
CONTINUOUS
 62
     7
 10
120.5
 20
108.6850051879883
 11
120.5
 21
113.0849990844727
  0
LINE
  8
0
  6
CONTINUOUS
 62
     7
 10
120.5008087158203
 20
113.0856552124023
 11
120.8008499145508
 21
113.3856887817383
  0
LINE
  8
0
  6
CONTINUOUS
 62
     7
 10
120.5009460449219
 20
108.6858444213867
 11
120.8009490966797
 21
108.3858337402344
  0
LINE
  8
0
  6
CONTINUOUS
 62
     7
 10
120.800048828125
 20
108.3850021362305
 11
123.10009765625
 21
108.3850021362305
  0
LINE
  8
0
  6
CENTER
 62
     7
 10
119.5
 20
110.8850021362305
 11
123.60009765625
 21
110.8850021362305
  0
LINE
  8
0
  6
CONTINUOUS
 62
     7
 10
120.800048828125
 20
124.0350036621094
 11
122.60009765625
 21
124.0350036621094
  0
LINE
  8
0
  6
CONTINUOUS
 62
     7
 10
120.5
 20
119.3350067138672
 11
120.5
 21
123.7350006103516
  0
LINE
  8
0
  6
CONTINUOUS
 62
     7
 10
120.5008087158203
 20
123.7356567382813
 11
120.8008499145508
 21
124.0356903076172
  0
LINE
  8
0
  6
CONTINUOUS
 62
     7
 10
120.5009460449219
 20
119.3358383178711
 11
120.8009490966797
 21
119.0358352661133
  0
LINE
  8
0
  6
CONTINUOUS
 62
     7
 10
120.800048828125
 20
119.0350036621094
 11
122.60009765625
 21
119.0350036621094
  0
LINE
  8
0
  6
CENTER
 62
     7
 10
119.5
 20
121.5350036621094
 11
123.60009765625
 21
121.5350036621094
  0
LINE
  8
0
  6
CONTINUOUS
 62
     7
 10
60
 20
79.5
 11
60
 21
116.5
  0
LINE
  8
0
  6
CONTINUOUS
 62
     7
 10
122.60009765625
 20
113.3850021362305
 11
122.60009765625
 21
124.6399993896484
  0
LINE
  8
0
  6
CENTER
 62
     7
 10
75
 20
104.25
 11
75
 21
113.75
  0
LINE
  8
0
  6
CENTER
 62
     7
 10
70.25
 20
109
 11
79.75
 21
109
  0
LINE
  8
0
  6
CONTINUOUS
 62
     7
 10
121.400146484375
 20
116.7999954223633
 11
122.60009765625
 21
117.9999542236328
  0
LINE
  8
0
  6
CENTER
 62
     7
 10
125.0001449584961
 20
91.75
 11
125.0001449584961
 21
82.25
  0
LINE
  8
0
  6
CENTER
 62
     7
 10
120.2501449584961
 20
87
 11
129.7501525878906
 21
87
  0
LINE
  8
0
  6
CENTER
 62
     7
 10
125.0001449584961
 20
104.25
 11
125.0001449584961
 21
113.75
  0
LINE
  8
0
  6
CENTER
 62
     7
 10
120.2501449584961
 20
109
 11
129.7501525878906
 21
109
  0
LINE
  8
0
  6
CENTER
 62
     7
 10
179.75
 20
87
 11
170.25
 21
87
  0
LINE
  8
0
  6
CONTINUOUS
 62
     7
 10
170
 20
71
 11
130
 21
71
  0
LINE
  8
0
  6
CENTER
 62
     7
 10
241
 20
98
 11
59
 21
98
  0
LINE
  8
0
  6
CONTINUOUS
 62
     7
 10
177.39990234375
 20
71.36000061035156
 11
170
 21
71.36000061035156
  0
LINE
  8
0
  6
CONTINUOUS
 62
     7
 10
240
 20
81.11492919921875
 11
178.599853515625
 21
81.11492919921875
  0
LINE
  8
0
  6
CONTINUOUS
 62
     7
 10
240
 20
92.49894714355469
 11
178.599853515625
 21
92.49894714355469
  0
LINE
  8
0
  6
CONTINUOUS
 62
     7
 10
240
 20
79.5
 11
178.599853515625
 21
79.5
  0
LINE
  8
0
  6
CONTINUOUS
 62
     7
 10
178.599853515625
 20
82.61499786376953
 11
178.599853515625
 21
79.19999694824219
  0
LINE
  8
0
  6
CONTINUOUS
 62
     7
 10
179.199951171875
 20
82.61499786376953
 11
176.89990234375
 21
82.61499786376953
  0
LINE
  8
0
  6
CONTINUOUS
 62
     7
 10
179.5
 20
87.31499481201172
 11
179.5
 21
82.91500091552734
  0
LINE
  8
0
  6
CONTINUOUS
 62
     7
 10
179.4991912841797
 20
82.91433715820313
 11
179.1991424560547
 21
82.61430358886719
  0
LINE
  8
0
  6
CONTINUOUS
 62
     7
 10
179.4990539550781
 20
87.31414794921875
 11
179.1990509033203
 21
87.61415863037109
  0
LINE
  8
0
  6
CONTINUOUS
 62
     7
 10
179.199951171875
 20
87.61499786376953
 11
176.89990234375
 21
87.61499786376953
  0
LINE
  8
0
  6
CENTER
 62
     7
 10
180.5
 20
85.11499786376953
 11
176.39990234375
 21
85.11499786376953
  0
LINE
  8
0
  6
CONTINUOUS
 62
     7
 10
179.199951171875
 20
71.96499633789063
 11
177.39990234375
 21
71.96499633789063
  0
LINE
  8
0
  6
CONTINUOUS
 62
     7
 10
179.5
 20
76.66499328613281
 11
179.5
 21
72.26499938964844
  0
LINE
  8
0
  6
CONTINUOUS
 62
     7
 10
179.4991760253906
 20
72.26433563232422
 11
179.1991424560547
 21
71.96430206298828
  0
LINE
  8
0
  6
CONTINUOUS
 62
     7
 10
179.4990539550781
 20
76.66415405273438
 11
179.1990509033203
 21
76.96415710449219
  0
LINE
  8
0
  6
CONTINUOUS
 62
     7
 10
179.199951171875
 20
76.96499633789063
 11
177.39990234375
 21
76.96499633789063
  0
LINE
  8
0
  6
CENTER
 62
     7
 10
180.5
 20
74.46499633789063
 11
176.39990234375
 21
74.46499633789063
  0
LINE
  8
0
  6
CONTINUOUS
 62
     7
 10
177.39990234375
 20
82.61499786376953
 11
177.39990234375
 21
71.36000061035156
  0
LINE
  8
0
  6
CONTINUOUS
 62
     7
 10
177.39990234375
 20
87.61499786376953
 11
177.39990234375
 21
108.3850021362305
  0
LINE
  8
0
  6
CONTINUOUS
 62
     7
 10
176.89990234375
 20
71.36000061035156
 11
176.89990234375
 21
124.6399993896484
  0
LINE
  8
0
  6
CONTINUOUS
 62
     7
 10
178.5998382568359
 20
79.19999694824219
 11
177.39990234375
 21
78.00005340576172
  0
LINE
  8
0
  6
CONTINUOUS
 62
     7
 10
178.599853515625
 20
87.61499786376953
 11
178.599853515625
 21
108.3850021362305
  0
LINE
  8
0
  6
CONTINUOUS
 62
     7
 10
170
 20
71
 11
170
 21
125
  0
LINE
  8
0
  6
CONTINUOUS
 62
     7
 10
176.099853515625
 20
71.36000061035156
 11
176.099853515625
 21
124.6399993896484
  0
LINE
  8
0
  6
CENTER
 62
     7
 10
175
 20
91.75
 11
175
 21
82.25
  0
LINE
  8
0
  6
CENTER
 62
     7
 10
179.75
 20
109
 11
170.25
 21
109
  0
LINE
  8
0
  6
CONTINUOUS
 62
     7
 10
177.39990234375
 20
124.6399993896484
 11
170
 21
124.6399993896484
  0
LINE
  8
0
  6
CONTINUOUS
 62
     7
 10
240
 20
114.8850708007813
 11
178.599853515625
 21
114.8850708007813
  0
LINE
  8
0
  6
CONTINUOUS
 62
     7
 10
240
 20
103.5010528564453
 11
178.599853515625
 21
103.5010528564453
  0
LINE
  8
0
  6
CONTINUOUS
 62
     7
 10
240
 20
116.5
 11
178.599853515625
 21
116.5
  0
LINE
  8
0
  6
CONTINUOUS
 62
     7
 10
178.599853515625
 20
113.3850021362305
 11
178.599853515625
 21
116.8000030517578
  0
LINE
  8
0
  6
CONTINUOUS
 62
     7
 10
179.199951171875
 20
113.3850021362305
 11
176.89990234375
 21
113.3850021362305
  0
LINE
  8
0
  6
CONTINUOUS
 62
     7
 10
179.5
 20
108.6850051879883
 11
179.5
 21
113.0849990844727
  0
LINE
  8
0
  6
CONTINUOUS
 62
     7
 10
179.4991760253906
 20
113.0856552124023
 11
179.1991424560547
 21
113.3856887817383
  0
LINE
  8
0
  6
CONTINUOUS
 62
     7
 10
179.4990386962891
 20
108.6858367919922
 11
179.1990356445313
 21
108.3858337402344
  0
LINE
  8
0
  6
CONTINUOUS
 62
     7
 10
179.199951171875
 20
108.3850021362305
 11
176.89990234375
 21
108.3850021362305
  0
LINE
  8
0
  6
CENTER
 62
     7
 10
180.5
 20
110.8850021362305
 11
176.39990234375
 21
110.8850021362305
  0
LINE
  8
0
  6
CONTINUOUS
 62
     7
 10
179.199951171875
 20
124.0350036621094
 11
177.39990234375
 21
124.0350036621094
  0
LINE
  8
0
  6
CONTINUOUS
 62
     7
 10
179.5
 20
119.3350067138672
 11
179.5
 21
123.7350006103516
  0
LINE
  8
0
  6
CONTINUOUS
 62
     7
 10
179.4991912841797
 20
123.7356567382813
 11
179.1991424560547
 21
124.0356979370117
  0
LINE
  8
0
  6
CONTINUOUS
 62
     7
 10
179.4990539550781
 20
119.3358459472656
 11
179.1990509033203
 21
119.0358428955078
  0
LINE
  8
0
  6
CONTINUOUS
 62
     7
 10
179.199951171875
 20
119.0350036621094
 11
177.39990234375
 21
119.0350036621094
  0
LINE
  8
0
  6
CENTER
 62
     7
 10
180.5
 20
121.5350036621094
 11
176.39990234375
 21
121.5350036621094
  0
LINE
  8
0
  6
CONTINUOUS
 62
     7
 10
240
 20
79.5
 11
240
 21
116.5
  0
LINE
  8
0
  6
CONTINUOUS
 62
     7
 10
177.39990234375
 20
113.3850021362305
 11
177.39990234375
 21
124.6399993896484
  0
LINE
  8
0
  6
CENTER
 62
     7
 10
225
 20
104.25
 11
225
 21
113.75
  0
LINE
  8
0
  6
CENTER
 62
     7
 10
229.75
 20
109
 11
220.25
 21
109
  0
LINE
  8
0
  6
CENTER
 62
     7
 10
175
 20
104.25
 11
175
 21
113.75
  0
LINE
  8
0
  6
CONTINUOUS
 62
     7
 10
178.599853515625
 20
116.7999877929688
 11
177.39990234375
 21
117.9999389648438
  0
LINE
  8
0
  6
CENTER
 62
     7
 10
225
 20
91.75
 11
225
 21
82.25
  0
LINE
  8
0
  6
CENTER
 62
     7
 10
229.75
 20
87
 11
220.25
 21
87
  0
LINE
  8
0
  6
CENTER
 62
     7
 10
109.4001846313477
 20
16.49995422363281
 11
125.3287734985352
 21
16.49995422363281
  0
LINE
  8
0
  6
CONTINUOUS
 62
     7
 10
117.6001815795898
 20
20.49995231628418
 11
120.6001815795898
 21
20.49995231628418
  0
LINE
  8
0
  6
CONTINUOUS
 62
     7
 10
118.7001724243164
 20
12.99995517730713
 11
113.5001754760742
 21
12.99995517730713
  0
LINE
  8
0
  6
CONTINUOUS
 62
     7
 10
118.7001724243164
 20
12.95994663238525
 11
118.7001724243164
 21
12.99995517730713
  0
LINE
  8
0
  6
CONTINUOUS
 62
     7
 10
120.2002105712891
 20
16.49996757507324
 11
118.7002029418945
 21
12.99996566772461
  0
LINE
  8
0
  6
CONTINUOUS
 62
     7
 10
119.3002243041992
 20
16.49996757507324
 11
117.7002258300781
 21
12.99997615814209
  0
LINE
  8
0
  6
CONTINUOUS
 62
     7
 10
113.5001678466797
 20
12.99994468688965
 11
113.1001663208008
 21
13.57996273040772
  0
LINE
  8
0
  6
CONTINUOUS
 62
     7
 10
113.5001602172852
 20
19.99991035461426
 11
113.1001586914063
 21
19.41990280151367
  0
LINE
  8
0
  6
CONTINUOUS
 62
     7
 10
118.7001724243164
 20
19.99995231628418
 11
113.5001754760742
 21
19.99995231628418
  0
LINE
  8
0
  6
CONTINUOUS
 62
     7
 10
119.3002166748047
 20
16.4999885559082
 11
117.7002105712891
 21
19.99999046325684
  0
LINE
  8
0
  6
CONTINUOUS
 62
     7
 10
120.2001724243164
 20
16.49995994567871
 11
118.7001724243164
 21
19.99996185302734
  0
LINE
  8
0
  6
CONTINUOUS
 62
     7
 10
117.6001815795898
 20
12.49995517730713
 11
120.5000839233398
 21
12.49995517730713
  0
LINE
  8
0
  6
CONTINUOUS
 62
     7
 10
117.8002014160156
 20
102
 11
121.1001129150391
 21
102
  0
LINE
  8
0
  6
CONTINUOUS
 62
     7
 10
119.4202270507813
 20
94
 11
121.1001129150391
 21
94
  0
LINE
  8
0
  6
CONTINUOUS
 62
     7
 10
113.8002014160156
 20
98
 11
113.8002014160156
 21
96.327880859375
  0
LINE
  8
0
  6
CENTER
 62
     7
 10
113.3519668579102
 20
86.47788238525391
 11
118.2172698974609
 21
98.22376251220703
  0
LINE
  8
0
  6
CONTINUOUS
 62
     7
 10
111.582893371582
 20
88.47843933105469
 11
116.0175170898438
 21
86.64156341552734
  0
LINE
  8
0
  6
CONTINUOUS
 62
     7
 10
111.7846527099609
 20
91.31734466552734
 11
117.8822479248047
 21
88.79163360595703
  0
LINE
  8
0
  6
CONTINUOUS
 62
     7
 10
111.582878112793
 20
88.47843933105469
 11
111.7846450805664
 21
91.31733703613281
  0
LINE
  8
0
  6
CONTINUOUS
 62
     7
 10
116.0175170898438
 20
86.64155578613281
 11
117.8822631835938
 21
88.79163360595703
  0
LINE
  8
0
  6
CONTINUOUS
 62
     7
 10
112.5233688354492
 20
95.03818511962891
 11
112.9380416870117
 21
96.03926086425781
  0
LINE
  8
0
  6
CONTINUOUS
 62
     7
 10
119.9909591674805
 20
91.94502258300781
 11
120.4056167602539
 21
92.94608306884766
  0
LINE
  8
0
  6
CONTINUOUS
 62
     7
 10
113.7174682617188
 20
96.36209106445313
 11
112.9380264282227
 21
96.03923797607422
  0
LINE
  8
0
  6
CONTINUOUS
 62
     7
 10
114.1606521606445
 20
93.71059417724609
 11
115.0332260131836
 21
95.81716156005859
  0
LINE
  8
0
  6
CONTINUOUS
 62
     7
 10
117.8944320678711
 20
92.16401672363281
 11
118.7670059204102
 21
94.27058410644531
  0
LINE
  8
0
  6
CONTINUOUS
 62
     7
 10
113.7174835205078
 20
96.36215209960938
 11
120.0827865600586
 21
93.72555541992188
  0
LINE
  8
0
  6
CONTINUOUS
 62
     7
 10
120.4056167602539
 20
92.94606018066406
 11
120.0827560424805
 21
93.72550964355469
  0
LINE
  8
0
  6
CONTINUOUS
 62
     7
 10
112.9149322509766
 20
92.73949432373047
 11
118.0886383056641
 21
90.59645843505859
  0
LINE
  8
0
  6
CONTINUOUS
 62
     7
 10
120.6001968383789
 20
13.68820095062256
 11
120.6001968383789
 21
14.6000394821167
  0
LINE
  8
0
  6
CONTINUOUS
 62
     7
 10
120.6001815795898
 20
20.49995422363281
 11
122.6001815795898
 21
20.49995422363281
  0
LINE
  8
0
  6
CONTINUOUS
 62
     7
 10
121.10009765625
 20
93.8800048828125
 11
121.10009765625
 21
102.1199798583984
  0
LINE
  8
0
  6
CONTINUOUS
 62
     7
 10
123.10009765625
 20
102.6199951171875
 11
121.60009765625
 21
102.6199951171875
  0
LINE
  8
0
  6
CONTINUOUS
 62
     7
 10
123.10009765625
 20
100.3099975585938
 11
121.10009765625
 21
100.3099975585938
  0
LINE
  8
0
  6
CONTINUOUS
 62
     7
 10
123.10009765625
 20
93.3800048828125
 11
121.60009765625
 21
93.3800048828125
  0
LINE
  8
0
  6
CONTINUOUS
 62
     7
 10
123.10009765625
 20
95.69000244140625
 11
121.10009765625
 21
95.69000244140625
  0
LINE
  8
0
  6
CONTINUOUS
 62
     7
 10
121.6000823974609
 20
93.37999725341797
 11
121.1000823974609
 21
93.87999725341797
  0
LINE
  8
0
  6
CONTINUOUS
 62
     7
 10
121.1000900268555
 20
102.1199722290039
 11
121.6000823974609
 21
102.6199645996094
  0
LINE
  8
0
  6
CONTINUOUS
 62
     7
 10
112.7531509399414
 20
94.29358673095703
 11
119.3019485473633
 21
91.58099365234375
  0
LINE
  8
0
  6
CONTINUOUS
 62
     7
 10
120.6001968383789
 20
19.19830894470215
 11
120.6001968383789
 21
20.49993896484375
  0
LINE
  8
0
  6
CONTINUOUS
 62
     7
 10
122.60009765625
 20
102.6199951171875
 11
122.60009765625
 21
108.3850021362305
  0
LINE
  8
0
  6
CONTINUOUS
 62
     7
 10
121.400146484375
 20
102.4200286865234
 11
121.400146484375
 21
108.3850021362305
  0
LINE
  8
0
  6
CONTINUOUS
 62
     7
 10
120.2203979492188
 20
92.49894714355469
 11
121.400146484375
 21
92.49894714355469
  0
LINE
  8
0
  6
CONTINUOUS
 62
     7
 10
123.9001846313477
 20
20.34999084472656
 11
123.9001846313477
 21
4.30999755859375
  0
LINE
  8
0
  6
CONTINUOUS
 62
     7
 10
121.4001846313477
 20
8.889999389648438
 11
121.4001846313477
 21
4.30999755859375
  0
LINE
  8
0
  6
CONTINUOUS
 62
     7
 10
122.6001815795898
 20
20.34999084472656
 11
130.0001831054688
 21
20.34999084472656
  0
LINE
  8
0
  6
CONTINUOUS
 62
     7
 10
122.6001815795898
 20
20.49995422363281
 11
122.6001815795898
 21
13.88999938964844
  0
LINE
  8
0
  6
CENTER
 62
     7
 10
118.9951248168945
 20
16.89999389648438
 11
125.1001815795898
 21
16.89999389648438
  0
LINE
  8
0
  6
CENTER
 62
     7
 10
119.7459030151367
 20
11.38999938964844
 11
125.1001815795898
 21
11.38999938964844
  0
LINE
  8
0
  6
CONTINUOUS
 62
     7
 10
120.800178527832
 20
19.39999389648438
 11
122.6001815795898
 21
19.39999389648438
  0
LINE
  8
0
  6
CONTINUOUS
 62
     7
 10
120.8001937866211
 20
14.39999389648438
 11
122.6001815795898
 21
14.39999389648438
  0
LINE
  8
0
  6
CONTINUOUS
 62
     7
 10
120.800178527832
 20
13.88999938964844
 11
123.1001358032227
 21
13.88999938964844
  0
LINE
  8
0
  6
CONTINUOUS
 62
     7
 10
120.800178527832
 20
8.889999389648438
 11
123.1001358032227
 21
8.889999389648438
  0
LINE
  8
0
  6
CONTINUOUS
 62
     7
 10
120.5001907348633
 20
19.09999084472656
 11
120.5001907348633
 21
14.69999694824219
  0
LINE
  8
0
  6
CONTINUOUS
 62
     7
 10
120.5001907348633
 20
13.58999633789063
 11
120.5001907348633
 21
9.189987182617188
  0
LINE
  8
0
  6
CONTINUOUS
 62
     7
 10
120.4998016357422
 20
13.58954238891602
 11
120.7996597290039
 21
13.88940906524658
  0
LINE
  8
0
  6
CONTINUOUS
 62
     7
 10
120.4995346069336
 20
9.189352989196777
 11
120.7995376586914
 21
8.889345169067383
  0
LINE
  8
0
  6
CONTINUOUS
 62
     7
 10
120.499641418457
 20
14.6994104385376
 11
120.7996520996094
 21
14.39940929412842
  0
LINE
  8
0
  6
CONTINUOUS
 62
     7
 10
120.4996490478516
 20
19.09941101074219
 11
120.7996826171875
 21
19.39944839477539
  0
LINE
  8
0
  6
CONTINUOUS
 62
     7
 10
130.0001831054688
 20
4.30999755859375
 11
121.4001846313477
 21
4.30999755859375
  0
LINE
  8
0
  6
CONTINUOUS
 62
     7
 10
123.1001358032227
 20
20.34999084472656
 11
123.1001358032227
 21
4.30999755859375
  0
LINE
  8
0
  6
CONTINUOUS
 62
     7
 10
122.6001815795898
 20
8.889999389648438
 11
122.6001815795898
 21
4.30999755859375
  0
LINE
  8
0
  6
CENTER
 62
     7
 10
0
 20
23.61141967773438
 11
0
 21
-2.697891235351563
  0
LINE
  8
0
  6
CONTINUOUS
 62
     7
 10
5.5
 20
0
 11
18
 21
0
  0
LINE
  8
0
  6
CONTINUOUS
 62
     7
 10
5.5
 20
11
 11
16.885009765625
 21
11
  0
LINE
  8
0
  6
CONTINUOUS
 62
     7
 10
18.5
 20
9.384994506835938
 11
18.5
 21
8.620010375976563
  0
LINE
  8
0
  6
CONTINUOUS
 62
     7
 10
16.20001220703125
 20
6.32000732421875
 11
16.20001220703125
 21
4.139999389648438
  0
LINE
  8
0
  6
CONTINUOUS
 62
     7
 10
16.19998931884766
 20
6.320001602172852
 11
17.15639877319336
 21
7.276412487030029
  0
LINE
  8
0
  6
CONTINUOUS
 62
     7
 10
16.19999313354492
 20
4.140002727508545
 11
18.50000381469727
 21
2.812091588973999
  0
LINE
  8
0
  6
CONTINUOUS
 62
     7
 10
16.8850040435791
 20
10.99999332427979
 11
17.15584373474121
 21
10.72915363311768
  0
LINE
  8
0
  6
CONTINUOUS
 62
     7
 10
18.21707153320313
 20
8.33708381652832
 11
18.49998474121094
 21
8.619997024536133
  0
LINE
  8
0
  6
CONTINUOUS
 62
     7
 10
18.22265434265137
 20
9.66234302520752
 11
18.49999046325684
 21
9.385007858276367
  0
LINE
  8
0
  6
CONTINUOUS
 62
     7
 10
18.5
 20
2.812103271484375
 11
18.5
 21
0.5
  0
LINE
  8
0
  6
CONTINUOUS
 62
     7
 10
18.49999237060547
 20
0.5000059604644775
 11
17.99999237060547
 21
5.394796517066425E-006
  0
LINE
  8
0
  6
CONTINUOUS
 62
     7
 10
-4.999969482421875
 20
0.5
 11
5
 21
0.5
  0
LINE
  8
0
  6
CONTINUOUS
 62
     7
 10
-5
 20
10.5
 11
5
 21
10.5
  0
LINE
  8
0
  6
CONTINUOUS
 62
     7
 10
4.999991893768311
 20
10.50000953674316
 11
5.499992370605469
 21
11.00000953674316
  0
LINE
  8
0
  6
CONTINUOUS
 62
     7
 10
5.000007629394531
 20
0.499992311000824
 11
5.499997615814209
 21
2.592031023596064E-006
  0
LINE
  8
0
  6
CENTER
 62
     7
 10
11
 20
13.12748718261719
 11
11
 21
-2.340484619140625
  0
LINE
  8
0
  6
CONTINUOUS
 62
     7
 10
-8.399993896484375
 20
20.5
 11
-2.30938720703125
 21
20.5
  0
LINE
  8
0
  6
CONTINUOUS
 62
     7
 10
9
 20
21
 11
26.60000610351563
 21
21
  0
LINE
  8
0
  6
CONTINUOUS
 62
     7
 10
-5.5
 20
0
 11
-18
 21
0
  0
LINE
  8
0
  6
CONTINUOUS
 62
     7
 10
-5.5
 20
11
 11
-16.885009765625
 21
11
  0
LINE
  8
0
  6
CONTINUOUS
 62
     7
 10
-18.5
 20
9.384994506835938
 11
-18.5
 21
8.620010375976563
  0
LINE
  8
0
  6
CONTINUOUS
 62
     7
 10
-16.20001220703125
 20
6.32000732421875
 11
-16.20001220703125
 21
4.139999389648438
  0
LINE
  8
0
  6
CONTINUOUS
 62
     7
 10
-16.19999694824219
 20
6.319987773895264
 11
-17.15640830993652
 21
7.276398658752441
  0
LINE
  8
0
  6
CONTINUOUS
 62
     7
 10
-16.19997406005859
 20
4.140003681182861
 11
-18.5
 21
2.812088012695313
  0
LINE
  8
0
  6
CONTINUOUS
 62
     7
 10
-16.88499641418457
 20
10.99999046325684
 11
-17.15585517883301
 21
10.72914695739746
  0
LINE
  8
0
  6
CONTINUOUS
 62
     7
 10
-18.21709060668945
 20
8.337070465087891
 11
-18.49999046325684
 21
8.619976997375488
  0
LINE
  8
0
  6
CONTINUOUS
 62
     7
 10
-18.22263526916504
 20
9.662322998046875
 11
-18.49999237060547
 21
9.384965896606445
  0
LINE
  8
0
  6
CONTINUOUS
 62
     7
 10
-18.5
 20
2.812103271484375
 11
-18.5
 21
0.5
  0
LINE
  8
0
  6
CONTINUOUS
 62
     7
 10
-18.49999237060547
 20
0.4999951422214508
 11
-18.00000381469727
 21
5.394796517066425E-006
  0
LINE
  8
0
  6
CONTINUOUS
 62
     7
 10
-4.999983787536621
 20
10.4999942779541
 11
-5.499999046325684
 21
11.00000190734863
  0
LINE
  8
0
  6
CONTINUOUS
 62
     7
 10
-4.99998950958252
 20
0.4999737441539764
 11
-5.499979496002197
 21
-1.601580333954189E-005
  0
LINE
  8
0
  6
CENTER
 62
     7
 10
-11
 20
13.12748718261719
 11
-11
 21
-2.340484619140625
  0
LINE
  8
0
  6
DASHED
 62
     7
 10
-7.25
 20
5.5
 11
-14.75
 21
5.5
  0
LINE
  8
0
  6
DASHED
 62
     7
 10
-7.25
 20
11
 11
-7.25
 21
5.5
  0
LINE
  8
0
  6
DASHED
 62
     7
 10
-14.75
 20
11
 11
-14.75
 21
5.5
  0
LINE
  8
0
  6
DASHED
 62
     7
 10
-13.25
 20
5.5
 11
-13.25
 21
0
  0
LINE
  8
0
  6
DASHED
 62
     7
 10
-8.75
 20
5.5
 11
-8.75
 21
0
  0
LINE
  8
0
  6
CONTINUOUS
 62
     7
 10
-8.899993896484375
 20
21
 11
-26.60000610351563
 21
21
  0
LINE
  8
0
  6
CONTINUOUS
 62
     7
 10
-17.08499145507813
 20
4.160003662109375
 11
-23.84500122070313
 21
4.160003662109375
  0
LINE
  8
0
  6
CONTINUOUS
 62
     7
 10
-23.84500122070313
 20
4.30999755859375
 11
-23.84500122070313
 21
4.160003662109375
  0
LINE
  8
0
  6
CONTINUOUS
 62
     7
 10
26.6400146484375
 20
18.85000610351563
 11
26.6400146484375
 21
5.80999755859375
  0
LINE
  8
0
  6
CONTINUOUS
 62
     7
 10
16.70001220703125
 20
4.30999755859375
 11
25.1400146484375
 21
4.30999755859375
  0
LINE
  8
0
  6
CONTINUOUS
 62
     7
 10
25.14000511169434
 20
4.309994697570801
 11
26.64000701904297
 21
5.809996128082275
  0
LINE
  8
0
  6
CONTINUOUS
 62
     7
 10
26.64000701904297
 20
18.84999656677246
 11
25.13999557495117
 21
20.35000991821289
  0
LINE
  8
0
  6
CONTINUOUS
 62
     7
 10
-26.6400146484375
 20
5.80999755859375
 11
-26.6400146484375
 21
18.85000610351563
  0
LINE
  8
0
  6
CONTINUOUS
 62
     7
 10
-25.1400146484375
 20
4.30999755859375
 11
-16.69998168945313
 21
4.30999755859375
  0
LINE
  8
0
  6
CONTINUOUS
 62
     7
 10
-26.63999748229981
 20
5.809996128082275
 11
-25.13998413085938
 21
4.309983730316162
  0
LINE
  8
0
  6
CONTINUOUS
 62
     7
 10
-25.13999557495117
 20
20.34999847412109
 11
-26.63999748229981
 21
18.84999656677246
  0
LINE
  8
0
  6
DASHED
 62
     7
 10
-18.0000057220459
 20
14.9999942779541
 11
-17.65000724792481
 21
14.39377880096436
  0
LINE
  8
0
  6
DASHED
 62
     7
 10
-13.35000324249268
 20
14.39378261566162
 11
-13.00000095367432
 21
15.00000381469727
  0
LINE
  8
0
  6
CONTINUOUS
 62
     7
 10
23.84500122070313
 20
4.160003662109375
 11
17.08499145507813
 21
4.160003662109375
  0
LINE
  8
0
  6
CONTINUOUS
 62
     7
 10
23.84500122070313
 20
4.160003662109375
 11
23.84500122070313
 21
4.30999755859375
  0
LINE
  8
0
  6
CENTER
 62
     7
 10
-6.3699951171875
 20
16.5
 11
13.30999755859375
 21
16.5
  0
LINE
  8
0
  6
CONTINUOUS
 62
     7
 10
2.39599609375
 20
20.35000610351563
 11
25.1400146484375
 21
20.35000610351563
  0
LINE
  8
0
  6
CONTINUOUS
 62
     7
 10
-4.588736534118652
 20
13.20000171661377
 11
-4.088725090026856
 21
12.69999027252197
  0
LINE
  8
0
  6
CONTINUOUS
 62
     7
 10
-17.79626083374023
 20
13.19999694824219
 11
-4.5887451171875
 21
13.19999694824219
  0
LINE
  8
0
  6
CONTINUOUS
 62
     7
 10
-20.70001029968262
 20
10.29624748229981
 11
-17.79626083374023
 21
13.19999599456787
  0
LINE
  8
0
  6
CONTINUOUS
 62
     7
 10
-20.70001220703125
 20
7.708732604980469
 11
-20.70001220703125
 21
10.29624176025391
  0
LINE
  8
0
  6
CONTINUOUS
 62
     7
 10
-20.69999313354492
 20
7.708724021911621
 11
-18.5562744140625
 21
5.565004348754883
  0
LINE
  8
0
  6
CONTINUOUS
 62
     7
 10
4.388729572296143
 20
13
 11
4.088726043701172
 21
12.69999694824219
  0
LINE
  8
0
  6
CONTINUOUS
 62
     7
 10
17.79623413085938
 20
13.19999694824219
 11
5.898297786712647
 21
13.19999694824219
  0
LINE
  8
0
  6
CONTINUOUS
 62
     7
 10
20.70000267028809
 20
10.29623222351074
 11
17.79624176025391
 21
13.19999217987061
  0
LINE
  8
0
  6
CONTINUOUS
 62
     7
 10
20.70001220703125
 20
7.708732604980469
 11
20.70001220703125
 21
10.29624176025391
  0
LINE
  8
0
  6
CONTINUOUS
 62
     7
 10
20.70000457763672
 20
7.708732128143311
 11
18.5562629699707
 21
5.564990520477295
  0
LINE
  8
0
  6
CONTINUOUS
 62
     7
 10
-4.0887451171875
 20
12.69999694824219
 11
-2.425455331802368
 21
12.69999694824219
  0
LINE
  8
0
  6
CONTINUOUS
 62
     7
 10
16.19998550415039
 20
4.810006141662598
 11
16.69999694824219
 21
4.309994697570801
  0
LINE
  8
0
  6
CONTINUOUS
 62
     7
 10
18.55624961853027
 20
5.56500768661499
 11
19.81125259399414
 21
4.31000566482544
  0
LINE
  8
0
  6
CONTINUOUS
 62
     7
 10
-18.55626678466797
 20
5.564991474151611
 11
-19.8112678527832
 21
4.309988498687744
  0
LINE
  8
0
  6
CONTINUOUS
 62
     7
 10
-16.19999694824219
 20
4.810006141662598
 11
-16.69999694824219
 21
4.31000566482544
  0
LINE
  8
0
  6
CONTINUOUS
 62
     7
 10
-8.900006294250488
 20
21.0000171661377
 11
-8.399994850158691
 21
20.5000057220459
  0
LINE
  8
0
  6
CONTINUOUS
 62
     7
 10
8.500003814697266
 20
20.5000057220459
 11
9.000004768371582
 21
21.0000057220459
  0
LINE
  8
0
  6
CONTINUOUS
 62
     7
 10
-26.70001220703125
 20
12.70000457763672
 11
-26.70001220703125
 21
5.760009765625
  0
LINE
  8
0
  6
CONTINUOUS
 62
     7
 10
-27
 20
20.59999847412109
 11
-27
 21
13
  0
LINE
  8
0
  6
CONTINUOUS
 62
     7
 10
-26.5999927520752
 20
21.00000190734863
 11
-26.99999618530273
 21
20.60000038146973
  0
LINE
  8
0
  6
CONTINUOUS
 62
     7
 10
-27.00001335144043
 20
13.00001811981201
 11
-26.69999694824219
 21
12.70000267028809
  0
LINE
  8
0
  6
CONTINUOUS
 62
     7
 10
2.30938720703125
 20
20.5
 11
8.5
 21
20.5
  0
LINE
  8
0
  6
CONTINUOUS
 62
     7
 10
27
 20
20.59999847412109
 11
27
 21
13
  0
LINE
  8
0
  6
CONTINUOUS
 62
     7
 10
26.99999046325684
 20
13.00000762939453
 11
26.69999694824219
 21
12.70001411437988
  0
LINE
  8
0
  6
CONTINUOUS
 62
     7
 10
26.70001220703125
 20
12.70000457763672
 11
26.70001220703125
 21
5.760009765625
  0
LINE
  8
0
  6
CONTINUOUS
 62
     7
 10
26.59999084472656
 20
21.00001907348633
 11
27.0000057220459
 21
20.60000610351563
  0
LINE
  8
0
  6
CONTINUOUS
 62
     7
 10
-25.70001220703125
 20
4.760009765625
 11
-25.59002685546875
 21
4.760009765625
  0
LINE
  8
0
  6
CONTINUOUS
 62
     7
 10
-26.70001029968262
 20
5.760025978088379
 11
-25.70001029968262
 21
4.760025024414063
  0
LINE
  8
0
  6
CONTINUOUS
 62
     7
 10
26.70001029968262
 20
5.759999752044678
 11
25.70001029968262
 21
4.759998798370361
  0
LINE
  8
0
  6
CONTINUOUS
 62
     7
 10
25.70001220703125
 20
4.760009765625
 11
25.59002685546875
 21
4.760009765625
  0
LINE
  8
0
  6
DASHED
 62
     7
 10
-13.35000610351563
 20
21
 11
-13.35000610351563
 21
14
  0
LINE
  8
0
  6
DASHED
 62
     7
 10
-13
 20
21
 11
-13
 21
15
  0
LINE
  8
0
  6
DASHED
 62
     7
 10
-18
 20
21
 11
-18
 21
15
  0
LINE
  8
0
  6
CONTINUOUS
 62
     7
 10
-25.13995361328125
 20
20.35000610351563
 11
-2.39599609375
 21
20.35000610351563
  0
LINE
  8
0
  6
DASHED
 62
     7
 10
-11.67471313476563
 20
14
 11
-18.78695678710938
 21
14
  0
LINE
  8
0
  6
DASHED
 62
     7
 10
-17.64999389648438
 20
21
 11
-17.64999389648438
 21
14
  0
LINE
  8
0
  6
CENTER
 62
     7
 10
15.5
 20
22.04365539550781
 11
15.5
 21
10.58396911621094
  0
LINE
  8
0
  6
CENTER
 62
     7
 10
-15.5
 20
22.04365539550781
 11
-15.5
 21
10.58396911621094
  0
LINE
  8
0
  6
DASHED
 62
     7
 10
-13
 20
15
 11
-18
 21
15
  0
LINE
  8
0
  6
CENTER
 62
     7
 10
21.31500244140625
 20
5.735984802246094
 11
21.31500244140625
 21
1.706840515136719
  0
LINE
  8
0
  6
CONTINUOUS
 62
     7
 10
-19.81445693969727
 20
3.959667444229126
 11
-20.01445198059082
 21
4.159663200378418
  0
LINE
  8
0
  6
CONTINUOUS
 62
     7
 10
-19.81488037109375
 20
3.959991455078125
 11
-19.81488037109375
 21
2.999740600585938
  0
LINE
  8
0
  6
CONTINUOUS
 62
     7
 10
-22.81442260742188
 20
3
 11
-19.81442260742188
 21
3
  0
LINE
  8
0
  6
CONTINUOUS
 62
     7
 10
-22.81488037109375
 20
3.959991455078125
 11
-22.81488037109375
 21
2.999725341796875
  0
LINE
  8
0
  6
CONTINUOUS
 62
     7
 10
-22.81451416015625
 20
3.959591865539551
 11
-22.61451721191406
 21
4.159587860107422
  0
LINE
  8
0
  6
CENTER
 62
     7
 10
-21.31500244140625
 20
5.735984802246094
 11
-21.31500244140625
 21
1.706840515136719
  0
LINE
  8
0
  6
DASHED
 62
     7
 10
138.0000915527344
 20
15.20000171661377
 11
138.5000915527344
 21
14.33397579193115
  0
LINE
  8
0
  6
DASHED
 62
     7
 10
142.5000762939453
 20
14.33398246765137
 11
143.0000762939453
 21
15.20000839233398
  0
LINE
  8
0
  6
DASHED
 62
     7
 10
138.0000915527344
 20
15.19999694824219
 11
143.0000915527344
 21
15.19999694824219
  0
LINE
  8
0
  6
DASHED
 62
     7
 10
130.0000915527344
 20
13.94999694824219
 11
169.9999084472656
 21
13.94999694824219
  0
LINE
  8
0
  6
DASHED
 62
     7
 10
142.5000915527344
 20
20.5
 11
142.5000915527344
 21
13.94999694824219
  0
LINE
  8
0
  6
DASHED
 62
     7
 10
138.5000915527344
 20
20.5
 11
138.5000915527344
 21
13.94999694824219
  0
LINE
  8
0
  6
DASHED
 62
     7
 10
143.0000915527344
 20
21
 11
143.0000915527344
 21
15.19999694824219
  0
LINE
  8
0
  6
DASHED
 62
     7
 10
138.0000915527344
 20
21
 11
138.0000915527344
 21
15.19999694824219
  0
LINE
  8
0
  6
CENTER
 62
     7
 10
140.5000915527344
 20
21.96894836425781
 11
140.5000915527344
 21
12.89999389648438
  0
LINE
  8
0
  6
CENTER
 62
     7
 10
159.5000915527344
 20
21.96894836425781
 11
159.5000915527344
 21
12.89999389648438
  0
LINE
  8
0
  6
CONTINUOUS
 62
     7
 10
169.60009765625
 20
21.0000171661377
 11
170.0000915527344
 21
20.60003089904785
  0
LINE
  8
0
  6
CONTINUOUS
 62
     7
 10
130.0000915527344
 20
4.759994506835938
 11
169.9999084472656
 21
4.759994506835938
  0
LINE
  8
0
  6
CONTINUOUS
 62
     7
 10
130.0000915527344
 20
20.60000991821289
 11
130.4001007080078
 21
21.0000114440918
  0
LINE
  8
0
  6
CONTINUOUS
 62
     7
 10
130.0501098632813
 20
12.89999389648438
 11
169.9500885009766
 21
12.89999389648438
  0
LINE
  8
0
  6
CONTINUOUS
 62
     7
 10
140.0006408691406
 20
3.959640502929688
 11
139.8006439208984
 21
4.159636497497559
  0
LINE
  8
0
  6
CONTINUOUS
 62
     7
 10
140.0002136230469
 20
3.959976196289063
 11
140.0002136230469
 21
2.999740600585938
  0
LINE
  8
0
  6
CONTINUOUS
 62
     7
 10
137.0006713867188
 20
3
 11
140.0006713867188
 21
3
  0
LINE
  8
0
  6
CONTINUOUS
 62
     7
 10
137.0002136230469
 20
3.959976196289063
 11
137.0002136230469
 21
2.999725341796875
  0
LINE
  8
0
  6
CONTINUOUS
 62
     7
 10
137.0005950927734
 20
3.959564924240112
 11
137.2005920410156
 21
4.159560680389404
  0
LINE
  8
0
  6
CENTER
 62
     7
 10
161.5000915527344
 20
6.257553100585938
 11
161.5000915527344
 21
1.884979248046875
  0
LINE
  8
0
  6
CENTER
 62
     7
 10
138.5000915527344
 20
6.257553100585938
 11
138.5000915527344
 21
1.884979248046875
  0
LINE
  8
0
  6
CONTINUOUS
 62
     7
 10
130.0000915527344
 20
4.159988403320313
 11
169.9999084472656
 21
4.159988403320313
  0
LINE
  8
0
  6
CONTINUOUS
 62
     7
 10
130.4000854492188
 20
21
 11
169.60009765625
 21
21
  0
LINE
  8
0
  6
CONTINUOUS
 62
     7
 10
169.9999084472656
 20
20.60018920898438
 11
169.9999084472656
 21
4.159988403320313
  0
LINE
  8
0
  6
CONTINUOUS
 62
     7
 10
130.0000915527344
 20
20.60000610351563
 11
130.0000915527344
 21
4.159988403320313
  0
LINE
  8
0
  6
CENTER
 62
     7
 10
23.534912109375
 20
14.38999938964844
 11
23.534912109375
 21
8.389999389648438
  0
LINE
  8
0
  6
CENTER
 62
     7
 10
12.885009765625
 20
19.90000915527344
 11
12.885009765625
 21
13.90000915527344
  0
LINE
  8
0
  6
CENTER
 62
     7
 10
9.885009765625
 20
16.90000915527344
 11
15.885009765625
 21
16.90000915527344
  0
LINE
  8
0
  6
CENTER
 62
     7
 10
20.534912109375
 20
11.38999938964844
 11
26.534912109375
 21
11.38999938964844
  0
LINE
  8
0
  6
CENTER
 62
     7
 10
-23.534912109375
 20
8.389999389648438
 11
-23.534912109375
 21
14.38999938964844
  0
LINE
  8
0
  6
CENTER
 62
     7
 10
-12.885009765625
 20
13.90000915527344
 11
-12.885009765625
 21
19.90000915527344
  0
LINE
  8
0
  6
CENTER
 62
     7
 10
-15.885009765625
 20
16.90000915527344
 11
-9.885009765625
 21
16.90000915527344
  0
LINE
  8
0
  6
CENTER
 62
     7
 10
-26.534912109375
 20
11.38999938964844
 11
-20.534912109375
 21
11.38999938964844
  0
LINE
  8
0
  6
CONTINUOUS
 62
     7
 10
1.779998779296875
 20
20
 11
5.8599853515625
 21
20
  0
LINE
  8
0
  6
CENTER
 62
     7
 10
-6.3699951171875
 20
16.5
 11
13.30998229980469
 21
16.5
  0
LINE
  8
0
  6
CONTINUOUS
 62
     7
 10
1.779998779296875
 20
13
 11
5.8599853515625
 21
13
  0
LINE
  8
0
  6
CONTINUOUS
 62
     7
 10
1.129988551139832
 20
16.49996376037598
 11
1.779982566833496
 21
12.99996185302734
  0
LINE
  8
0
  6
CONTINUOUS
 62
     7
 10
1.129988431930542
 20
16.49997711181641
 11
1.779986381530762
 21
20
  0
LINE
  8
0
  6
CONTINUOUS
 62
     7
 10
3.43997597694397
 20
16.49997329711914
 11
4.089986801147461
 21
19.99998474121094
  0
LINE
  8
0
  6
CONTINUOUS
 62
     7
 10
5.950003623962402
 20
13.46998023986816
 11
5.859991073608398
 21
12.99997615814209
  0
LINE
  8
0
  6
CONTINUOUS
 62
     7
 10
5.950026988983154
 20
19.52000427246094
 11
5.860018730163574
 21
19.9999942779541
  0
LINE
  8
0
  6
CONTINUOUS
 62
     7
 10
7.765948295593262
 20
13.25428867340088
 11
10.51998043060303
 21
13.99996376037598
  0
LINE
  8
0
  6
CONTINUOUS
 62
     7
 10
7.749973297119141
 20
19.74999237060547
 11
10.51998615264893
 21
18.9999885559082
  0
LINE
  8
0
  6
CONTINUOUS
 62
     7
 10
2.309992790222168
 20
12.50000095367432
 11
2.599985837936401
 21
13
  0
LINE
  8
0
  6
CONTINUOUS
 62
     7
 10
2.309992074966431
 20
12.50000095367432
 11
-2.309996366500855
 21
12.50000095367432
  0
LINE
  8
0
  6
CONTINUOUS
 62
     7
 10
-2.30996584892273
 20
12.50001525878906
 11
-4.6199631690979
 21
16.50001525878906
  0
LINE
  8
0
  6
CONTINUOUS
 62
     7
 10
-4.619980335235596
 20
16.50001335144043
 11
-2.309978485107422
 21
20.50001907348633
  0
LINE
  8
0
  6
CONTINUOUS
 62
     7
 10
-2.309996843338013
 20
20.49999809265137
 11
2.309993267059326
 21
20.49999809265137
  0
LINE
  8
0
  6
CONTINUOUS
 62
     7
 10
2.309993028640747
 20
20.5
 11
2.599985837936401
 21
20
  0
LINE
  8
0
  6
CONTINUOUS
 62
     7
 10
3.439975738525391
 20
16.50002479553223
 11
4.089986801147461
 21
13.00001430511475
  0
LINE
  8
0
  6
CONTINUOUS
 62
     7
 10
2.425987720489502
 20
12.69999694824219
 11
4.08872652053833
 21
12.69999694824219
  0
LINE
  8
0
  6
CONTINUOUS
 62
     7
 10
170
 20
125
 11
130
 21
125
  0
LINE
  8
0
  6
CONTINUOUS
 62
     7
 10
170
 20
89
 11
130
 21
89
  0
LINE
  8
0
  6
CONTINUOUS
 62
     7
 10
170
 20
107
 11
130
 21
107
  0
LINE
  8
0
  6
CENTER
 62
     7
 10
140.5000915527344
 20
86
 11
140.5000915527344
 21
79
  0
LINE
  8
0
  6
CENTER
 62
     7
 10
137.0000915527344
 20
82.5
 11
144.0000915527344
 21
82.5
  0
LINE
  8
0
  6
CENTER
 62
     7
 10
140.5000915527344
 20
110
 11
140.5000915527344
 21
117
  0
LINE
  8
0
  6
CENTER
 62
     7
 10
137.0000915527344
 20
113.5
 11
144.0000915527344
 21
113.5
  0
LINE
  8
0
  6
CENTER
 62
     7
 10
162.9999084472656
 20
113.5
 11
155.9999084472656
 21
113.5
  0
LINE
  8
0
  6
CENTER
 62
     7
 10
159.4999084472656
 20
86
 11
159.4999084472656
 21
79
  0
LINE
  8
0
  6
CENTER
 62
     7
 10
159.4999084472656
 20
110
 11
159.4999084472656
 21
117
  0
LINE
  8
0
  6
CENTER
 62
     7
 10
162.9999084472656
 20
82.5
 11
155.9999084472656
 21
82.5
  0
CIRCLE
  8
0
  6
CONTINUOUS
 62
     7
 10
75
 20
87
 40
2.25
  0
CIRCLE
  8
0
  6
CONTINUOUS
 62
     7
 10
75
 20
87
 40
3.75
  0
ARC
  8
0
  6
CONTINUOUS
 62
     7
 10
117.6002578735352
 20
16.50001525878906
 40
3.999999999999998
 50
89.99998201391055
 51
118.4958044387706
  0
ARC
  8
0
  6
CONTINUOUS
 62
     7
 10
117.6002578735352
 20
16.50001525878906
 40
3.982465744018556
 50
241.5040862782025
 51
269.9999087030625
  0
ARC
  8
0
  6
CONTINUOUS
 62
     7
 10
114.8334503173828
 20
90.05447387695313
 40
3.299999237060547
 50
131.5803705110074
 51
157.4999548639652
  0
ARC
  8
0
  6
CONTINUOUS
 62
     7
 10
114.8334503173828
 20
90.05447387695313
 40
3.29999923706055
 50
337.5000181569006
 51
3.419602296415172
  0
ARC
  8
0
  6
CONTINUOUS
 62
     7
 10
106.9170989990234
 20
92.90057373046875
 40
5.999999999999996
 50
2.433650829345525
 51
20.87173987704918
  0
ARC
  8
0
  6
CONTINUOUS
 62
     7
 10
122.4436340332031
 20
86.46926879882813
 40
6.000000000000004
 50
114.1278165022774
 51
132.5663219780771
  0
ARC
  8
0
  6
CONTINUOUS
 62
     7
 10
112.1123962402344
 20
93.12136840820313
 40
0.7999999523162822
 50
311.5798327472963
 51
2.433049772698627
  0
ARC
  8
0
  6
CONTINUOUS
 62
     7
 10
118.9261322021484
 20
90.29902648925781
 40
0.7999999523162843
 50
132.566977676238
 51
183.4201402735703
  0
ARC
  8
0
  6
CONTINUOUS
 62
     7
 10
117.8002014160156
 20
98
 40
3.999999999999998
 50
89.99998201391055
 51
180.0000186693347
  0
ARC
  8
0
  6
CONTINUOUS
 62
     7
 10
-17.08499145507813
 20
4.760009765625
 40
0.6000000238418581
 50
269.9999633445759
 51
325.2456923141302
  0
ARC
  8
0
  6
CONTINUOUS
 62
     7
 10
17.08499145507813
 20
4.760009765625
 40
0.6000000238418587
 50
214.7588003564818
 51
270.0000726276026
  0
ARC
  8
0
  6
CONTINUOUS
 62
     7
 10
-18.34051513671875
 20
7.152999877929688
 40
1.190499305725098
 50
5.950276389807507
 51
84.04968513353559
  0
ARC
  8
0
  6
CONTINUOUS
 62
     7
 10
18.34051513671875
 20
7.152999877929688
 40
1.190499305725097
 50
95.95027889428562
 51
174.0497217889597
  0
ARC
  8
0
  6
CONTINUOUS
 62
     7
 10
18.34051513671875
 20
10.84700012207031
 40
1.190499305725097
 50
185.6811687577418
 51
264.3188305590127
  0
ARC
  8
0
  6
CONTINUOUS
 62
     7
 10
-18.34051513671875
 20
10.84700012207031
 40
1.190499305725098
 50
275.6812054131659
 51
354.318833063491
  0
CIRCLE
  8
0
  6
CONTINUOUS
 62
     7
 10
23.534912109375
 20
11.38999938964844
 40
2.5
  0
CIRCLE
  8
0
  6
CONTINUOUS
 62
     7
 10
-23.534912109375
 20
11.38999938964844
 40
2.5
  0
ARC
  8
0
  6
CONTINUOUS
 62
     7
 10
12.885009765625
 20
16.90000915527344
 40
2.5
 50
229.9427753342838
 51
137.4986201437967
  0
CIRCLE
  8
0
  6
CONTINUOUS
 62
     7
 10
-12.885009765625
 20
16.90000915527344
 40
2.5
  0
ARC
  8
0
  6
CONTINUOUS
 62
     7
 10
7.610000610351563
 20
14.20999145507813
 40
0.9683421850204466
 50
215.3314570768741
 51
278.2972225067941
  0
ARC
  8
0
  6
CONTINUOUS
 62
     7
 10
6.620010375976563
 20
12.41999816894531
 40
1.246148109436035
 50
80.76452806729958
 51
142.1250351177266
  0
ARC
  8
0
  6
CONTINUOUS
 62
     7
 10
6.620010375976563
 20
20.58000183105469
 40
1.254199028015136
 50
217.8749648822735
 51
279.2353626496737
  0
ARC
  8
0
  6
CONTINUOUS
 62
     7
 10
7.610000610351563
 20
18.78999328613281
 40
0.9701611399650563
 50
81.7028867762326
 51
144.668542923126
  0
ARC
  8
0
  6
CONTINUOUS
 62
     7
 10
0
 20
16.5
 40
3.998106002807617
 50
61.09406820109392
 51
298.9059349866296
  0
CIRCLE
  8
0
  6
CONTINUOUS
 62
     7
 10
140.5000915527344
 20
82.5
 40
2
  0
CIRCLE
  8
0
  6
CONTINUOUS
 62
     7
 10
140.5000915527344
 20
82.5
 40
2.5
  0
POLYLINE
  8
0
  6
CONTINUOUS
 62
     7
 66
     1
 10
0
 20
0
 70
     1
  0
VERTEX
  8
0
  6
CONTINUOUS
 62
     7
 10
113.3002395629883
 20
19.00001525878906
 42
0.1103779425854404
  0
VERTEX
  8
0
  6
CONTINUOUS
 62
     7
 10
112.3880825165817
 20
18.79499874016015
 42
0.1025060954877986
  0
VERTEX
  8
0
  6
CONTINUOUS
 62
     7
 10
111.6407484007674
 20
18.23099092578374
 42
0.09328985436384868
  0
VERTEX
  8
0
  6
CONTINUOUS
 62
     7
 10
111.1631428528064
 20
17.42409904484611
 42
0.08782088419675775
  0
VERTEX
  8
0
  6
CONTINUOUS
 62
     7
 10
111.0002517700195
 20
16.5
 42
0.08777254616723731
  0
VERTEX
  8
0
  6
CONTINUOUS
 62
     7
 10
111.1629789987148
 20
15.57638202449158
 42
0.09326064282204921
  0
VERTEX
  8
0
  6
CONTINUOUS
 62
     7
 10
111.6402768119651
 20
14.76957645480735
 42
0.1026309238622789
  0
VERTEX
  8
0
  6
CONTINUOUS
 62
     7
 10
112.3884836505345
 20
14.20484544241641
 42
0.1103316921527124
  0
VERTEX
  8
0
  6
CONTINUOUS
 62
     7
 10
113.3002700805664
 20
14.00001621246338
 42
0.1103778622918196
  0
VERTEX
  8
0
  6
CONTINUOUS
 62
     7
 10
114.2124272259985
 20
14.20503235534048
 42
0.1025061627872718
  0
VERTEX
  8
0
  6
CONTINUOUS
 62
     7
 10
114.9597615773436
 20
14.7690398446173
 42
0.09328997514109019
  0
VERTEX
  8
0
  6
CONTINUOUS
 62
     7
 10
115.4373671397021
 20
15.57593170005039
 42
0.08782092966073035
  0
VERTEX
  8
0
  6
CONTINUOUS
 62
     7
 10
115.6002578735352
 20
16.50003051757813
 42
0.08777249021911146
  0
VERTEX
  8
0
  6
CONTINUOUS
 62
     7
 10
115.4375303525489
 20
17.42364844672455
 42
0.09326050400853964
  0
VERTEX
  8
0
  6
CONTINUOUS
 62
     7
 10
114.9602326079275
 20
18.23045407537827
 42
0.1026308365577488
  0
VERTEX
  8
0
  6
CONTINUOUS
 62
     7
 10
114.2120260811112
 20
18.79518553978474
 42
0.1103318440113821
  0
SEQEND
  8
0
  0
POLYLINE
  8
0
  6
CONTINUOUS
 62
     7
 66
     1
 10
0
 20
0
  0
VERTEX
  8
0
  6
CONTINUOUS
 62
     7
 10
114.400260925293
 20
19.75001525878906
 42
0.01434921821110561
  0
VERTEX
  8
0
  6
CONTINUOUS
 62
     7
 10
114.2413800437378
 20
19.7454542701471
 42
0.01426056112006538
  0
VERTEX
  8
0
  6
CONTINUOUS
 62
     7
 10
114.0837691590943
 20
19.73187893932937
 42
0.01417567788195349
  0
VERTEX
  8
0
  6
CONTINUOUS
 62
     7
 10
113.9276702699797
 20
19.70943630142619
 42
0.01415086977507541
  0
VERTEX
  8
0
  6
CONTINUOUS
 62
     7
 10
113.7727082710199
 20
19.67811307466875
 42
0.01410158156759499
  0
VERTEX
  8
0
  6
CONTINUOUS
 62
     7
 10
113.6194464316705
 20
19.63800554088824
 42
0.01402957761305759
  0
VERTEX
  8
0
  6
CONTINUOUS
 62
     7
 10
113.4684297376903
 20
19.58926152163519
 42
0.01393699711448783
  0
VERTEX
  8
0
  6
CONTINUOUS
 62
     7
 10
113.3201794114454
 20
19.53207616498067
 42
0.01382627700385977
  0
VERTEX
  8
0
  6
CONTINUOUS
 62
     7
 10
113.1751882920819
 20
19.46668695532571
 42
0.0137000672631705
  0
VERTEX
  8
0
  6
CONTINUOUS
 62
     7
 10
113.0339171929023
 20
19.39336816374966
 42
0.01356114429368126
  0
VERTEX
  8
0
  6
CONTINUOUS
 62
     7
 10
112.8967922998977
 20
19.31242497311056
 42
0.01332237275303226
  0
VERTEX
  8
0
  6
CONTINUOUS
 62
     7
 10
112.7650824340671
 20
19.22480669536433
 42
0.01328780149731506
  0
VERTEX
  8
0
  6
CONTINUOUS
 62
     7
 10
112.6370616633321
 20
19.12944365112517
 42
0.01315486993169281
  0
VERTEX
  8
0
  6
CONTINUOUS
 62
     7
 10
112.5140094346935
 20
19.02723834919311
 42
0.01293833503407828
  0
VERTEX
  8
0
  6
CONTINUOUS
 62
     7
 10
112.3969651709356
 20
18.91922402093345
 42
0.01278034265105036
  0
VERTEX
  8
0
  6
CONTINUOUS
 62
     7
 10
112.2856287636103
 20
18.80533504736537
 42
0.01262533131101878
  0
VERTEX
  8
0
  6
CONTINUOUS
 62
     7
 10
112.1802193323911
 20
18.68593799880041
 42
0
  0
SEQEND
  8
0
  0
POLYLINE
  8
0
  6
CONTINUOUS
 62
     7
 66
     1
 10
0
 20
0
  0
VERTEX
  8
0
  6
CONTINUOUS
 62
     7
 10
112.1761924831064
 20
14.31890221462747
 42
0.06283199533711702
  0
VERTEX
  8
0
  6
CONTINUOUS
 62
     7
 10
112.7404912982781
 20
13.79273009110688
 42
0.06649698444572665
  0
VERTEX
  8
0
  6
CONTINUOUS
 62
     7
 10
113.4204916358226
 20
13.4282253859679
 42
0.06915551843263225
  0
VERTEX
  8
0
  6
CONTINUOUS
 62
     7
 10
114.1728462578131
 20
13.25936665029187
 42
0.06975294720098699
  0
VERTEX
  8
0
  6
CONTINUOUS
 62
     7
 10
114.9416011375504
 20
13.30336465942474
 42
0.06816347455606947
  0
VERTEX
  8
0
  6
CONTINUOUS
 62
     7
 10
115.6694445747913
 20
13.55518632789498
 42
0.06499586596326386
  0
VERTEX
  8
0
  6
CONTINUOUS
 62
     7
 10
116.3060102671754
 20
13.9900177619762
 42
0.06129087960791105
  0
VERTEX
  8
0
  6
CONTINUOUS
 62
     7
 10
116.8140677744
 20
14.57011873921207
 42
0.058079597179489
  0
VERTEX
  8
0
  6
CONTINUOUS
 62
     7
 10
117.1710649344638
 20
15.25411266500303
 42
0.05590537556099037
  0
VERTEX
  8
0
  6
CONTINUOUS
 62
     7
 10
117.3647236908115
 20
16.00125659125738
 42
0.05496367752761226
  0
VERTEX
  8
0
  6
CONTINUOUS
 62
     7
 10
117.3897386556854
 20
16.77197908170362
 42
0.05547385665497513
  0
VERTEX
  8
0
  6
CONTINUOUS
 62
     7
 10
117.2456598536331
 20
17.52986839352966
 42
0.0572803791278664
  0
VERTEX
  8
0
  6
CONTINUOUS
 62
     7
 10
116.9362504880143
 20
18.23631018418953
 42
0.06026825000634959
  0
VERTEX
  8
0
  6
CONTINUOUS
 62
     7
 10
116.4710118324304
 20
18.85161945393804
 42
0.06395239830525609
  0
VERTEX
  8
0
  6
CONTINUOUS
 62
     7
 10
115.8688056876354
 20
19.33399833777623
 42
0.06744492301896746
  0
VERTEX
  8
0
  6
CONTINUOUS
 62
     7
 10
115.1621485893396
 20
19.64346068852094
 42
0.0694415600769414
  0
VERTEX
  8
0
  6
CONTINUOUS
 62
     7
 10
114.400260925293
 20
19.75001525878906
 42
0
  0
SEQEND
  8
0
  0
POLYLINE
  8
0
  6
CONTINUOUS
 62
     7
 66
     1
 10
0
 20
0
  0
VERTEX
  8
0
  6
CONTINUOUS
 62
     7
 10
6.819992065429688
 20
19.3499755859375
 42
0.1885745464292306
  0
VERTEX
  8
0
  6
CONTINUOUS
 62
     7
 10
6.460261538522269
 20
19.19028703984911
 42
0.07574466113807471
  0
VERTEX
  8
0
  6
CONTINUOUS
 62
     7
 10
6.216026985965466
 20
18.87245062832676
 42
0.03933594534514293
  0
VERTEX
  8
0
  6
CONTINUOUS
 62
     7
 10
6.046165317503697
 20
18.50711706913912
 42
0.02577125752713331
  0
VERTEX
  8
0
  6
CONTINUOUS
 62
     7
 10
5.924010893244023
 20
18.12296641807139
 42
0.01950521772357452
  0
VERTEX
  8
0
  6
CONTINUOUS
 62
     7
 10
5.836520256462827
 20
17.72875464113595
 42
0.01621461060575423
  0
VERTEX
  8
0
  6
CONTINUOUS
 62
     7
 10
5.777160254708039
 20
17.32916366168362
 42
0.014466537637782
  0
VERTEX
  8
0
  6
CONTINUOUS
 62
     7
 10
5.74229278684315
 20
16.92663897834303
 42
0.01369126526823532
  0
VERTEX
  8
0
  6
CONTINUOUS
 62
     7
 10
5.730044907543697
 20
16.5224948995088
 42
0.01360481565903361
  0
VERTEX
  8
0
  6
CONTINUOUS
 62
     7
 10
5.739761797781865
 20
16.11964974889296
 42
0.01431525852918152
  0
VERTEX
  8
0
  6
CONTINUOUS
 62
     7
 10
5.771912195952455
 20
15.71739843680845
 42
0.01598185402869217
  0
VERTEX
  8
0
  6
CONTINUOUS
 62
     7
 10
5.82842391162682
 20
15.31658057188146
 42
0.01902675483978357
  0
VERTEX
  8
0
  6
CONTINUOUS
 62
     7
 10
5.912486364333772
 20
14.92142739773305
 42
0.02487977718040127
  0
VERTEX
  8
0
  6
CONTINUOUS
 62
     7
 10
6.030502851315639
 20
14.5350316284218
 42
0.03729615370151728
  0
VERTEX
  8
0
  6
CONTINUOUS
 62
     7
 10
6.194578623268982
 20
14.16584860095528
 42
0.06998284816465658
  0
VERTEX
  8
0
  6
CONTINUOUS
 62
     7
 10
6.430164842897742
 20
13.83851861784648
 42
0.1738206340217584
  0
VERTEX
  8
0
  6
CONTINUOUS
 62
     7
 10
6.779932678960283
 20
13.6519216751302
 42
0
  0
SEQEND
  8
0
  0
POLYLINE
  8
0
  6
CONTINUOUS
 62
     7
 66
     1
 10
0
 20
0
 70
     1
  0
VERTEX
  8
0
  6
CONTINUOUS
 62
     7
 10
10.52000427246094
 20
19
 42
0.2551592727856163
  0
VERTEX
  8
0
  6
CONTINUOUS
 62
     7
 10
9.990194421972644
 20
18.57511190027379
 42
0.06319138472295248
  0
VERTEX
  8
0
  6
CONTINUOUS
 62
     7
 10
9.736099333476972
 20
17.9122252544633
 42
0.03518638918172256
  0
VERTEX
  8
0
  6
CONTINUOUS
 62
     7
 10
9.609369637790106
 20
17.21217549301894
 42
0.02798531261538153
  0
VERTEX
  8
0
  6
CONTINUOUS
 62
     7
 10
9.57000732421875
 20
16.5
 42
0.02789942790998547
  0
VERTEX
  8
0
  6
CONTINUOUS
 62
     7
 10
9.609140981222661
 20
15.789852439692
 42
0.03516017990499778
  0
VERTEX
  8
0
  6
CONTINUOUS
 62
     7
 10
9.735634869873794
 20
15.08956192317742
 42
0.06315573245381149
  0
VERTEX
  8
0
  6
CONTINUOUS
 62
     7
 10
9.989666863013211
 20
14.42582168183449
 42
0.255284426360088
  0
VERTEX
  8
0
  6
CONTINUOUS
 62
     7
 10
10.52000427246094
 20
14
 42
0.255159473047859
  0
VERTEX
  8
0
  6
CONTINUOUS
 62
     7
 10
11.04981459858741
 20
14.42488747333301
 42
0.06319156037851682
  0
VERTEX
  8
0
  6
CONTINUOUS
 62
     7
 10
11.30390981534024
 20
15.08777405749937
 42
0.03518647356583991
  0
VERTEX
  8
0
  6
CONTINUOUS
 62
     7
 10
11.4306393075316
 20
15.7878238524152
 42
0.0279853919855318
  0
VERTEX
  8
0
  6
CONTINUOUS
 62
     7
 10
11.47000122070313
 20
16.5
 42
0.02789946216538072
  0
VERTEX
  8
0
  6
CONTINUOUS
 62
     7
 10
11.4308677871041
 20
17.2101475710854
 42
0.03516022448296261
  0
VERTEX
  8
0
  6
CONTINUOUS
 62
     7
 10
11.3043740106433
 20
17.91043810603362
 42
0.06315580443701387
  0
VERTEX
  8
0
  6
CONTINUOUS
 62
     7
 10
11.05034197507806
 20
18.57417832508457
 42
0.2552843239603887
  0
SEQEND
  8
0
  0
TEXT
  8
0
  6
CONTINUOUS
 62
     7
 10
-11.28550004959106
 20
-31.79999995231628
 40
3.599999904632568
 41
1.00619571870364
  1
HRW21CRM
  0
ENDSEC
  0
EOF
