  0
SECTION
  2
HEADER
  0
ENDSEC
  0
SECTION
  2
TABLES
  0
TABLE
  2
LTYPE
 70
    22
  0
LTYPE
  2
CONTINUOUS
 70
    64
  3
Solid line
 72
    65
 73
     0
 40
0.000000
  0
LTYPE
  2
DASHED
 70
    64
  3
__ __ __ __ __ __ __ __ __ __ __ __ __ __ __
 72
    65
 73
     2
 40
3.500000
 49
2.000000
 49
-1.500000
  0
LTYPE
  2
CENTER
 70
    64
  3
____ _ ____ _ ____ _ ____ _ ____ _ ____ _ ____
 72
    65
 73
     4
 40
17.500000
 49
13.000000
 49
-1.500000
 49
1.500000
 49
-1.500000
  0
LTYPE
  2
PHANTOM
 70
    64
  3
_____ _ _ _____ _ _ _____ _ _ _____ _ _ ____  
 72
    65
 73
     6
 40
15.500000
 49
8.000000
 49
-1.500000
 49
1.500000
 49
-1.500000
 49
1.500000
 49
-1.500000
  0
LTYPE
  2
DOT
 70
    64
  3
. . . . . . . . . . . . . . . . . . . . . . . .
 72
    65
 73
     2
 40
0.25
 49
0.0
 49
-0.25
  0
ENDTAB
  0
TABLE
  2
LAYER
 70
     1
  0
LAYER
  2
0
 70
     0
 62
     7
  6
CONTINUOUS
  0
ENDTAB
  0
TABLE
  2
STYLE
 70
     1
  0
STYLE
  2
STANDARD
 70
     0
 40
0.000000
 41
1.000000
 50
0.000000
 71
     0
 42
0.200000
  3
txt
  0
ENDTAB
  0
TABLE
  2
VIEW
 70
     0
  0
ENDTAB
  0
ENDSEC
  0
SECTION
  2
BLOCKS
  0
ENDSEC
  0
SECTION
  2
ENTITIES
  0
LINE
  8
0
  6
CONTINUOUS
 62
     7
 10
70
 20
0
 11
290
 21
0
  0
LINE
  8
0
  6
CONTINUOUS
 62
     7
 10
70
 20
15.00000381469727
 11
143.499755859375
 21
15.00000381469727
  0
LINE
  8
0
  6
CONTINUOUS
 62
     7
 10
146.499755859375
 20
4
 11
213.4997406005859
 21
4
  0
LINE
  8
0
  6
CONTINUOUS
 62
     7
 10
216.4997406005859
 20
15.00000381469727
 11
290
 21
15.00000381469727
  0
LINE
  8
0
  6
CONTINUOUS
 62
     7
 10
147.0023651123047
 20
26.50021743774414
 11
154.099853515625
 21
26.50021743774414
  0
LINE
  8
0
  6
CONTINUOUS
 62
     7
 10
146.499755859375
 20
26.00003433227539
 11
146.499755859375
 21
4
  0
LINE
  8
0
  6
CONTINUOUS
 62
     7
 10
146.499755859375
 20
25.99760437011719
 11
147.0023651123047
 21
26.50021934509277
  0
LINE
  8
0
  6
CONTINUOUS
 62
     7
 10
212.9997253417969
 20
26.50021743774414
 11
205.899658203125
 21
26.50021743774414
  0
LINE
  8
0
  6
CONTINUOUS
 62
     7
 10
213.5006713867188
 20
25.99934768676758
 11
213.000732421875
 21
26.49929428100586
  0
LINE
  8
0
  6
CONTINUOUS
 62
     7
 10
161.5
 20
4
 11
161.5
 21
3.645904541015625
  0
LINE
  8
0
  6
CONTINUOUS
 62
     7
 10
158.5
 20
4
 11
158.5
 21
3.645904541015625
  0
LINE
  8
0
  6
CENTER
 62
     7
 10
180
 20
5.855457305908203
 11
180
 21
2.000003814697266
  0
LINE
  8
0
  6
DASHED
 62
     7
 10
163
 20
27.00000381469727
 11
163
 21
17.00000381469727
  0
LINE
  8
0
  6
DASHED
 62
     7
 10
157
 20
27.00000381469727
 11
157
 21
17.00000381469727
  0
LINE
  8
0
  6
DASHED
 62
     7
 10
157.35009765625
 20
27.00000381469727
 11
157.35009765625
 21
17.00000381469727
  0
LINE
  8
0
  6
DASHED
 62
     7
 10
162.650146484375
 20
27.00000381469727
 11
162.650146484375
 21
17.00000381469727
  0
LINE
  8
0
  6
CONTINUOUS
 62
     7
 10
154.099853515625
 20
26.50021743774414
 11
154.099853515625
 21
4
  0
LINE
  8
0
  6
CONTINUOUS
 62
     7
 10
205.899658203125
 20
26.50000381469727
 11
205.899658203125
 21
4
  0
LINE
  8
0
  6
CONTINUOUS
 62
     7
 10
154.599853515625
 20
27.00000381469727
 11
205.399658203125
 21
27.00000381469727
  0
LINE
  8
0
  6
CONTINUOUS
 62
     7
 10
154.099853515625
 20
17.00000381469727
 11
205.899658203125
 21
17.00000381469727
  0
LINE
  8
0
  6
CONTINUOUS
 62
     7
 10
154.099853515625
 20
26.49783897399902
 11
154.6008911132813
 21
26.99888038635254
  0
LINE
  8
0
  6
CONTINUOUS
 62
     7
 10
205.4005737304688
 20
26.99910736083984
 11
205.9005279541016
 21
26.49916076660156
  0
LINE
  8
0
  6
CENTER
 62
     7
 10
159.999755859375
 20
28.00000381469727
 11
159.999755859375
 21
2.000003814697266
  0
LINE
  8
0
  6
CENTER
 62
     7
 10
199.999755859375
 20
28.00000381469727
 11
199.999755859375
 21
2.000003814697266
  0
LINE
  8
0
  6
CONTINUOUS
 62
     7
 10
162.9557952880859
 20
6.819872856140137
 11
164.7507781982422
 21
16.99971580505371
  0
LINE
  8
0
  6
CONTINUOUS
 62
     7
 10
157.0468444824219
 20
6.818706035614014
 11
155.2518463134766
 21
16.99859428405762
  0
LINE
  8
0
  6
CONTINUOUS
 62
     7
 10
197.0455627441406
 20
6.818923950195313
 11
195.2506256103516
 21
16.99846649169922
  0
LINE
  8
0
  6
CONTINUOUS
 62
     7
 10
202.9551391601563
 20
6.819766044616699
 11
204.7501525878906
 21
16.99982643127441
  0
LINE
  8
0
  6
CONTINUOUS
 62
     7
 10
213.4997406005859
 20
26.00024795532227
 11
213.4997406005859
 21
4.000030517578125
  0
LINE
  8
0
  6
CONTINUOUS
 62
     7
 10
214.9997406005859
 20
26.00003433227539
 11
214.9997406005859
 21
4.700016021728516
  0
LINE
  8
0
  6
CONTINUOUS
 62
     7
 10
214.9997406005859
 20
26.00003433227539
 11
213.4997406005859
 21
26.00003433227539
  0
LINE
  8
0
  6
CONTINUOUS
 62
     7
 10
216.4997406005859
 20
15.70001983642578
 11
215.0007019042969
 21
17.19906044006348
  0
LINE
  8
0
  6
CONTINUOUS
 62
     7
 10
216.4997406005859
 20
15.70002365112305
 11
216.4997406005859
 21
4.700027465820313
  0
LINE
  8
0
  6
CONTINUOUS
 62
     7
 10
144.999755859375
 20
4.700027465820313
 11
144.999755859375
 21
26.00003433227539
  0
LINE
  8
0
  6
CONTINUOUS
 62
     7
 10
146.499755859375
 20
26.00003433227539
 11
144.999755859375
 21
26.00003433227539
  0
LINE
  8
0
  6
CONTINUOUS
 62
     7
 10
145.0010223388672
 20
17.19865989685059
 11
143.5010223388672
 21
15.69865989685059
  0
LINE
  8
0
  6
CONTINUOUS
 62
     7
 10
143.499755859375
 20
4.700027465820313
 11
143.499755859375
 21
15.70003128051758
  0
LINE
  8
0
  6
CONTINUOUS
 62
     7
 10
-5
 20
14
 11
5
 21
14
  0
LINE
  8
0
  6
CONTINUOUS
 62
     7
 10
-5
 20
1
 11
5
 21
1
  0
LINE
  8
0
  6
CONTINUOUS
 62
     7
 10
-6
 20
0
 11
-20.4998893737793
 21
0
  0
LINE
  8
0
  6
CONTINUOUS
 62
     7
 10
-21
 20
12.66000366210938
 11
-21
 21
11.33999633789063
  0
LINE
  8
0
  6
CONTINUOUS
 62
     7
 10
-6
 20
15
 11
-18.659912109375
 21
15
  0
LINE
  8
0
  6
CONTINUOUS
 62
     7
 10
-18.099853515625
 20
8.44000244140625
 11
-18.099853515625
 21
4.649993896484375
  0
LINE
  8
0
  6
CONTINUOUS
 62
     7
 10
-18.09935569763184
 20
4.650314807891846
 11
-21
 21
2.975622892379761
  0
LINE
  8
0
  6
CONTINUOUS
 62
     7
 10
-18.0991325378418
 20
8.439267158508301
 11
-19.19190216064453
 21
9.532036781311035
  0
LINE
  8
0
  6
CONTINUOUS
 62
     7
 10
-20.99923515319824
 20
12.6592960357666
 11
-20.59842872619629
 21
13.06009387969971
  0
LINE
  8
0
  6
CONTINUOUS
 62
     7
 10
-21
 20
2.975622892379761
 11
-21
 21
0.5001114010810852
  0
LINE
  8
0
  6
CONTINUOUS
 62
     7
 10
-4.999228000640869
 20
0.9993246793746948
 11
-5.999217987060547
 21
-0.0006655830075033009
  0
LINE
  8
0
  6
CONTINUOUS
 62
     7
 10
-20.59834671020508
 20
10.9384822845459
 11
-20.9990291595459
 21
11.33916473388672
  0
LINE
  8
0
  6
CONTINUOUS
 62
     7
 10
-19.19199943542481
 20
14.46649551391602
 11
-18.65919876098633
 21
14.99929618835449
  0
LINE
  8
0
  6
CONTINUOUS
 62
     7
 10
-20.4998893737793
 20
0
 11
-21
 21
0.5001111030578613
  0
LINE
  8
0
  6
CONTINUOUS
 62
     7
 10
-4.999163150787354
 20
13.99929523468018
 11
-5.999056339263916
 21
14.99918842315674
  0
LINE
  8
0
  6
CONTINUOUS
 62
     7
 10
-7.5
 20
27
 11
7.5
 21
27
  0
LINE
  8
0
  6
CONTINUOUS
 62
     7
 10
-7.999220371246338
 20
26.49930953979492
 11
-7.49923038482666
 21
26.99929809570313
  0
LINE
  8
0
  6
CONTINUOUS
 62
     7
 10
-18.99915885925293
 20
26.49923515319824
 11
-19.49910545349121
 21
26.99918174743652
  0
LINE
  8
0
  6
CONTINUOUS
 62
     7
 10
-19.5
 20
27
 11
-39.5
 21
27
  0
LINE
  8
0
  6
DASHED
 62
     7
 10
-32.349853515625
 20
27
 11
-32.349853515625
 21
17
  0
LINE
  8
0
  6
DASHED
 62
     7
 10
-32
 20
27
 11
-32
 21
17
  0
LINE
  8
0
  6
CENTER
 62
     7
 10
-35
 20
28
 11
-35
 21
14.21432495117188
  0
LINE
  8
0
  6
DASHED
 62
     7
 10
-3
 20
27
 11
-3
 21
21
  0
LINE
  8
0
  6
DASHED
 62
     7
 10
-2.64990234375
 20
27
 11
-2.64990234375
 21
21
  0
LINE
  8
0
  6
CONTINUOUS
 62
     7
 10
-40
 20
26.5
 11
-40
 21
17.5
  0
LINE
  8
0
  6
CONTINUOUS
 62
     7
 10
-39.49922561645508
 20
26.99929237365723
 11
-39.99922943115234
 21
26.49929428100586
  0
LINE
  8
0
  6
CONTINUOUS
 62
     7
 10
-39.9991569519043
 20
17.49930191040039
 11
-39.49920654296875
 21
16.99935913085938
  0
LINE
  8
0
  6
CONTINUOUS
 62
     7
 10
-35.809326171875
 20
17
 11
-39.5
 21
17
  0
LINE
  8
0
  6
DASHED
 62
     7
 10
-30.25
 20
17
 11
-35.809326171875
 21
17
  0
LINE
  8
0
  6
CONTINUOUS
 62
     7
 10
-28.99990844726563
 20
4
 11
-29.32177734375
 21
4
  0
LINE
  8
0
  6
DASHED
 62
     7
 10
-30.25
 20
17
 11
-30.25
 21
4.228424072265625
  0
LINE
  8
0
  6
DASHED
 62
     7
 10
-38
 20
27
 11
-38
 21
17
  0
LINE
  8
0
  6
DASHED
 62
     7
 10
-37.64990234375
 20
27
 11
-37.64990234375
 21
17
  0
LINE
  8
0
  6
DASHED
 62
     7
 10
-4.75
 20
20.9999942779541
 11
-4.75
 21
16.89999389648438
  0
LINE
  8
0
  6
CONTINUOUS
 62
     7
 10
6
 20
0
 11
20.5
 21
0
  0
LINE
  8
0
  6
CENTER
 62
     7
 10
0
 20
28.66996765136719
 11
0
 21
-1
  0
LINE
  8
0
  6
CONTINUOUS
 62
     7
 10
21
 20
12.66000366210938
 11
21
 21
11.33999633789063
  0
LINE
  8
0
  6
CONTINUOUS
 62
     7
 10
6
 20
15
 11
18.66015625
 21
15
  0
LINE
  8
0
  6
CONTINUOUS
 62
     7
 10
18.10009765625
 20
8.44000244140625
 11
18.10009765625
 21
4.649993896484375
  0
LINE
  8
0
  6
CONTINUOUS
 62
     7
 10
18.10059547424316
 20
4.649689197540283
 11
21.00059509277344
 21
2.975373506546021
  0
LINE
  8
0
  6
CONTINUOUS
 62
     7
 10
18.10070991516113
 20
8.43934440612793
 11
19.19351387023926
 21
9.532146453857422
  0
LINE
  8
0
  6
CONTINUOUS
 62
     7
 10
21.00085830688477
 20
12.65924263000488
 11
20.60000228881836
 21
13.06009769439697
  0
LINE
  8
0
  6
CONTINUOUS
 62
     7
 10
21
 20
2.975677490234375
 11
21
 21
0.5
  0
LINE
  8
0
  6
CONTINUOUS
 62
     7
 10
20.59991455078125
 20
10.93854808807373
 11
21.00071525573731
 21
11.3393497467041
  0
LINE
  8
0
  6
CONTINUOUS
 62
     7
 10
20.50033569335938
 20
-0.0002663680934347212
 11
21.00033569335938
 21
0.4997341632843018
  0
LINE
  8
0
  6
CONTINUOUS
 62
     7
 10
5.000739574432373
 20
13.99931716918945
 11
6.000741004943848
 21
14.99931812286377
  0
LINE
  8
0
  6
CONTINUOUS
 62
     7
 10
5.000643730163574
 20
0.9994736313819885
 11
6.000705718994141
 21
-0.0005959591362625361
  0
LINE
  8
0
  6
CONTINUOUS
 62
     7
 10
40
 20
26.5
 11
40
 21
17.5
  0
LINE
  8
0
  6
CONTINUOUS
 62
     7
 10
35.8095703125
 20
17
 11
39.5
 21
17
  0
LINE
  8
0
  6
CONTINUOUS
 62
     7
 10
26.485107421875
 20
4
 11
29
 21
4
  0
LINE
  8
0
  6
CONTINUOUS
 62
     7
 10
31.29247093200684
 20
5.652510643005371
 11
32.85616683959961
 21
14.52067184448242
  0
LINE
  8
0
  6
CONTINUOUS
 62
     7
 10
39.50032806396484
 20
26.99978065490723
 11
40.00045013427734
 21
26.49966621398926
  0
LINE
  8
0
  6
CONTINUOUS
 62
     7
 10
40.0003776550293
 20
17.49966621398926
 11
39.5003776550293
 21
16.99966621398926
  0
LINE
  8
0
  6
CONTINUOUS
 62
     7
 10
19.00083160400391
 20
26.49922370910645
 11
19.50083160400391
 21
26.99922370910645
  0
LINE
  8
0
  6
CONTINUOUS
 62
     7
 10
8.000753402709961
 20
26.49930763244629
 11
7.500806331634522
 21
26.99925422668457
  0
LINE
  8
0
  6
CONTINUOUS
 62
     7
 10
19.5
 20
27
 11
39.5
 21
27
  0
LINE
  8
0
  6
CENTER
 62
     7
 10
35
 20
28
 11
35
 21
14.21432495117188
  0
LINE
  8
0
  6
CONTINUOUS
 62
     7
 10
26.485107421875
 20
4.70001220703125
 11
26.485107421875
 21
4
  0
LINE
  8
0
  6
CONTINUOUS
 62
     7
 10
30.50009727478027
 20
5.499954700469971
 11
29.00009536743164
 21
3.999953031539917
  0
LINE
  8
0
  6
CONTINUOUS
 62
     7
 10
29.000732421875
 20
3.999919891357422
 11
29.32275390625
 21
3.999919891357422
  0
LINE
  8
0
  6
CONTINUOUS
 62
     7
 10
26.2001953125
 20
4.599990844726563
 11
26.2001953125
 21
4
  0
LINE
  8
0
  6
CONTINUOUS
 62
     7
 10
26.2001953125
 20
4
 11
20.7001953125
 21
4
  0
LINE
  8
0
  6
CONTINUOUS
 62
     7
 10
20.10009765625
 20
4.70001220703125
 11
20.10009765625
 21
4.599990844726563
  0
LINE
  8
0
  6
CONTINUOUS
 62
     7
 10
26.485107421875
 20
4.599990844726563
 11
20.7001953125
 21
4.599990844726563
  0
LINE
  8
0
  6
CONTINUOUS
 62
     7
 10
20.7001953125
 20
4.70001220703125
 11
20.7001953125
 21
4.599990844726563
  0
LINE
  8
0
  6
CENTER
 62
     7
 10
24
 20
6.536895751953125
 11
24
 21
2
  0
LINE
  8
0
  6
CONTINUOUS
 62
     7
 10
30.5
 20
25
 11
30.5
 21
5.5
  0
LINE
  8
0
  6
CONTINUOUS
 62
     7
 10
29.00012016296387
 20
26.50000190734863
 11
30.50069999694824
 21
24.99941253662109
  0
LINE
  8
0
  6
CONTINUOUS
 62
     7
 10
30.50019264221191
 20
5.699872016906738
 11
29.50018310546875
 21
4.699880599975586
  0
LINE
  8
0
  6
CONTINUOUS
 62
     7
 10
19.19355583190918
 20
14.4665412902832
 11
18.66080856323242
 21
14.99928855895996
  0
LINE
  8
0
  6
CONTINUOUS
 62
     7
 10
4.089537143707275
 20
16.19931602478027
 11
5.089538097381592
 21
17.19931602478027
  0
LINE
  8
0
  6
CONTINUOUS
 62
     7
 10
5.0888671875
 20
17.20001220703125
 11
19.5712890625
 21
17.20001220703125
  0
LINE
  8
0
  6
CONTINUOUS
 62
     7
 10
23.20054244995117
 20
13.57082557678223
 11
19.57195663452148
 21
17.19940567016602
  0
LINE
  8
0
  6
CONTINUOUS
 62
     7
 10
23.2001953125
 20
13.5712890625
 11
23.2001953125
 21
10.42877197265625
  0
LINE
  8
0
  6
CONTINUOUS
 62
     7
 10
20.30049324035645
 20
7.528357028961182
 11
23.20049858093262
 21
10.4283618927002
  0
LINE
  8
0
  6
CONTINUOUS
 62
     7
 10
20.300048828125
 20
7.528762817382813
 11
20.300048828125
 21
4.70001220703125
  0
LINE
  8
0
  6
CONTINUOUS
 62
     7
 10
18.10037803649902
 20
5.399735450744629
 11
18.8004150390625
 21
4.699714183807373
  0
LINE
  8
0
  6
CONTINUOUS
 62
     7
 10
-28.999755859375
 20
4
 11
-26.48486328125
 21
4
  0
LINE
  8
0
  6
CONTINUOUS
 62
     7
 10
-26.48486328125
 20
4
 11
-26.48486328125
 21
4.70001220703125
  0
LINE
  8
0
  6
CONTINUOUS
 62
     7
 10
-28.99910354614258
 20
3.999240875244141
 11
-30.49911499023438
 21
5.499253273010254
  0
LINE
  8
0
  6
CONTINUOUS
 62
     7
 10
-25.499755859375
 20
3.645889282226563
 11
-25.499755859375
 21
4
  0
LINE
  8
0
  6
CONTINUOUS
 62
     7
 10
-22.499755859375
 20
3.645889282226563
 11
-22.499755859375
 21
4
  0
LINE
  8
0
  6
CONTINUOUS
 62
     7
 10
-26.199951171875
 20
4
 11
-26.199951171875
 21
4.599990844726563
  0
LINE
  8
0
  6
CONTINUOUS
 62
     7
 10
-20.699951171875
 20
4
 11
-26.199951171875
 21
4
  0
LINE
  8
0
  6
CONTINUOUS
 62
     7
 10
-20.099853515625
 20
4.599990844726563
 11
-20.099853515625
 21
4.70001220703125
  0
LINE
  8
0
  6
CONTINUOUS
 62
     7
 10
-20.699951171875
 20
4.599990844726563
 11
-26.48486328125
 21
4.599990844726563
  0
LINE
  8
0
  6
CONTINUOUS
 62
     7
 10
-20.699951171875
 20
4.599990844726563
 11
-20.699951171875
 21
4.70001220703125
  0
LINE
  8
0
  6
CENTER
 62
     7
 10
-23.999755859375
 20
2
 11
-23.999755859375
 21
6.536895751953125
  0
LINE
  8
0
  6
CONTINUOUS
 62
     7
 10
-29.499755859375
 20
4.70001220703125
 11
-18.7998046875
 21
4.70001220703125
  0
LINE
  8
0
  6
CONTINUOUS
 62
     7
 10
-30.5
 20
5.5
 11
-30.5
 21
25.0001106262207
  0
LINE
  8
0
  6
CONTINUOUS
 62
     7
 10
-29.49919891357422
 20
4.69939661026001
 11
-30.49927520751953
 21
5.69945240020752
  0
LINE
  8
0
  6
CONTINUOUS
 62
     7
 10
-19.571044921875
 20
17.20001220703125
 11
-5.09023380279541
 21
17.20001220703125
  0
LINE
  8
0
  6
CONTINUOUS
 62
     7
 10
-19.57032585144043
 20
17.1992073059082
 11
-23.19906425476074
 21
13.57047462463379
  0
LINE
  8
0
  6
CONTINUOUS
 62
     7
 10
-23.199951171875
 20
10.42877197265625
 11
-23.199951171875
 21
13.5712890625
  0
LINE
  8
0
  6
CONTINUOUS
 62
     7
 10
-23.19910621643066
 20
10.42795848846436
 11
-20.29920768737793
 21
7.528060913085938
  0
LINE
  8
0
  6
CONTINUOUS
 62
     7
 10
-20.2998046875
 20
4.70001220703125
 11
-20.2998046875
 21
7.528762817382813
  0
LINE
  8
0
  6
CONTINUOUS
 62
     7
 10
-18.79923629760742
 20
4.699343681335449
 11
-18.09920120239258
 21
5.399364471435547
  0
LINE
  8
0
  6
CONTINUOUS
 62
     7
 10
0
 20
26
 11
29.5
 21
26
  0
LINE
  8
0
  6
CONTINUOUS
 62
     7
 10
4.089111328125
 20
16.20005798339844
 11
-4.089111328125
 21
16.20005798339844
  0
LINE
  8
0
  6
CENTER
 62
     7
 10
-12
 20
16
 11
-12
 21
-1
  0
LINE
  8
0
  6
DASHED
 62
     7
 10
-8.25
 20
9.699996948242188
 11
-15.75
 21
9.699996948242188
  0
LINE
  8
0
  6
DASHED
 62
     7
 10
-15.75
 20
15
 11
-15.75
 21
9.699996948242188
  0
LINE
  8
0
  6
DASHED
 62
     7
 10
-8.25
 20
15
 11
-8.25
 21
9.699996948242188
  0
LINE
  8
0
  6
DASHED
 62
     7
 10
-14.25
 20
9.699996948242188
 11
-14.25
 21
0
  0
LINE
  8
0
  6
DASHED
 62
     7
 10
-9.75
 20
9.699996948242188
 11
-9.75
 21
0
  0
LINE
  8
0
  6
CENTER
 62
     7
 10
12
 20
16
 11
12
 21
-1
  0
LINE
  8
0
  6
CONTINUOUS
 62
     7
 10
-31.29035186767578
 20
5.652814388275147
 11
-32.85405731201172
 21
14.52106761932373
  0
LINE
  8
0
  6
CENTER
 62
     7
 10
131.7997589111328
 20
21.0003547668457
 11
147.7283477783203
 21
21.0003547668457
  0
LINE
  8
0
  6
CONTINUOUS
 62
     7
 10
142.999755859375
 20
16.8803596496582
 11
142.999755859375
 21
25.12033462524414
  0
LINE
  8
0
  6
CONTINUOUS
 62
     7
 10
139.999755859375
 20
25.0003547668457
 11
142.999755859375
 21
25.0003547668457
  0
LINE
  8
0
  6
CONTINUOUS
 62
     7
 10
144.999755859375
 20
25.6203498840332
 11
143.499755859375
 21
25.6203498840332
  0
LINE
  8
0
  6
CONTINUOUS
 62
     7
 10
144.999755859375
 20
23.31035232543945
 11
142.999755859375
 21
23.31035232543945
  0
LINE
  8
0
  6
CONTINUOUS
 62
     7
 10
144.1827239990234
 20
16.3803596496582
 11
143.499755859375
 21
16.3803596496582
  0
LINE
  8
0
  6
CONTINUOUS
 62
     7
 10
144.999755859375
 20
18.69035720825195
 11
142.999755859375
 21
18.69035720825195
  0
LINE
  8
0
  6
CONTINUOUS
 62
     7
 10
143.499755859375
 20
16.38035011291504
 11
142.999755859375
 21
16.88035011291504
  0
LINE
  8
0
  6
CONTINUOUS
 62
     7
 10
142.999755859375
 20
25.12033081054688
 11
143.499755859375
 21
25.62032127380371
  0
LINE
  8
0
  6
CONTINUOUS
 62
     7
 10
141.0997467041016
 20
17.5003547668457
 11
135.8997497558594
 21
17.5003547668457
  0
LINE
  8
0
  6
CONTINUOUS
 62
     7
 10
141.0997467041016
 20
17.46034622192383
 11
141.0997467041016
 21
17.5003547668457
  0
LINE
  8
0
  6
CONTINUOUS
 62
     7
 10
142.5997772216797
 20
21.00036811828613
 11
141.0997772216797
 21
17.50036430358887
  0
LINE
  8
0
  6
CONTINUOUS
 62
     7
 10
141.6997985839844
 20
21.0003662109375
 11
140.0998077392578
 21
17.5003776550293
  0
LINE
  8
0
  6
CONTINUOUS
 62
     7
 10
135.8997497558594
 20
17.50034904479981
 11
135.4997406005859
 21
18.08036613464356
  0
LINE
  8
0
  6
CONTINUOUS
 62
     7
 10
135.8997344970703
 20
24.50030899047852
 11
135.4997406005859
 21
23.92030334472656
  0
LINE
  8
0
  6
CONTINUOUS
 62
     7
 10
141.0997467041016
 20
24.5003547668457
 11
135.8997497558594
 21
24.5003547668457
  0
LINE
  8
0
  6
CONTINUOUS
 62
     7
 10
141.6997985839844
 20
21.00038719177246
 11
140.0997772216797
 21
24.50039672851563
  0
LINE
  8
0
  6
CONTINUOUS
 62
     7
 10
142.5997467041016
 20
21.00035095214844
 11
141.0997467041016
 21
24.5003547668457
  0
LINE
  8
0
  6
CONTINUOUS
 62
     7
 10
139.999755859375
 20
17.0003547668457
 11
142.999755859375
 21
17.0003547668457
  0
LINE
  8
0
  6
CONTINUOUS
 62
     7
 10
18.80011558532715
 20
4.70001220703125
 11
29.50031471252441
 21
4.70001220703125
  0
LINE
  8
0
  6
CONTINUOUS
 62
     7
 10
143.499755859375
 20
4.700016021728516
 11
146.499755859375
 21
4.700016021728516
  0
LINE
  8
0
  6
CONTINUOUS
 62
     7
 10
0
 20
26.5
 11
29
 21
26.5
  0
LINE
  8
0
  6
CONTINUOUS
 62
     7
 10
0
 20
26
 11
-29.5
 21
26
  0
LINE
  8
0
  6
CONTINUOUS
 62
     7
 10
0
 20
26.5
 11
-29
 21
26.5
  0
LINE
  8
0
  6
CONTINUOUS
 62
     7
 10
-29.00012016296387
 20
26.50000190734863
 11
-30.50069999694824
 21
24.99941253662109
  0
LINE
  8
0
  6
DASHED
 62
     7
 10
4.75
 20
20.9999942779541
 11
-4.75
 21
20.9999942779541
  0
LINE
  8
0
  6
DASHED
 62
     7
 10
4.75
 20
20.9999942779541
 11
4.75
 21
16.89999389648438
  0
LINE
  8
0
  6
DASHED
 62
     7
 10
2.64990234375
 20
27
 11
2.64990234375
 21
20.9999942779541
  0
LINE
  8
0
  6
DASHED
 62
     7
 10
3
 20
27
 11
3
 21
21
  0
LINE
  8
0
  6
CONTINUOUS
 62
     7
 10
-4.089537143707275
 20
16.19931602478027
 11
-5.089538097381592
 21
17.19931602478027
  0
LINE
  8
0
  6
DASHED
 62
     7
 10
6.97509765625
 20
16.89999389648438
 11
-6.97509765625
 21
16.89999389648438
  0
LINE
  8
0
  6
CENTER
 62
     7
 10
-6.187794208526611
 20
21
 11
13.30998229980469
 21
21
  0
LINE
  8
0
  6
CONTINUOUS
 62
     7
 10
1.779998779296875
 20
24.5
 11
5.8599853515625
 21
24.5
  0
LINE
  8
0
  6
CONTINUOUS
 62
     7
 10
1.779998779296875
 20
17.5
 11
5.8599853515625
 21
17.5
  0
LINE
  8
0
  6
CONTINUOUS
 62
     7
 10
1.129988551139832
 20
20.99996376037598
 11
1.779982447624207
 21
17.49996185302734
  0
LINE
  8
0
  6
CONTINUOUS
 62
     7
 10
1.129988431930542
 20
20.99997711181641
 11
1.779979467391968
 21
24.49996376037598
  0
LINE
  8
0
  6
CONTINUOUS
 62
     7
 10
3.440002918243408
 20
20.99995803833008
 11
4.090013980865479
 21
17.49994659423828
  0
LINE
  8
0
  6
CONTINUOUS
 62
     7
 10
3.439975738525391
 20
20.99997329711914
 11
4.089986801147461
 21
24.49998474121094
  0
LINE
  8
0
  6
CONTINUOUS
 62
     7
 10
5.950003623962402
 20
17.96998023986816
 11
5.859991550445557
 21
17.49997711181641
  0
LINE
  8
0
  6
CONTINUOUS
 62
     7
 10
5.950027465820313
 20
24.02000427246094
 11
5.860019683837891
 21
24.4999942779541
  0
LINE
  8
0
  6
CONTINUOUS
 62
     7
 10
7.76594877243042
 20
17.75428771972656
 11
10.51998043060303
 21
18.49996376037598
  0
LINE
  8
0
  6
CONTINUOUS
 62
     7
 10
7.749973773956299
 20
24.24999237060547
 11
10.51998615264893
 21
23.49999046325684
  0
LINE
  8
0
  6
CONTINUOUS
 62
     7
 10
0.0004943106905557215
 20
16.38089179992676
 11
1.947718262672424
 21
17.5
  0
LINE
  8
0
  6
CONTINUOUS
 62
     7
 10
0.0005123562877997756
 20
16.38090324401856
 11
-4.000514984130859
 21
18.69089698791504
  0
LINE
  8
0
  6
CONTINUOUS
 62
     7
 10
-4.000481605529785
 20
18.69089317321777
 11
-4.000998497009277
 21
23.30999183654785
  0
LINE
  8
0
  6
CONTINUOUS
 62
     7
 10
-4.001014232635498
 20
23.31000137329102
 11
-0.0004916776088066399
 21
25.61910820007324
  0
LINE
  8
0
  6
CONTINUOUS
 62
     7
 10
-0.0005163948517292738
 20
25.61909866333008
 11
1.937821865081787
 21
24.49999809265137
  0
LINE
  8
0
  6
CONTINUOUS
 62
     7
 10
213.4997406005859
 20
4.700016021728516
 11
216.4997406005859
 21
4.700016021728516
  0
LINE
  8
0
  6
CONTINUOUS
 62
     7
 10
70
 20
15.00000381469727
 11
70
 21
0
  0
LINE
  8
0
  6
DASHED
 62
     7
 10
92.25
 20
9.700000762939453
 11
92.25
 21
3.814697265625E-006
  0
LINE
  8
0
  6
DASHED
 62
     7
 10
87.75
 20
9.700000762939453
 11
87.75
 21
3.814697265625E-006
  0
LINE
  8
0
  6
DASHED
 62
     7
 10
93.75
 20
15.00000381469727
 11
93.75
 21
9.700000762939453
  0
LINE
  8
0
  6
DASHED
 62
     7
 10
86.25
 20
15.00000381469727
 11
86.25
 21
9.700000762939453
  0
LINE
  8
0
  6
DASHED
 62
     7
 10
93.75
 20
9.700000762939453
 11
86.25
 21
9.700000762939453
  0
LINE
  8
0
  6
CENTER
 62
     7
 10
90
 20
16.00000381469727
 11
90
 21
-0.9999961853027344
  0
LINE
  8
0
  6
CENTER
 62
     7
 10
150
 20
5
 11
150
 21
-0.9999961853027344
  0
LINE
  8
0
  6
CENTER
 62
     7
 10
210
 20
5
 11
210
 21
-0.9999961853027344
  0
LINE
  8
0
  6
CENTER
 62
     7
 10
270
 20
16.00000381469727
 11
270
 21
-0.9999961853027344
  0
LINE
  8
0
  6
CONTINUOUS
 62
     7
 10
290
 20
15.00000381469727
 11
290
 21
0
  0
LINE
  8
0
  6
CONTINUOUS
 62
     7
 10
70
 20
2.975717544555664
 11
290
 21
2.975717544555664
  0
LINE
  8
0
  6
CONTINUOUS
 62
     7
 10
70
 20
4.64997673034668
 11
146.499755859375
 21
4.64997673034668
  0
LINE
  8
0
  6
CONTINUOUS
 62
     7
 10
70
 20
8.438731193542481
 11
143.499755859375
 21
8.438731193542481
  0
LINE
  8
0
  6
CONTINUOUS
 62
     7
 10
70
 20
11.33863353729248
 11
143.499755859375
 21
11.33863353729248
  0
LINE
  8
0
  6
CONTINUOUS
 62
     7
 10
70
 20
12.66010189056397
 11
143.499755859375
 21
12.66010189056397
  0
LINE
  8
0
  6
CONTINUOUS
 62
     7
 10
289.99951171875
 20
11.33863353729248
 11
216.499755859375
 21
11.33863353729248
  0
LINE
  8
0
  6
CONTINUOUS
 62
     7
 10
289.99951171875
 20
4.64997673034668
 11
213.499755859375
 21
4.64997673034668
  0
LINE
  8
0
  6
CONTINUOUS
 62
     7
 10
289.99951171875
 20
8.438731193542481
 11
216.499755859375
 21
8.438731193542481
  0
LINE
  8
0
  6
CONTINUOUS
 62
     7
 10
289.99951171875
 20
12.66010189056397
 11
216.499755859375
 21
12.66010189056397
  0
LINE
  8
0
  6
CONTINUOUS
 62
     7
 10
144.999755859375
 20
96.5
 11
154.099853515625
 21
96.5
  0
LINE
  8
0
  6
CONTINUOUS
 62
     7
 10
70
 20
106
 11
143.499755859375
 21
106
  0
LINE
  8
0
  6
CONTINUOUS
 62
     7
 10
154.099853515625
 20
119.4999389648438
 11
205.899658203125
 21
119.4999389648438
  0
LINE
  8
0
  6
CENTER
 62
     7
 10
159.999755859375
 20
96
 11
159.999755859375
 21
88
  0
LINE
  8
0
  6
CENTER
 62
     7
 10
155.999755859375
 20
92
 11
163.999755859375
 21
92
  0
LINE
  8
0
  6
CONTINUOUS
 62
     7
 10
143.499755859375
 20
105.3000030517578
 11
144.999755859375
 21
103.8000030517578
  0
LINE
  8
0
  6
CONTINUOUS
 62
     7
 10
142.9997711181641
 20
122.9999847412109
 11
142.9997711181641
 21
130.9999847412109
  0
LINE
  8
0
  6
CONTINUOUS
 62
     7
 10
139.6998596191406
 20
131
 11
142.9997711181641
 21
131
  0
LINE
  8
0
  6
CONTINUOUS
 62
     7
 10
141.3198852539063
 20
123
 11
142.9997711181641
 21
123
  0
LINE
  8
0
  6
CONTINUOUS
 62
     7
 10
135.6998596191406
 20
127
 11
135.6998596191406
 21
125.327880859375
  0
LINE
  8
0
  6
CONTINUOUS
 62
     7
 10
142.999755859375
 20
131
 11
144.999755859375
 21
131
  0
LINE
  8
0
  6
CONTINUOUS
 62
     7
 10
142.999755859375
 20
123
 11
144.999755859375
 21
123
  0
LINE
  8
0
  6
CENTER
 62
     7
 10
135.2516174316406
 20
115.4778823852539
 11
140.1169281005859
 21
127.2237701416016
  0
LINE
  8
0
  6
CONTINUOUS
 62
     7
 10
133.4825439453125
 20
117.4784469604492
 11
137.9171600341797
 21
115.6415634155273
  0
LINE
  8
0
  6
CONTINUOUS
 62
     7
 10
133.6843109130859
 20
120.3173446655273
 11
139.7819061279297
 21
117.791633605957
  0
LINE
  8
0
  6
CONTINUOUS
 62
     7
 10
133.4825439453125
 20
117.4784469604492
 11
133.6843109130859
 21
120.3173446655273
  0
LINE
  8
0
  6
CONTINUOUS
 62
     7
 10
137.9171752929688
 20
115.6415634155273
 11
139.7819213867188
 21
117.791633605957
  0
LINE
  8
0
  6
CONTINUOUS
 62
     7
 10
134.4230194091797
 20
124.0381851196289
 11
134.8376922607422
 21
125.0392532348633
  0
LINE
  8
0
  6
CONTINUOUS
 62
     7
 10
141.8906097412109
 20
120.9450149536133
 11
142.3052673339844
 21
121.9460754394531
  0
LINE
  8
0
  6
CONTINUOUS
 62
     7
 10
135.6171112060547
 20
125.3620834350586
 11
134.8376770019531
 21
125.0392303466797
  0
LINE
  8
0
  6
CONTINUOUS
 62
     7
 10
136.0603179931641
 20
122.7105865478516
 11
136.9328918457031
 21
124.8171539306641
  0
LINE
  8
0
  6
CONTINUOUS
 62
     7
 10
139.7940979003906
 20
121.1640167236328
 11
140.6666564941406
 21
123.2705688476563
  0
LINE
  8
0
  6
CONTINUOUS
 62
     7
 10
135.6171417236328
 20
125.3621597290039
 11
141.9824371337891
 21
122.7255706787109
  0
LINE
  8
0
  6
CONTINUOUS
 62
     7
 10
142.3052673339844
 20
121.9460601806641
 11
141.9824066162109
 21
122.7255096435547
  0
LINE
  8
0
  6
CONTINUOUS
 62
     7
 10
134.8145904541016
 20
121.7394943237305
 11
139.9882965087891
 21
119.5964584350586
  0
LINE
  8
0
  6
CONTINUOUS
 62
     7
 10
134.6528015136719
 20
123.2936019897461
 11
141.2015991210938
 21
120.5810012817383
  0
LINE
  8
0
  6
CONTINUOUS
 62
     7
 10
70
 20
108.3399047851563
 11
143.499755859375
 21
108.3399047851563
  0
LINE
  8
0
  6
CONTINUOUS
 62
     7
 10
143.499755859375
 20
123
 11
143.499755859375
 21
105.3000030517578
  0
LINE
  8
0
  6
CONTINUOUS
 62
     7
 10
141.9127960205078
 20
120.9985809326172
 11
143.499755859375
 21
120.9985809326172
  0
LINE
  8
0
  6
CENTER
 62
     7
 10
90
 20
119.75
 11
90
 21
110.25
  0
LINE
  8
0
  6
CENTER
 62
     7
 10
85.25
 20
115
 11
94.75
 21
115
  0
LINE
  8
0
  6
CONTINUOUS
 62
     7
 10
70
 20
120.9985809326172
 11
134.0665588378906
 21
120.9985809326172
  0
LINE
  8
0
  6
CONTINUOUS
 62
     7
 10
154.099853515625
 20
87
 11
154.099853515625
 21
167
  0
LINE
  8
0
  6
CONTINUOUS
 62
     7
 10
144.999755859375
 20
96.5
 11
144.999755859375
 21
157.5
  0
LINE
  8
0
  6
CENTER
 62
     7
 10
90
 20
134.25
 11
90
 21
143.75
  0
LINE
  8
0
  6
CONTINUOUS
 62
     7
 10
144.999755859375
 20
157.5
 11
154.099853515625
 21
157.5
  0
LINE
  8
0
  6
CONTINUOUS
 62
     7
 10
146.499755859375
 20
96.5
 11
146.499755859375
 21
157.5
  0
LINE
  8
0
  6
CONTINUOUS
 62
     7
 10
70
 20
148
 11
143.499755859375
 21
148
  0
LINE
  8
0
  6
CENTER
 62
     7
 10
155.999755859375
 20
162
 11
163.999755859375
 21
162
  0
LINE
  8
0
  6
CONTINUOUS
 62
     7
 10
70
 20
106
 11
70
 21
148
  0
LINE
  8
0
  6
CENTER
 62
     7
 10
159.999755859375
 20
158
 11
159.999755859375
 21
166
  0
LINE
  8
0
  6
CONTINUOUS
 62
     7
 10
143.499755859375
 20
148.6999969482422
 11
144.999755859375
 21
150.1999969482422
  0
LINE
  8
0
  6
CONTINUOUS
 62
     7
 10
70
 20
133.0014190673828
 11
143.499755859375
 21
133.0014190673828
  0
LINE
  8
0
  6
CONTINUOUS
 62
     7
 10
70
 20
145.6600952148438
 11
143.499755859375
 21
145.6600952148438
  0
LINE
  8
0
  6
CONTINUOUS
 62
     7
 10
143.499755859375
 20
131
 11
143.499755859375
 21
148.6999969482422
  0
LINE
  8
0
  6
CENTER
 62
     7
 10
85.25
 20
139
 11
94.75
 21
139
  0
LINE
  8
0
  6
CENTER
 62
     7
 10
269.99951171875
 20
119.75
 11
269.99951171875
 21
110.25
  0
LINE
  8
0
  6
CENTER
 62
     7
 10
290.99951171875
 20
127
 11
69
 21
127
  0
LINE
  8
0
  6
CONTINUOUS
 62
     7
 10
205.899658203125
 20
87
 11
154.099853515625
 21
87
  0
LINE
  8
0
  6
CONTINUOUS
 62
     7
 10
214.999755859375
 20
96.5
 11
205.899658203125
 21
96.5
  0
LINE
  8
0
  6
CONTINUOUS
 62
     7
 10
289.99951171875
 20
106
 11
216.499755859375
 21
106
  0
LINE
  8
0
  6
CONTINUOUS
 62
     7
 10
205.899658203125
 20
107.4983901977539
 11
154.099853515625
 21
107.4983901977539
  0
LINE
  8
0
  6
CENTER
 62
     7
 10
203.999755859375
 20
92
 11
195.999755859375
 21
92
  0
LINE
  8
0
  6
CENTER
 62
     7
 10
199.999755859375
 20
96
 11
199.999755859375
 21
88
  0
LINE
  8
0
  6
CONTINUOUS
 62
     7
 10
216.499755859375
 20
105.3000030517578
 11
214.999755859375
 21
103.8000030517578
  0
LINE
  8
0
  6
CONTINUOUS
 62
     7
 10
205.899658203125
 20
167
 11
154.099853515625
 21
167
  0
LINE
  8
0
  6
CONTINUOUS
 62
     7
 10
214.999755859375
 20
96.5
 11
214.999755859375
 21
157.5
  0
LINE
  8
0
  6
CONTINUOUS
 62
     7
 10
289.99951171875
 20
120.9985809326172
 11
216.499755859375
 21
120.9985809326172
  0
LINE
  8
0
  6
CONTINUOUS
 62
     7
 10
289.99951171875
 20
108.3399047851563
 11
216.499755859375
 21
108.3399047851563
  0
LINE
  8
0
  6
CENTER
 62
     7
 10
274.74951171875
 20
115
 11
265.24951171875
 21
115
  0
LINE
  8
0
  6
CENTER
 62
     7
 10
269.99951171875
 20
134.25
 11
269.99951171875
 21
143.75
  0
LINE
  8
0
  6
CONTINUOUS
 62
     7
 10
214.999755859375
 20
157.5
 11
205.899658203125
 21
157.5
  0
LINE
  8
0
  6
CONTINUOUS
 62
     7
 10
213.499755859375
 20
96.5
 11
213.499755859375
 21
157.5
  0
LINE
  8
0
  6
CONTINUOUS
 62
     7
 10
205.899658203125
 20
87
 11
205.899658203125
 21
167
  0
LINE
  8
0
  6
CONTINUOUS
 62
     7
 10
289.99951171875
 20
148
 11
216.499755859375
 21
148
  0
LINE
  8
0
  6
CONTINUOUS
 62
     7
 10
205.899658203125
 20
146.5016021728516
 11
154.099853515625
 21
146.5016021728516
  0
LINE
  8
0
  6
CONTINUOUS
 62
     7
 10
205.899658203125
 20
134.5000610351563
 11
154.099853515625
 21
134.5000610351563
  0
LINE
  8
0
  6
CENTER
 62
     7
 10
203.999755859375
 20
162
 11
195.999755859375
 21
162
  0
LINE
  8
0
  6
CONTINUOUS
 62
     7
 10
289.99951171875
 20
106
 11
289.99951171875
 21
148
  0
LINE
  8
0
  6
CENTER
 62
     7
 10
199.999755859375
 20
158
 11
199.999755859375
 21
166
  0
LINE
  8
0
  6
CONTINUOUS
 62
     7
 10
216.4997711181641
 20
148.7000122070313
 11
214.9997711181641
 21
150.2000122070313
  0
LINE
  8
0
  6
CONTINUOUS
 62
     7
 10
289.99951171875
 20
133.0014190673828
 11
216.499755859375
 21
133.0014190673828
  0
LINE
  8
0
  6
CONTINUOUS
 62
     7
 10
289.99951171875
 20
145.6600952148438
 11
216.499755859375
 21
145.6600952148438
  0
LINE
  8
0
  6
CONTINUOUS
 62
     7
 10
216.499755859375
 20
105.3000030517578
 11
216.499755859375
 21
148.6999969482422
  0
LINE
  8
0
  6
CENTER
 62
     7
 10
274.74951171875
 20
139
 11
265.24951171875
 21
139
  0
LINE
  8
0
  6
CENTER
 62
     7
 10
209.99951171875
 20
119.75
 11
209.99951171875
 21
110.25
  0
LINE
  8
0
  6
CENTER
 62
     7
 10
214.74951171875
 20
115
 11
205.24951171875
 21
115
  0
LINE
  8
0
  6
CENTER
 62
     7
 10
209.99951171875
 20
134.25
 11
209.99951171875
 21
143.75
  0
LINE
  8
0
  6
CENTER
 62
     7
 10
214.74951171875
 20
139
 11
205.24951171875
 21
139
  0
LINE
  8
0
  6
CENTER
 62
     7
 10
154.74951171875
 20
139
 11
145.24951171875
 21
139
  0
LINE
  8
0
  6
CENTER
 62
     7
 10
149.99951171875
 20
134.25
 11
149.99951171875
 21
143.75
  0
LINE
  8
0
  6
CENTER
 62
     7
 10
154.74951171875
 20
115
 11
145.24951171875
 21
115
  0
LINE
  8
0
  6
CENTER
 62
     7
 10
149.99951171875
 20
119.75
 11
149.99951171875
 21
110.25
  0
LINE
  8
0
  6
CENTER
 62
     7
 10
159.999755859375
 20
131
 11
159.999755859375
 21
123
  0
LINE
  8
0
  6
CENTER
 62
     7
 10
199.999755859375
 20
131
 11
199.999755859375
 21
123
  0
ARC
  8
0
  6
CONTINUOUS
 62
     7
 10
161
 20
3.645904541015625
 40
0.5000000000000039
 50
286.6019675563441
 51
0
  0
ARC
  8
0
  6
CONTINUOUS
 62
     7
 10
160
 20
7.000003814697266
 40
3.999999999999999
 50
253.3983962649163
 51
286.6016397072624
  0
ARC
  8
0
  6
CONTINUOUS
 62
     7
 10
159
 20
3.645904541015625
 40
0.5000000000000132
 50
179.9999640278213
 51
253.3979964714791
  0
ARC
  8
0
  6
CONTINUOUS
 62
     7
 10
160.000244140625
 20
7.341098785400391
 40
2.999999999999987
 50
189.999979332211
 51
349.9999985833597
  0
ARC
  8
0
  6
CONTINUOUS
 62
     7
 10
199.999755859375
 20
7.341098785400391
 40
2.999999999999987
 50
189.999979332211
 51
350.0000019984543
  0
ARC
  8
0
  6
CONTINUOUS
 62
     7
 10
-20.826904296875
 20
9.30499267578125
 40
1.649999618530274
 50
7.935805551341027
 51
82.06406717954292
  0
ARC
  8
0
  6
CONTINUOUS
 62
     7
 10
-20.826904296875
 20
14.69499206542969
 40
1.649999618530274
 50
277.9354410468368
 51
352.0646862222792
  0
ARC
  8
0
  6
CONTINUOUS
 62
     7
 10
-35.809326171875
 20
14
 40
2.999999999999998
 50
9.999916039275599
 51
90.0000025044782
  0
ARC
  8
0
  6
CONTINUOUS
 62
     7
 10
-29.32177734375
 20
6
 40
2
 50
190.0000339737243
 51
269.999963344576
  0
ARC
  8
0
  6
CONTINUOUS
 62
     7
 10
20.7001953125
 20
4.599990844726563
 40
0.5999999046325694
 50
179.9999640278213
 51
269.999946041732
  0
ARC
  8
0
  6
CONTINUOUS
 62
     7
 10
20.8271484375
 20
14.69499206542969
 40
1.649999618530274
 50
187.9355683159529
 51
262.0645402838284
  0
ARC
  8
0
  6
CONTINUOUS
 62
     7
 10
20.8271484375
 20
9.30499267578125
 40
1.649999618530273
 50
97.93584220676512
 51
172.0641584764803
  0
ARC
  8
0
  6
CONTINUOUS
 62
     7
 10
35.8095703125
 20
14
 40
2.999999999999999
 50
89.9999820139107
 51
170.000020667789
  0
ARC
  8
0
  6
CONTINUOUS
 62
     7
 10
29.322021484375
 20
6
 40
2
 50
270.0000179860894
 51
349.999964432414
  0
ARC
  8
0
  6
CONTINUOUS
 62
     7
 10
-22.999755859375
 20
3.645889282226563
 40
0.5000000000000003
 50
286.6020221978561
 51
3.597217807488161E-005
  0
ARC
  8
0
  6
CONTINUOUS
 62
     7
 10
-24.999755859375
 20
3.645889282226563
 40
0.4999999999999991
 50
180.0000359721787
 51
253.398068415836
  0
ARC
  8
0
  6
CONTINUOUS
 62
     7
 10
-20.699951171875
 20
4.599990844726563
 40
0.599999904632568
 50
270.0000726276028
 51
3.59721780590253E-005
  0
ARC
  8
0
  6
CONTINUOUS
 62
     7
 10
-23.999755859375
 20
7
 40
4
 50
253.3983962649163
 51
286.6016397072624
  0
ARC
  8
0
  6
CONTINUOUS
 62
     7
 10
139.9998321533203
 20
21.00041580200195
 40
3.999999999999998
 50
89.99998201391055
 51
118.4958044387708
  0
ARC
  8
0
  6
CONTINUOUS
 62
     7
 10
139.9998321533203
 20
21.00041580200195
 40
3.982465744018556
 50
241.5040862782025
 51
269.9999087030627
  0
ARC
  8
0
  6
CONTINUOUS
 62
     7
 10
7.610000610351563
 20
18.70999145507813
 40
0.9683421850204466
 50
215.3314570768741
 51
278.2972225067941
  0
ARC
  8
0
  6
CONTINUOUS
 62
     7
 10
6.620010375976563
 20
16.91999816894531
 40
1.246148109436035
 50
80.76452806729958
 51
142.1250351177266
  0
ARC
  8
0
  6
CONTINUOUS
 62
     7
 10
6.620010375976563
 20
25.08000183105469
 40
1.254199028015136
 50
217.8749648822735
 51
279.2353626496737
  0
ARC
  8
0
  6
CONTINUOUS
 62
     7
 10
7.610000610351563
 20
23.28999328613281
 40
0.9701611399650563
 50
81.7028867762326
 51
144.668542923126
  0
ARC
  8
0
  6
CONTINUOUS
 62
     7
 10
0
 20
21
 40
4
 50
240.0000239814524
 51
241.0449882829511
  0
ARC
  8
0
  6
CONTINUOUS
 62
     7
 10
0
 20
21
 40
3.998106002807619
 50
61.09402038976974
 51
298.9059076658729
  0
CIRCLE
  8
0
  6
CONTINUOUS
 62
     7
 10
159.999755859375
 20
92
 40
2.649658203125
  0
CIRCLE
  8
0
  6
CONTINUOUS
 62
     7
 10
159.999755859375
 20
92
 40
2.999755859375
  0
ARC
  8
0
  6
CONTINUOUS
 62
     7
 10
136.7331085205078
 20
119.0544738769531
 40
3.299999237060557
 50
131.5803705110075
 51
157.4999548639651
  0
ARC
  8
0
  6
CONTINUOUS
 62
     7
 10
136.7331085205078
 20
119.0544738769531
 40
3.29999923706055
 50
337.5000181569006
 51
3.419602296415186
  0
ARC
  8
0
  6
CONTINUOUS
 62
     7
 10
128.8167572021484
 20
121.9005737304688
 40
6.00000000000001
 50
2.43365082934552
 51
20.87173987704913
  0
ARC
  8
0
  6
CONTINUOUS
 62
     7
 10
144.3432922363281
 20
115.4692687988281
 40
6.000000000000011
 50
114.1278165022775
 51
132.5663219780771
  0
ARC
  8
0
  6
CONTINUOUS
 62
     7
 10
134.0120544433594
 20
122.1213684082031
 40
0.7999999523162822
 50
311.5798327472963
 51
2.433049772698627
  0
ARC
  8
0
  6
CONTINUOUS
 62
     7
 10
140.8257904052734
 20
119.2990264892578
 40
0.7999999523162747
 50
132.5669776762372
 51
183.4201402735702
  0
ARC
  8
0
  6
CONTINUOUS
 62
     7
 10
139.6998596191406
 20
127
 40
3.999999999999998
 50
89.99998201391055
 51
180.0000186693347
  0
CIRCLE
  8
0
  6
CONTINUOUS
 62
     7
 10
90
 20
115
 40
2.25
  0
CIRCLE
  8
0
  6
CONTINUOUS
 62
     7
 10
90
 20
115
 40
3.75
  0
POLYLINE
  8
0
  6
CONTINUOUS
 62
     7
 66
     1
 10
0
 20
0
 70
     1
  0
VERTEX
  8
0
  6
CONTINUOUS
 62
     7
 10
135.6998138427734
 20
23.50041580200195
 42
0.1103779520063994
  0
VERTEX
  8
0
  6
CONTINUOUS
 62
     7
 10
134.7876567222992
 20
23.29539924859149
 42
0.1025061031735743
  0
VERTEX
  8
0
  6
CONTINUOUS
 62
     7
 10
134.0403225722387
 20
22.73139134631064
 42
0.09328986082783242
  0
VERTEX
  8
0
  6
CONTINUOUS
 62
     7
 10
133.5627170481672
 20
21.92449935738045
 42
0.0878208606114132
  0
VERTEX
  8
0
  6
CONTINUOUS
 62
     7
 10
133.3998260498047
 20
21.00040054321289
 42
0.08777251647264681
  0
VERTEX
  8
0
  6
CONTINUOUS
 62
     7
 10
133.562553259796
 20
20.07678247989187
 42
0.09326058119589244
  0
VERTEX
  8
0
  6
CONTINUOUS
 62
     7
 10
134.0398509302177
 20
19.26997672333469
 42
0.1026309012351308
  0
VERTEX
  8
0
  6
CONTINUOUS
 62
     7
 10
134.788057602635
 20
18.70524534464353
 42
0.1103318032912838
  0
VERTEX
  8
0
  6
CONTINUOUS
 62
     7
 10
135.6998443603516
 20
18.50041580200195
 42
0.1103779360552191
  0
VERTEX
  8
0
  6
CONTINUOUS
 62
     7
 10
136.6120015375626
 20
18.70543211881627
 42
0.1025061431326011
  0
VERTEX
  8
0
  6
CONTINUOUS
 62
     7
 10
137.3593357996355
 20
19.26943986466547
 42
0.09328991636955454
  0
VERTEX
  8
0
  6
CONTINUOUS
 62
     7
 10
137.836941324775
 20
20.07633184538955
 42
0.08782093157660063
  0
VERTEX
  8
0
  6
CONTINUOUS
 62
     7
 10
137.9998321533203
 20
21.00043106079101
 42
0.08777249801794655
  0
VERTEX
  8
0
  6
CONTINUOUS
 62
     7
 10
137.8371046042334
 20
21.92404906676179
 42
0.09326051320023578
  0
VERTEX
  8
0
  6
CONTINUOUS
 62
     7
 10
137.3598067793722
 20
22.73085474138019
 42
0.1026308476639614
  0
VERTEX
  8
0
  6
CONTINUOUS
 62
     7
 10
136.6116001383417
 20
23.29558618745321
 42
0.1103318159808812
  0
SEQEND
  8
0
  0
POLYLINE
  8
0
  6
CONTINUOUS
 62
     7
 66
     1
 10
0
 20
0
  0
VERTEX
  8
0
  6
CONTINUOUS
 62
     7
 10
136.7998352050781
 20
24.25041580200195
 42
0.01434921820779252
  0
VERTEX
  8
0
  6
CONTINUOUS
 62
     7
 10
136.640954323523
 20
24.24585481335999
 42
0.01426056111575906
  0
VERTEX
  8
0
  6
CONTINUOUS
 62
     7
 10
136.4833434388794
 20
24.23227948254225
 42
0.01417567788592111
  0
VERTEX
  8
0
  6
CONTINUOUS
 62
     7
 10
136.3272445497649
 20
24.20983684463908
 42
0.01415086977826933
  0
VERTEX
  8
0
  6
CONTINUOUS
 62
     7
 10
136.1722825508051
 20
24.17851361788165
 42
0.01410158157219434
  0
VERTEX
  8
0
  6
CONTINUOUS
 62
     7
 10
136.0190207114557
 20
24.13840608410114
 42
0.01402957761263273
  0
VERTEX
  8
0
  6
CONTINUOUS
 62
     7
 10
135.8680040174755
 20
24.08966206484809
 42
0.01393699711271696
  0
VERTEX
  8
0
  6
CONTINUOUS
 62
     7
 10
135.7197536912305
 20
24.03247670819356
 42
0.01382627700196992
  0
VERTEX
  8
0
  6
CONTINUOUS
 62
     7
 10
135.5747625718671
 20
23.9670874985386
 42
0.01370006725849714
  0
VERTEX
  8
0
  6
CONTINUOUS
 62
     7
 10
135.4334914726874
 20
23.89376870696255
 42
0.01356114429551469
  0
VERTEX
  8
0
  6
CONTINUOUS
 62
     7
 10
135.2963665796829
 20
23.81282551632345
 42
0.01332237275041622
  0
VERTEX
  8
0
  6
CONTINUOUS
 62
     7
 10
135.1646567138522
 20
23.72520723857723
 42
0.01328780149427717
  0
VERTEX
  8
0
  6
CONTINUOUS
 62
     7
 10
135.0366359431173
 20
23.62984419433806
 42
0.01315486993156101
  0
VERTEX
  8
0
  6
CONTINUOUS
 62
     7
 10
134.9135837144787
 20
23.527638892406
 42
0.01293833503033886
  0
VERTEX
  8
0
  6
CONTINUOUS
 62
     7
 10
134.7965394507207
 20
23.41962456414634
 42
0.01278034265288863
  0
VERTEX
  8
0
  6
CONTINUOUS
 62
     7
 10
134.6852030433954
 20
23.30573559057826
 42
0.01262533130564189
  0
VERTEX
  8
0
  6
CONTINUOUS
 62
     7
 10
134.5797936121762
 20
23.1863385420133
 42
0
  0
SEQEND
  8
0
  0
POLYLINE
  8
0
  6
CONTINUOUS
 62
     7
 66
     1
 10
0
 20
0
  0
VERTEX
  8
0
  6
CONTINUOUS
 62
     7
 10
134.5757667628916
 20
18.81930275784036
 42
0.06283199533772715
  0
VERTEX
  8
0
  6
CONTINUOUS
 62
     7
 10
135.1400655780633
 20
18.29313063431977
 42
0.06649698444566175
  0
VERTEX
  8
0
  6
CONTINUOUS
 62
     7
 10
135.8200659156077
 20
17.92862592918079
 42
0.0691555184326019
  0
VERTEX
  8
0
  6
CONTINUOUS
 62
     7
 10
136.5724205375982
 20
17.75976719350476
 42
0.06975294720090711
  0
VERTEX
  8
0
  6
CONTINUOUS
 62
     7
 10
137.3411754173355
 20
17.80376520263763
 42
0.06816347455590217
  0
VERTEX
  8
0
  6
CONTINUOUS
 62
     7
 10
138.0690188545765
 20
18.05558687110788
 42
0.06499586596179641
  0
VERTEX
  8
0
  6
CONTINUOUS
 62
     7
 10
138.7055845469606
 20
18.49041830518911
 42
0.06129087960719026
  0
VERTEX
  8
0
  6
CONTINUOUS
 62
     7
 10
139.2136420541852
 20
19.07051928242496
 42
0.05807959718054438
  0
VERTEX
  8
0
  6
CONTINUOUS
 62
     7
 10
139.570639214249
 20
19.75451320821593
 42
0.05590537556099014
  0
VERTEX
  8
0
  6
CONTINUOUS
 62
     7
 10
139.7642979705967
 20
20.50165713447029
 42
0.05496367752791983
  0
VERTEX
  8
0
  6
CONTINUOUS
 62
     7
 10
139.7893129354705
 20
21.27237962491653
 42
0.05547385665498403
  0
VERTEX
  8
0
  6
CONTINUOUS
 62
     7
 10
139.6452341334183
 20
22.03026893674256
 42
0.05728037912845933
  0
VERTEX
  8
0
  6
CONTINUOUS
 62
     7
 10
139.3358247677995
 20
22.73671072740243
 42
0.06026825000664897
  0
VERTEX
  8
0
  6
CONTINUOUS
 62
     7
 10
138.8705861122156
 20
23.35201999715093
 42
0.0639523983051364
  0
VERTEX
  8
0
  6
CONTINUOUS
 62
     7
 10
138.2683799674206
 20
23.83439888098912
 42
0.06744492301939355
  0
VERTEX
  8
0
  6
CONTINUOUS
 62
     7
 10
137.5617228691248
 20
24.14386123173383
 42
0.06944156007858536
  0
VERTEX
  8
0
  6
CONTINUOUS
 62
     7
 10
136.7998352050781
 20
24.25041580200195
 42
0
  0
SEQEND
  8
0
  0
POLYLINE
  8
0
  6
CONTINUOUS
 62
     7
 66
     1
 10
0
 20
0
  0
VERTEX
  8
0
  6
CONTINUOUS
 62
     7
 10
6.819992065429688
 20
23.8499755859375
 42
0.1885745464293417
  0
VERTEX
  8
0
  6
CONTINUOUS
 62
     7
 10
6.460261538522269
 20
23.69028703984911
 42
0.07574466113809146
  0
VERTEX
  8
0
  6
CONTINUOUS
 62
     7
 10
6.216026985965466
 20
23.37245062832676
 42
0.03933594534514093
  0
VERTEX
  8
0
  6
CONTINUOUS
 62
     7
 10
6.046165317503697
 20
23.00711706913912
 42
0.02577125752716319
  0
VERTEX
  8
0
  6
CONTINUOUS
 62
     7
 10
5.924010893244023
 20
22.62296641807138
 42
0.01950521772357163
  0
VERTEX
  8
0
  6
CONTINUOUS
 62
     7
 10
5.836520256462827
 20
22.22875464113595
 42
0.01621461060573157
  0
VERTEX
  8
0
  6
CONTINUOUS
 62
     7
 10
5.777160254708039
 20
21.82916366168362
 42
0.01446653763776056
  0
VERTEX
  8
0
  6
CONTINUOUS
 62
     7
 10
5.74229278684315
 20
21.42663897834304
 42
0.0136912652682281
  0
VERTEX
  8
0
  6
CONTINUOUS
 62
     7
 10
5.730044907543697
 20
21.0224948995088
 42
0.0136048156590285
  0
VERTEX
  8
0
  6
CONTINUOUS
 62
     7
 10
5.739761797781865
 20
20.61964974889296
 42
0.0143152585291773
  0
VERTEX
  8
0
  6
CONTINUOUS
 62
     7
 10
5.771912195952454
 20
20.21739843680845
 42
0.01598185402868883
  0
VERTEX
  8
0
  6
CONTINUOUS
 62
     7
 10
5.82842391162682
 20
19.81658057188146
 42
0.01902675483980889
  0
VERTEX
  8
0
  6
CONTINUOUS
 62
     7
 10
5.912486364333772
 20
19.42142739773305
 42
0.02487977718039727
  0
VERTEX
  8
0
  6
CONTINUOUS
 62
     7
 10
6.03050285131564
 20
19.0350316284218
 42
0.0372961537015125
  0
VERTEX
  8
0
  6
CONTINUOUS
 62
     7
 10
6.194578623268982
 20
18.66584860095529
 42
0.06998284816471952
  0
VERTEX
  8
0
  6
CONTINUOUS
 62
     7
 10
6.430164842897742
 20
18.33851861784649
 42
0.1738206340215643
  0
VERTEX
  8
0
  6
CONTINUOUS
 62
     7
 10
6.779932678960282
 20
18.1519216751302
 42
0
  0
SEQEND
  8
0
  0
POLYLINE
  8
0
  6
CONTINUOUS
 62
     7
 66
     1
 10
0
 20
0
 70
     1
  0
VERTEX
  8
0
  6
CONTINUOUS
 62
     7
 10
10.52000427246094
 20
23.5
 42
0.2551592727854901
  0
VERTEX
  8
0
  6
CONTINUOUS
 62
     7
 10
9.990194421972644
 20
23.07511190027379
 42
0.06319138472292996
  0
VERTEX
  8
0
  6
CONTINUOUS
 62
     7
 10
9.736099333476973
 20
22.4122252544633
 42
0.03518638918171122
  0
VERTEX
  8
0
  6
CONTINUOUS
 62
     7
 10
9.609369637790104
 20
21.71217549301894
 42
0.02798531261536342
  0
VERTEX
  8
0
  6
CONTINUOUS
 62
     7
 10
9.57000732421875
 20
21
 42
0.02789942790998836
  0
VERTEX
  8
0
  6
CONTINUOUS
 62
     7
 10
9.609140981222661
 20
20.289852439692
 42
0.03516017990498422
  0
VERTEX
  8
0
  6
CONTINUOUS
 62
     7
 10
9.735634869873794
 20
19.58956192317742
 42
0.06315573245379834
  0
VERTEX
  8
0
  6
CONTINUOUS
 62
     7
 10
9.989666863013211
 20
18.92582168183448
 42
0.2552844263600608
  0
VERTEX
  8
0
  6
CONTINUOUS
 62
     7
 10
10.52000427246094
 20
18.5
 42
0.255159473047913
  0
VERTEX
  8
0
  6
CONTINUOUS
 62
     7
 10
11.04981459858741
 20
18.92488747333301
 42
0.06319156037850189
  0
VERTEX
  8
0
  6
CONTINUOUS
 62
     7
 10
11.30390981534024
 20
19.58777405749937
 42
0.03518647356583902
  0
VERTEX
  8
0
  6
CONTINUOUS
 62
     7
 10
11.4306393075316
 20
20.2878238524152
 42
0.02798539198552758
  0
VERTEX
  8
0
  6
CONTINUOUS
 62
     7
 10
11.47000122070313
 20
21
 42
0.02789946216538259
  0
VERTEX
  8
0
  6
CONTINUOUS
 62
     7
 10
11.4308677871041
 20
21.7101475710854
 42
0.03516022448295534
  0
VERTEX
  8
0
  6
CONTINUOUS
 62
     7
 10
11.3043740106433
 20
22.41043810603362
 42
0.06315580443700414
  0
VERTEX
  8
0
  6
CONTINUOUS
 62
     7
 10
11.05034197507806
 20
23.07417832508457
 42
0.2552843239602538
  0
SEQEND
  8
0
  0
TEXT
  8
0
  6
CONTINUOUS
 62
     7
 10
-11.28550004959106
 20
-31.79999995231628
 40
3.599999904632568
 41
1.007125066575079
  1
HRW27CA
  0
ENDSEC
  0
EOF
