  0
SECTION
  2
HEADER
  0
ENDSEC
  0
SECTION
  2
TABLES
  0
TABLE
  2
LTYPE
 70
    22
  0
LTYPE
  2
CONTINUOUS
 70
    64
  3
Solid line
 72
    65
 73
     0
 40
0.000000
  0
LTYPE
  2
DASHED
 70
    64
  3
__ __ __ __ __ __ __ __ __ __ __ __ __ __ __
 72
    65
 73
     2
 40
3.500000
 49
2.000000
 49
-1.500000
  0
LTYPE
  2
CENTER
 70
    64
  3
____ _ ____ _ ____ _ ____ _ ____ _ ____ _ ____
 72
    65
 73
     4
 40
17.500000
 49
13.000000
 49
-1.500000
 49
1.500000
 49
-1.500000
  0
LTYPE
  2
PHANTOM
 70
    64
  3
_____ _ _ _____ _ _ _____ _ _ _____ _ _ ____  
 72
    65
 73
     6
 40
15.500000
 49
8.000000
 49
-1.500000
 49
1.500000
 49
-1.500000
 49
1.500000
 49
-1.500000
  0
LTYPE
  2
DOT
 70
    64
  3
. . . . . . . . . . . . . . . . . . . . . . . .
 72
    65
 73
     2
 40
0.25
 49
0.0
 49
-0.25
  0
ENDTAB
  0
TABLE
  2
LAYER
 70
     1
  0
LAYER
  2
0
 70
     0
 62
     7
  6
CONTINUOUS
  0
ENDTAB
  0
TABLE
  2
STYLE
 70
     1
  0
STYLE
  2
STANDARD
 70
     0
 40
0.000000
 41
1.000000
 50
0.000000
 71
     0
 42
0.200000
  3
txt
  0
ENDTAB
  0
TABLE
  2
VIEW
 70
     0
  0
ENDTAB
  0
ENDSEC
  0
SECTION
  2
BLOCKS
  0
ENDSEC
  0
SECTION
  2
ENTITIES
  0
LINE
  8
0
  6
CONTINUOUS
 62
     7
 10
34.50049209594727
 20
16.49994087219238
 11
34.50049209594727
 21
14.49997138977051
  0
LINE
  8
0
  6
CONTINUOUS
 62
     7
 10
30.50046920776367
 20
6.279252052307129
 11
34.50076293945313
 21
3.969681978225708
  0
LINE
  8
0
  6
CONTINUOUS
 62
     7
 10
30.50033950805664
 20
10.49990940093994
 11
32.0208740234375
 21
12.0204439163208
  0
LINE
  8
0
  6
CONTINUOUS
 62
     7
 10
34.1843376159668
 20
14.18390846252441
 11
34.5002555847168
 21
14.49982738494873
  0
LINE
  8
0
  6
CONTINUOUS
 62
     7
 10
34.18406677246094
 20
16.81634330749512
 11
34.50067901611328
 21
16.49973487854004
  0
LINE
  8
0
  6
CONTINUOUS
 62
     7
 10
60
 20
33.99988174438477
 11
60
 21
21.99997138977051
  0
LINE
  8
0
  6
CONTINUOUS
 62
     7
 10
55.01709747314453
 20
21.00000190734863
 11
59.00051116943359
 21
21.00000190734863
  0
LINE
  8
0
  6
CONTINUOUS
 62
     7
 10
41.10058975219727
 20
5.00000810623169
 11
46.00049209594727
 21
5.00000810623169
  0
LINE
  8
0
  6
CONTINUOUS
 62
     7
 10
48.4383659362793
 20
7.47892951965332
 11
50.09391784667969
 21
16.8680362701416
  0
LINE
  8
0
  6
CONTINUOUS
 62
     7
 10
59.00018692016602
 20
34.99985122680664
 11
60.00004959106445
 21
33.9999885559082
  0
LINE
  8
0
  6
CONTINUOUS
 62
     7
 10
59.00051116943359
 20
21.00000190734863
 11
60.000244140625
 21
21.99973678588867
  0
LINE
  8
0
  6
CONTINUOUS
 62
     7
 10
13.00049018859863
 20
34.29993057250977
 11
31.00049209594727
 21
34.29993057250977
  0
LINE
  8
0
  6
CONTINUOUS
 62
     7
 10
31.00032424926758
 20
34.29987335205078
 11
31.70035362243652
 21
34.99990463256836
  0
LINE
  8
0
  6
CONTINUOUS
 62
     7
 10
31.70019912719727
 20
34.99985122680664
 11
59.00018692016602
 21
34.99985122680664
  0
LINE
  8
0
  6
CONTINUOUS
 62
     7
 10
34.40039443969727
 20
5.499977588653565
 11
41.10058975219727
 21
5.499977588653565
  0
LINE
  8
0
  6
CONTINUOUS
 62
     7
 10
41.10058975219727
 20
5.499977588653565
 11
41.10058975219727
 21
5.00000810623169
  0
LINE
  8
0
  6
CONTINUOUS
 62
     7
 10
34.40039443969727
 20
6.499947547912598
 11
34.40039443969727
 21
5.499977588653565
  0
LINE
  8
0
  6
CONTINUOUS
 62
     7
 10
35.10010147094727
 20
5.70002031326294
 11
41.10058975219727
 21
5.70002031326294
  0
LINE
  8
0
  6
CONTINUOUS
 62
     7
 10
41.10058975219727
 20
5.70002031326294
 11
41.10058975219727
 21
5.00000810623169
  0
LINE
  8
0
  6
CONTINUOUS
 62
     6
 10
34.40012359619141
 20
6.30014181137085
 11
35.20010757446289
 21
5.500156879425049
  0
LINE
  8
0
  6
CONTINUOUS
 62
     7
 10
34.40039443969727
 20
4.900002002716065
 11
40.80029678344727
 21
4.900002002716065
  0
LINE
  8
0
  6
CONTINUOUS
 62
     7
 10
33.79980850219727
 20
6.499947547912598
 11
33.79980850219727
 21
5.499977588653565
  0
LINE
  8
0
  6
CENTER
 62
     7
 10
38.60058975219727
 20
10.24179935455322
 11
38.60058975219727
 21
2.900034427642822
  0
LINE
  8
0
  6
CONTINUOUS
 62
     7
 10
40.80029678344727
 20
5.499977588653565
 11
40.80029678344727
 21
4.900002002716065
  0
LINE
  8
0
  6
CENTER
 62
     7
 10
53.5
 20
35.99985122680664
 11
53.5
 21
17.67898750305176
  0
LINE
  8
0
  6
CONTINUOUS
 62
     7
 10
46.00048065185547
 20
4.999613761901856
 11
48.00043487548828
 21
6.999578475952148
  0
LINE
  8
0
  6
CONTINUOUS
 62
     7
 10
35.10013580322266
 20
5.7002272605896
 11
34.4002799987793
 21
6.400083065032959
  0
LINE
  8
0
  6
CENTER
 62
     7
 10
20.00000190734863
 20
19.99994087219238
 11
20.00000190734863
 21
-1
  0
LINE
  8
0
  6
CENTER
 62
     7
 10
-20.00000190734863
 20
19.99994087219238
 11
-20.00000190734863
 21
-1
  0
LINE
  8
0
  6
DASHED
 62
     7
 10
-25.50000190734863
 20
9.999947547912598
 11
-14.50000286102295
 21
9.999947547912598
  0
LINE
  8
0
  6
CONTINUOUS
 62
     7
 10
-48.00049591064453
 20
6.9999098777771
 11
-48.00049591064453
 21
31.99978637695313
  0
LINE
  8
0
  6
CONTINUOUS
 62
     7
 10
-31.20068740844727
 20
6.499947547912598
 11
-46.00025177001953
 21
6.499947547912598
  0
LINE
  8
0
  6
CONTINUOUS
 62
     7
 10
-48.00049591064453
 20
8.500195503234863
 11
-46.00025177001953
 21
6.499946117401123
  0
LINE
  8
0
  6
CONTINUOUS
 62
     7
 10
-10.00830173492432
 20
21.69998359680176
 11
-32.89258193969727
 21
21.69998359680176
  0
LINE
  8
0
  6
CONTINUOUS
 62
     7
 10
-9.008332252502441
 20
20.69955253601074
 11
-10.00856971740723
 21
21.69979286193848
  0
LINE
  8
0
  6
CONTINUOUS
 62
     7
 10
-37.20068740844727
 20
13.50808906555176
 11
-37.20068740844727
 21
17.39196968078613
  0
LINE
  8
0
  6
CONTINUOUS
 62
     7
 10
-37.20013809204102
 20
17.39146995544434
 11
-32.89223480224609
 21
21.69936180114746
  0
LINE
  8
0
  6
CONTINUOUS
 62
     7
 10
-33.20068740844727
 20
6.499947547912598
 11
-33.20068740844727
 21
9.508065223693848
  0
LINE
  8
0
  6
CONTINUOUS
 62
     7
 10
-33.19980239868164
 20
9.508255958557129
 11
-37.19971466064453
 21
13.50818061828613
  0
LINE
  8
0
  6
CONTINUOUS
 62
     7
 10
-31.19972610473633
 20
6.499579906463623
 11
-30.49952507019043
 21
7.199781894683838
  0
LINE
  8
0
  6
CONTINUOUS
 62
     7
 10
-46.00049209594727
 20
5.00000810623169
 11
-41.10058975219727
 21
5.00000810623169
  0
LINE
  8
0
  6
CONTINUOUS
 62
     7
 10
-41.10058975219727
 20
5.499977588653565
 11
-34.40039443969727
 21
5.499977588653565
  0
LINE
  8
0
  6
CONTINUOUS
 62
     7
 10
-41.10058975219727
 20
5.00000810623169
 11
-41.10058975219727
 21
5.499977588653565
  0
LINE
  8
0
  6
CONTINUOUS
 62
     7
 10
-34.40039443969727
 20
5.499977588653565
 11
-34.40039443969727
 21
6.499947547912598
  0
LINE
  8
0
  6
CONTINUOUS
 62
     7
 10
-41.10058975219727
 20
5.70002031326294
 11
-35.10010147094727
 21
5.70002031326294
  0
LINE
  8
0
  6
CONTINUOUS
 62
     7
 10
-41.10058975219727
 20
5.00000810623169
 11
-41.10058975219727
 21
5.70002031326294
  0
LINE
  8
0
  6
CONTINUOUS
 62
     6
 10
-35.19983673095703
 20
5.499813079833984
 11
-34.39985275268555
 21
6.299796581268311
  0
LINE
  8
0
  6
CONTINUOUS
 62
     7
 10
-40.80029678344727
 20
4.900002002716065
 11
-34.40039443969727
 21
4.900002002716065
  0
LINE
  8
0
  6
CONTINUOUS
 62
     7
 10
-33.79980850219727
 20
5.499977588653565
 11
-33.79980850219727
 21
6.499947547912598
  0
LINE
  8
0
  6
CENTER
 62
     7
 10
-38.60058975219727
 20
3.000034332275391
 11
-38.60058975219727
 21
10.34179973602295
  0
LINE
  8
0
  6
CONTINUOUS
 62
     7
 10
-37.10058975219727
 20
4.645906448364258
 11
-37.10058975219727
 21
4.900002002716065
  0
LINE
  8
0
  6
CONTINUOUS
 62
     7
 10
-40.80029678344727
 20
4.900002002716065
 11
-40.80029678344727
 21
5.499977588653565
  0
LINE
  8
0
  6
CONTINUOUS
 62
     7
 10
-40.10010147094727
 20
4.645906448364258
 11
-40.10010147094727
 21
4.900002002716065
  0
LINE
  8
0
  6
CONTINUOUS
 62
     7
 10
-48.00008010864258
 20
6.999492168426514
 11
-46.00029373168945
 21
4.999697208404541
  0
LINE
  8
0
  6
CONTINUOUS
 62
     7
 10
-34.40009307861328
 20
6.399971008300781
 11
-35.09994888305664
 21
5.700115203857422
  0
LINE
  8
0
  6
CONTINUOUS
 62
     7
 10
46.00049209594727
 20
33.99988174438477
 11
-46.00040435791016
 21
33.99988174438477
  0
LINE
  8
0
  6
CONTINUOUS
 62
     7
 10
48.00049591064453
 20
31.99997329711914
 11
48.00049591064453
 21
6.999978065490723
  0
LINE
  8
0
  6
CONTINUOUS
 62
     7
 10
46.00049209594727
 20
6.499947547912598
 11
31.20068740844727
 21
6.499947547912598
  0
LINE
  8
0
  6
CONTINUOUS
 62
     7
 10
46.00058746337891
 20
33.99969863891602
 11
48.00071716308594
 21
31.99956321716309
  0
LINE
  8
0
  6
CONTINUOUS
 62
     7
 10
46.00032424926758
 20
6.499812602996826
 11
48.00028228759766
 21
8.499773025512695
  0
LINE
  8
0
  6
CONTINUOUS
 62
     7
 10
9.008790016174316
 20
20.70001411437988
 11
-9.008794784545898
 21
20.70001411437988
  0
LINE
  8
0
  6
CONTINUOUS
 62
     7
 10
32.89258193969727
 20
21.69998359680176
 11
10.00830173492432
 21
21.69998359680176
  0
LINE
  8
0
  6
CONTINUOUS
 62
     7
 10
10.00868892669678
 20
21.69965362548828
 11
9.008603096008301
 21
20.69956588745117
  0
LINE
  8
0
  6
CONTINUOUS
 62
     7
 10
37.20068740844727
 20
17.39196968078613
 11
37.20068740844727
 21
13.50808906555176
  0
LINE
  8
0
  6
CONTINUOUS
 62
     7
 10
32.89239883422852
 20
21.69956207275391
 11
37.20029830932617
 21
17.39166831970215
  0
LINE
  8
0
  6
CONTINUOUS
 62
     7
 10
33.20068740844727
 20
9.508065223693848
 11
33.20068740844727
 21
6.499947547912598
  0
LINE
  8
0
  6
CONTINUOUS
 62
     7
 10
37.20022201538086
 20
13.50788974761963
 11
33.20030975341797
 21
9.507964134216309
  0
LINE
  8
0
  6
CONTINUOUS
 62
     7
 10
30.50016403198242
 20
7.200444221496582
 11
31.20036506652832
 21
6.500242233276367
  0
LINE
  8
0
  6
CENTER
 62
     7
 10
0
 20
35.99985122680664
 11
0
 21
-1
  0
LINE
  8
0
  6
CONTINUOUS
 62
     7
 10
-10.00000095367432
 20
17.99997138977051
 11
10.00000095367432
 21
17.99997138977051
  0
LINE
  8
0
  6
CONTINUOUS
 62
     7
 10
-10.00000095367432
 20
1.000007748603821
 11
10.00000095367432
 21
1.000007748603821
  0
LINE
  8
0
  6
CONTINUOUS
 62
     7
 10
30.50049209594727
 20
10.49997806549072
 11
30.50049209594727
 21
6.279397010803223
  0
LINE
  8
0
  6
CONTINUOUS
 62
     7
 10
100
 20
-1.52587908814894E-005
 11
380
 21
-1.52587908814894E-005
  0
LINE
  8
0
  6
CONTINUOUS
 62
     7
 10
278.7999877929688
 20
33.99998474121094
 11
278.7999877929688
 21
4.900002002716065
  0
LINE
  8
0
  6
CONTINUOUS
 62
     7
 10
190.2508697509766
 20
4.999985218048096
 11
289.75
 21
4.999985218048096
  0
LINE
  8
0
  6
CONTINUOUS
 62
     7
 10
289.75
 20
33.99995803833008
 11
289.75
 21
4.999985218048096
  0
LINE
  8
0
  6
CONTINUOUS
 62
     7
 10
278.7999877929688
 20
33.99995803833008
 11
288.75
 21
33.99995803833008
  0
LINE
  8
0
  6
CONTINUOUS
 62
     7
 10
288.7507629394531
 20
33.99949645996094
 11
289.7509765625
 21
32.99925994873047
  0
LINE
  8
0
  6
CONTINUOUS
 62
     7
 10
33.50016403198242
 20
0.0001186855224659666
 11
34.50008010864258
 21
1.000033497810364
  0
LINE
  8
0
  6
CONTINUOUS
 62
     7
 10
-30.49934387207031
 20
6.279585838317871
 11
-34.49905395507813
 21
3.97035026550293
  0
LINE
  8
0
  6
CONTINUOUS
 62
     7
 10
10.00077342987061
 20
17.9994068145752
 11
11.00068855285645
 21
18.99932289123535
  0
LINE
  8
0
  6
CONTINUOUS
 62
     7
 10
10.00010395050049
 20
1.000292778015137
 11
11.00068855285645
 21
-0.0002913190110120922
  0
LINE
  8
0
  6
CONTINUOUS
 62
     7
 10
-9.999401092529297
 20
0.9997748136520386
 11
-10.99948883056641
 21
-0.0003128981916233897
  0
LINE
  8
0
  6
CONTINUOUS
 62
     7
 10
-11.00000095367432
 20
0
 11
-33.50000381469727
 21
0
  0
LINE
  8
0
  6
CONTINUOUS
 62
     7
 10
-34.49951553344727
 20
3.96997880935669
 11
-34.49951553344727
 21
1.000007748603821
  0
LINE
  8
0
  6
CONTINUOUS
 62
     7
 10
-33.49929046630859
 20
-0.0004423733334988356
 11
-34.49952697753906
 21
0.9997960925102234
  0
LINE
  8
0
  6
CONTINUOUS
 62
     7
 10
-30.49951553344727
 20
10.49997806549072
 11
-30.49951553344727
 21
6.279397010803223
  0
LINE
  8
0
  6
CONTINUOUS
 62
     7
 10
-30.49963188171387
 20
10.4998836517334
 11
-32.01984405517578
 21
12.020094871521
  0
LINE
  8
0
  6
CONTINUOUS
 62
     7
 10
-34.18363189697266
 20
14.18388271331787
 11
-34.49954986572266
 21
14.49980163574219
  0
LINE
  8
0
  6
CONTINUOUS
 62
     7
 10
-34.49951553344727
 20
16.49994087219238
 11
-34.49951553344727
 21
14.49997138977051
  0
LINE
  8
0
  6
CONTINUOUS
 62
     7
 10
-34.18322372436523
 20
16.81547164916992
 11
-34.49914169311523
 21
16.49954795837402
  0
LINE
  8
0
  6
CONTINUOUS
 62
     7
 10
-11.00000095367432
 20
18.99994087219238
 11
-32.01805877685547
 21
18.99994087219238
  0
LINE
  8
0
  6
CONTINUOUS
 62
     7
 10
-9.999272346496582
 20
17.99955749511719
 11
-10.99951076507568
 21
18.99979591369629
  0
LINE
  8
0
  6
CONTINUOUS
 62
     7
 10
-12.29980659484863
 20
34.99985122680664
 11
12.29980659484863
 21
34.99985122680664
  0
LINE
  8
0
  6
CONTINUOUS
 62
     7
 10
13.00030612945557
 20
34.29970932006836
 11
12.30044746398926
 21
34.99956130981445
  0
LINE
  8
0
  6
CONTINUOUS
 62
     7
 10
-12.99913024902344
 20
34.29920196533203
 11
-12.29909896850586
 21
34.99922943115234
  0
LINE
  8
0
  6
CONTINUOUS
 62
     7
 10
-12.99951362609863
 20
34.29993057250977
 11
-31.00000381469727
 21
34.29993057250977
  0
LINE
  8
0
  6
CONTINUOUS
 62
     7
 10
-30.99940490722656
 20
34.30001449584961
 11
-31.69925880432129
 21
34.99987030029297
  0
LINE
  8
0
  6
CONTINUOUS
 62
     7
 10
-31.69971084594727
 20
34.99985122680664
 11
-58.99856948852539
 21
34.99985122680664
  0
LINE
  8
0
  6
CONTINUOUS
 62
     7
 10
-58.99856948852539
 20
34.99985122680664
 11
-59.99912643432617
 21
33.99929046630859
  0
LINE
  8
0
  6
CONTINUOUS
 62
     7
 10
-60
 20
33.99988174438477
 11
-60
 21
21.99997138977051
  0
LINE
  8
0
  6
CENTER
 62
     7
 10
-53.5
 20
35.99985122680664
 11
-53.5
 21
17.67898750305176
  0
LINE
  8
0
  6
DASHED
 62
     7
 10
-49.49951171875
 20
34.99985122680664
 11
-49.49951171875
 21
21.00000190734863
  0
LINE
  8
0
  6
DASHED
 62
     7
 10
-3.999512195587158
 20
34.99985122680664
 11
-3.999512195587158
 21
26.99997329711914
  0
LINE
  8
0
  6
DASHED
 62
     7
 10
-3.399902820587158
 20
34.99985122680664
 11
-3.399902820587158
 21
26.99997329711914
  0
LINE
  8
0
  6
DASHED
 62
     7
 10
-47.75
 20
21.00000190734863
 11
-55.01611328125
 21
21.00000190734863
  0
LINE
  8
0
  6
CONTINUOUS
 62
     7
 10
-55.01612091064453
 20
21.00000190734863
 11
-58.99959182739258
 21
21.00000190734863
  0
LINE
  8
0
  6
CONTINUOUS
 62
     7
 10
-58.99958801269531
 20
21.00000190734863
 11
-59.99904632568359
 21
21.99945640563965
  0
LINE
  8
0
  6
CONTINUOUS
 62
     7
 10
-48.42181777954102
 20
7.395247936248779
 11
-50.09686279296875
 21
16.8949146270752
  0
LINE
  8
0
  6
DASHED
 62
     7
 10
-57.5
 20
34.99985122680664
 11
-57.5
 21
21.00000190734863
  0
LINE
  8
0
  6
DASHED
 62
     7
 10
-5.749512195587158
 20
26.99997329711914
 11
-5.749512195587158
 21
21.99997138977051
  0
LINE
  8
0
  6
CONTINUOUS
 62
     7
 10
11.00048923492432
 20
0
 11
33.50049209594727
 21
0
  0
LINE
  8
0
  6
CONTINUOUS
 62
     7
 10
34.50049209594727
 20
3.96997880935669
 11
34.50049209594727
 21
1.000007748603821
  0
LINE
  8
0
  6
CONTINUOUS
 62
     7
 10
11.00000095367432
 20
18.99994087219238
 11
32.01805877685547
 21
18.99994087219238
  0
LINE
  8
0
  6
CONTINUOUS
 62
     7
 10
-46.00058746337891
 20
33.99969863891602
 11
-48.00071716308594
 21
31.99956321716309
  0
LINE
  8
0
  6
DASHED
 62
     7
 10
3.999512195587158
 20
34.99985122680664
 11
3.999512195587158
 21
26.99997329711914
  0
LINE
  8
0
  6
DASHED
 62
     7
 10
3.399902820587158
 20
34.99985122680664
 11
3.399902820587158
 21
26.99997329711914
  0
LINE
  8
0
  6
DASHED
 62
     7
 10
8.095215797424316
 20
21.99997138977051
 11
-8.095215797424316
 21
21.99997138977051
  0
LINE
  8
0
  6
DASHED
 62
     7
 10
5.749512195587158
 20
26.99997329711914
 11
-5.749512195587158
 21
26.99997329711914
  0
LINE
  8
0
  6
DASHED
 62
     7
 10
5.749512195587158
 20
26.99997329711914
 11
5.749512195587158
 21
21.99997138977051
  0
LINE
  8
0
  6
DASHED
 62
     7
 10
-56.89999771118164
 20
34.99985122680664
 11
-56.89999771118164
 21
21.00000190734863
  0
LINE
  8
0
  6
DASHED
 62
     7
 10
-50.09999847412109
 20
34.99985122680664
 11
-50.09999847412109
 21
21.00000190734863
  0
LINE
  8
0
  6
DASHED
 62
     7
 10
-25.50000190734863
 20
18.99994087219238
 11
-25.50000190734863
 21
9.999947547912598
  0
LINE
  8
0
  6
DASHED
 62
     7
 10
-14.50000286102295
 20
18.99994087219238
 11
-14.50000286102295
 21
9.999947547912598
  0
LINE
  8
0
  6
DASHED
 62
     7
 10
-23.50000190734863
 20
9.999947547912598
 11
-23.50000190734863
 21
0
  0
LINE
  8
0
  6
DASHED
 62
     7
 10
-16.50000190734863
 20
9.999947547912598
 11
-16.50000190734863
 21
0
  0
LINE
  8
0
  6
CENTER
 62
     7
 10
-6.3699951171875
 20
26.99997329711914
 11
13.30998229980469
 21
26.99997329711914
  0
LINE
  8
0
  6
CONTINUOUS
 62
     7
 10
1.779998779296875
 20
30.49997329711914
 11
5.8599853515625
 21
30.49997329711914
  0
LINE
  8
0
  6
CONTINUOUS
 62
     7
 10
1.779998779296875
 20
23.49997329711914
 11
5.8599853515625
 21
23.49997329711914
  0
LINE
  8
0
  6
CONTINUOUS
 62
     7
 10
1.1299889087677
 20
26.99993515014648
 11
1.779982686042786
 21
23.49993515014648
  0
LINE
  8
0
  6
CONTINUOUS
 62
     7
 10
1.129988670349121
 20
26.99995231628418
 11
1.779979348182678
 21
30.49993515014648
  0
LINE
  8
0
  6
CONTINUOUS
 62
     7
 10
3.440002679824829
 20
26.99993133544922
 11
4.090013980865479
 21
23.49991798400879
  0
LINE
  8
0
  6
CONTINUOUS
 62
     7
 10
3.43997597694397
 20
26.99994659423828
 11
4.089986801147461
 21
30.49995803833008
  0
LINE
  8
0
  6
CONTINUOUS
 62
     7
 10
5.950003623962402
 20
23.96995353698731
 11
5.859991073608398
 21
23.49994850158691
  0
LINE
  8
0
  6
CONTINUOUS
 62
     7
 10
5.950027465820313
 20
30.01997566223145
 11
5.860019683837891
 21
30.49996757507324
  0
LINE
  8
0
  6
CONTINUOUS
 62
     7
 10
7.765948295593262
 20
23.7542610168457
 11
10.51998138427734
 21
24.49993705749512
  0
LINE
  8
0
  6
CONTINUOUS
 62
     7
 10
7.749973297119141
 20
30.24996376037598
 11
10.51998519897461
 21
29.49996185302734
  0
LINE
  8
0
  6
CONTINUOUS
 62
     7
 10
0.0004931941512040794
 20
22.3808650970459
 11
1.947717905044556
 21
23.49997329711914
  0
LINE
  8
0
  6
CONTINUOUS
 62
     7
 10
0.0005118431872688234
 20
22.3808765411377
 11
-4.000515460968018
 21
24.69087028503418
  0
LINE
  8
0
  6
CONTINUOUS
 62
     7
 10
-4.000481605529785
 20
24.69086647033691
 11
-4.000998497009277
 21
29.30996513366699
  0
LINE
  8
0
  6
CONTINUOUS
 62
     7
 10
-4.001014232635498
 20
29.30997467041016
 11
-0.0004918029881082475
 21
31.61907958984375
  0
LINE
  8
0
  6
CONTINUOUS
 62
     7
 10
-0.000516907952260226
 20
31.61907196044922
 11
1.937821388244629
 21
30.49997138977051
  0
LINE
  8
0
  6
CONTINUOUS
 62
     7
 10
291.75
 20
33.99995803833008
 11
291.75
 21
6.499985218048096
  0
LINE
  8
0
  6
CONTINUOUS
 62
     7
 10
293.75
 20
19.99998664855957
 11
293.75
 21
6.499985218048096
  0
LINE
  8
0
  6
CONTINUOUS
 62
     7
 10
289.75
 20
6.499985218048096
 11
293.75
 21
6.499985218048096
  0
LINE
  8
0
  6
CONTINUOUS
 62
     7
 10
291.75
 20
21.99998092651367
 11
293.75
 21
19.99997901916504
  0
LINE
  8
0
  6
CONTINUOUS
 62
     7
 10
289.75
 20
33.99995803833008
 11
291.75
 21
33.99995803833008
  0
LINE
  8
0
  6
DASHED
 62
     7
 10
206
 20
34.99998474121094
 11
206
 21
20.99995613098145
  0
LINE
  8
0
  6
CONTINUOUS
 62
     7
 10
201.199951171875
 20
20.99995613098145
 11
278.799560546875
 21
20.99995613098145
  0
LINE
  8
0
  6
DASHED
 62
     7
 10
214
 20
34.99998474121094
 11
214
 21
20.99995613098145
  0
LINE
  8
0
  6
CENTER
 62
     7
 10
270
 20
35.99998474121094
 11
270
 21
2.999893188476563
  0
LINE
  8
0
  6
CONTINUOUS
 62
     7
 10
273.8476867675781
 20
10.20307064056397
 11
275.7514038085938
 21
20.99965667724609
  0
LINE
  8
0
  6
CONTINUOUS
 62
     7
 10
266.5428161621094
 20
8.000040054321289
 11
264.250732421875
 21
20.99909973144531
  0
LINE
  8
0
  6
CONTINUOUS
 62
     7
 10
208.50048828125
 20
4.645906448364258
 11
208.50048828125
 21
4.900002002716065
  0
LINE
  8
0
  6
CONTINUOUS
 62
     7
 10
211.5
 20
4.645906448364258
 11
211.5
 21
4.900002002716065
  0
LINE
  8
0
  6
CENTER
 62
     7
 10
210
 20
35.99998474121094
 11
210
 21
2.999893188476563
  0
LINE
  8
0
  6
DASHED
 62
     7
 10
206.599609375
 20
34.99998474121094
 11
206.599609375
 21
20.99995613098145
  0
LINE
  8
0
  6
CONTINUOUS
 62
     7
 10
213.4476470947266
 20
7.93773889541626
 11
215.7508239746094
 21
20.99966621398926
  0
LINE
  8
0
  6
CONTINUOUS
 62
     7
 10
206.5532379150391
 20
7.9369797706604
 11
204.2500152587891
 21
20.99920845031738
  0
LINE
  8
0
  6
DASHED
 62
     7
 10
213.39990234375
 20
34.99998474121094
 11
213.39990234375
 21
20.99995613098145
  0
LINE
  8
0
  6
CONTINUOUS
 62
     7
 10
201.2000122070313
 20
33.99998474121094
 11
201.2000122070313
 21
4.900002002716065
  0
LINE
  8
0
  6
CONTINUOUS
 62
     7
 10
201.2000122070313
 20
4.900002002716065
 11
278.7999877929688
 21
4.900002002716065
  0
LINE
  8
0
  6
CONTINUOUS
 62
     7
 10
190.25
 20
33.99995803833008
 11
190.25
 21
4.999985218048096
  0
LINE
  8
0
  6
CONTINUOUS
 62
     7
 10
201.2000122070313
 20
33.99995803833008
 11
191.25
 21
33.99995803833008
  0
LINE
  8
0
  6
CONTINUOUS
 62
     7
 10
191.249267578125
 20
33.99949645996094
 11
190.2490234375
 21
32.99925994873047
  0
LINE
  8
0
  6
CONTINUOUS
 62
     7
 10
188.25
 20
33.99995803833008
 11
188.25
 21
6.499985218048096
  0
LINE
  8
0
  6
CONTINUOUS
 62
     7
 10
190.25
 20
6.499985218048096
 11
186.25
 21
6.499985218048096
  0
LINE
  8
0
  6
CONTINUOUS
 62
     7
 10
190.25
 20
33.99995803833008
 11
188.25
 21
33.99995803833008
  0
LINE
  8
0
  6
CONTINUOUS
 62
     7
 10
186.25
 20
19.99998664855957
 11
186.25
 21
6.499985218048096
  0
LINE
  8
0
  6
CONTINUOUS
 62
     7
 10
188.2499847412109
 20
21.99998092651367
 11
186.2499847412109
 21
19.99997901916504
  0
LINE
  8
0
  6
CONTINUOUS
 62
     7
 10
202.2000122070313
 20
34.99998474121094
 11
277.7999877929688
 21
34.99998474121094
  0
LINE
  8
0
  6
CONTINUOUS
 62
     7
 10
202.1999969482422
 20
34.99997711181641
 11
201.1999969482422
 21
33.99997329711914
  0
LINE
  8
0
  6
CONTINUOUS
 62
     7
 10
277.8000183105469
 20
34.99998474121094
 11
278.8000183105469
 21
33.99998092651367
  0
LINE
  8
0
  6
CONTINUOUS
 62
     7
 10
100
 20
18.99998474121094
 11
186.25
 21
18.99998474121094
  0
LINE
  8
0
  6
DASHED
 62
     7
 10
-47.75
 20
21.00000190734863
 11
-47.75
 21
6.034647464752197
  0
LINE
  8
0
  6
CONTINUOUS
 62
     7
 10
100
 20
18.99998474121094
 11
100
 21
-1.52587908814894E-005
  0
LINE
  8
0
  6
DASHED
 62
     7
 10
114.5
 20
9.999991416931152
 11
125.5
 21
9.999991416931152
  0
LINE
  8
0
  6
CENTER
 62
     7
 10
120
 20
19.99998474121094
 11
120
 21
-0.9999561309814453
  0
LINE
  8
0
  6
DASHED
 62
     7
 10
114.5
 20
18.99998474121094
 11
114.5
 21
9.999991416931152
  0
LINE
  8
0
  6
DASHED
 62
     7
 10
125.5
 20
18.99998474121094
 11
125.5
 21
9.999991416931152
  0
LINE
  8
0
  6
DASHED
 62
     7
 10
116.5
 20
9.999991416931152
 11
116.5
 21
4.38690185546875E-005
  0
LINE
  8
0
  6
DASHED
 62
     7
 10
123.5
 20
9.999991416931152
 11
123.5
 21
4.38690185546875E-005
  0
LINE
  8
0
  6
CONTINUOUS
 62
     7
 10
100
 20
3.969837665557861
 11
380
 21
3.969837665557861
  0
LINE
  8
0
  6
CONTINUOUS
 62
     7
 10
100
 20
6.279238224029541
 11
190.25
 21
6.279238224029541
  0
LINE
  8
0
  6
CONTINUOUS
 62
     7
 10
100
 20
10.50006294250488
 11
186.25
 21
10.50006294250488
  0
LINE
  8
0
  6
CONTINUOUS
 62
     7
 10
100
 20
14.50006294250488
 11
186.25
 21
14.50006294250488
  0
LINE
  8
0
  6
CONTINUOUS
 62
     7
 10
100
 20
16.49991989135742
 11
186.25
 21
16.49991989135742
  0
LINE
  8
0
  6
CONTINUOUS
 62
     7
 10
380
 20
18.99998474121094
 11
293.75
 21
18.99998474121094
  0
LINE
  8
0
  6
CONTINUOUS
 62
     7
 10
380
 20
6.279238224029541
 11
289.75
 21
6.279238224029541
  0
LINE
  8
0
  6
CONTINUOUS
 62
     7
 10
380
 20
16.49991989135742
 11
293.75
 21
16.49991989135742
  0
LINE
  8
0
  6
CONTINUOUS
 62
     7
 10
380
 20
10.50006294250488
 11
293.75
 21
10.50006294250488
  0
LINE
  8
0
  6
CENTER
 62
     7
 10
360
 20
19.99998474121094
 11
360
 21
-0.9999561309814453
  0
LINE
  8
0
  6
CONTINUOUS
 62
     7
 10
380
 20
18.99998474121094
 11
380
 21
-1.52587908814894E-005
  0
LINE
  8
0
  6
CONTINUOUS
 62
     7
 10
380
 20
14.50006294250488
 11
293.75
 21
14.50006294250488
  0
LINE
  8
0
  6
CENTER
 62
     7
 10
280
 20
5.999985218048096
 11
280
 21
-0.9999561309814453
  0
LINE
  8
0
  6
CENTER
 62
     7
 10
200
 20
5.999985218048096
 11
200
 21
-0.9999561309814453
  0
LINE
  8
0
  6
CENTER
 62
     7
 10
240
 20
7.127620220184326
 11
240
 21
2.999893188476563
  0
LINE
  8
0
  6
CENTER
 62
     7
 10
99
 20
174.9999847412109
 11
381
 21
174.9999847412109
  0
LINE
  8
0
  6
CENTER
 62
     7
 10
210
 20
126.4999847412109
 11
210
 21
116.4999847412109
  0
LINE
  8
0
  6
CENTER
 62
     7
 10
205
 20
121.4999847412109
 11
215
 21
121.4999847412109
  0
LINE
  8
0
  6
CONTINUOUS
 62
     7
 10
188.25
 20
126.9999847412109
 11
201.2000122070313
 21
126.9999847412109
  0
LINE
  8
0
  6
CONTINUOUS
 62
     7
 10
100
 20
140.4999847412109
 11
186.25
 21
140.4999847412109
  0
LINE
  8
0
  6
CONTINUOUS
 62
     7
 10
186.25
 20
139.4999847412109
 11
188.25
 21
137.4999847412109
  0
LINE
  8
0
  6
CENTER
 62
     7
 10
120
 20
161.4999847412109
 11
120
 21
148.4999847412109
  0
LINE
  8
0
  6
CENTER
 62
     7
 10
113.5
 20
154.9999847412109
 11
126.5
 21
154.9999847412109
  0
LINE
  8
0
  6
CONTINUOUS
 62
     7
 10
100
 20
164.990966796875
 11
177.9096221923828
 21
164.990966796875
  0
LINE
  8
0
  6
CONTINUOUS
 62
     7
 10
100
 20
142.9819183349609
 11
186.25
 21
142.9819183349609
  0
LINE
  8
0
  6
CONTINUOUS
 62
     7
 10
278.7999877929688
 20
114.9999847412109
 11
201.2000122070313
 21
114.9999847412109
  0
LINE
  8
0
  6
CENTER
 62
     7
 10
270
 20
126.4999847412109
 11
270
 21
116.4999847412109
  0
LINE
  8
0
  6
CENTER
 62
     7
 10
275
 20
121.4999847412109
 11
265
 21
121.4999847412109
  0
LINE
  8
0
  6
CONTINUOUS
 62
     7
 10
291.75
 20
126.9999847412109
 11
278.7999877929688
 21
126.9999847412109
  0
LINE
  8
0
  6
CONTINUOUS
 62
     7
 10
380
 20
140.4999847412109
 11
293.75
 21
140.4999847412109
  0
LINE
  8
0
  6
CONTINUOUS
 62
     7
 10
380
 20
142.9819183349609
 11
293.75
 21
142.9819183349609
  0
LINE
  8
0
  6
CONTINUOUS
 62
     7
 10
293.7500305175781
 20
139.5
 11
291.7500305175781
 21
137.4999847412109
  0
LINE
  8
0
  6
CENTER
 62
     7
 10
360
 20
161.4999847412109
 11
360
 21
148.4999847412109
  0
LINE
  8
0
  6
CONTINUOUS
 62
     7
 10
380
 20
164.990966796875
 11
293.75
 21
164.990966796875
  0
LINE
  8
0
  6
CENTER
 62
     7
 10
366.5
 20
154.9999847412109
 11
353.5
 21
154.9999847412109
  0
LINE
  8
0
  6
CONTINUOUS
 62
     7
 10
278.7999877929688
 20
143.2996826171875
 11
201.2000122070313
 21
143.2996826171875
  0
LINE
  8
0
  6
CONTINUOUS
 62
     7
 10
278.7999877929688
 20
162.6998291015625
 11
201.2000122070313
 21
162.6998291015625
  0
LINE
  8
0
  6
CENTER
 62
     7
 10
280
 20
161.4999847412109
 11
280
 21
148.4999847412109
  0
LINE
  8
0
  6
CENTER
 62
     7
 10
286.5
 20
154.9999847412109
 11
273.5
 21
154.9999847412109
  0
LINE
  8
0
  6
CENTER
 62
     7
 10
200.0000152587891
 20
161.4999847412109
 11
200.0000152587891
 21
148.4999847412109
  0
LINE
  8
0
  6
CENTER
 62
     7
 10
206.5000152587891
 20
154.9999847412109
 11
193.5000152587891
 21
154.9999847412109
  0
LINE
  8
0
  6
CENTER
 62
     7
 10
210
 20
179.9999847412109
 11
210
 21
169.9999847412109
  0
LINE
  8
0
  6
CENTER
 62
     7
 10
270
 20
179.9999847412109
 11
270
 21
169.9999847412109
  0
LINE
  8
0
  6
CONTINUOUS
 62
     7
 10
201.2000122070313
 20
114.9999847412109
 11
201.2000122070313
 21
234.9999847412109
  0
LINE
  8
0
  6
CONTINUOUS
 62
     7
 10
186.25
 20
139.4999847412109
 11
186.25
 21
210.4999847412109
  0
LINE
  8
0
  6
CONTINUOUS
 62
     7
 10
188.25
 20
126.9999847412109
 11
188.25
 21
222.9999847412109
  0
LINE
  8
0
  6
CONTINUOUS
 62
     7
 10
190.25
 20
126.9999847412109
 11
190.25
 21
222.9999847412109
  0
LINE
  8
0
  6
CENTER
 62
     7
 10
210
 20
223.4999847412109
 11
210
 21
233.4999847412109
  0
LINE
  8
0
  6
CENTER
 62
     7
 10
205
 20
228.4999847412109
 11
215
 21
228.4999847412109
  0
LINE
  8
0
  6
CONTINUOUS
 62
     7
 10
188.25
 20
222.9999847412109
 11
201.2000122070313
 21
222.9999847412109
  0
LINE
  8
0
  6
CONTINUOUS
 62
     7
 10
100
 20
209.4999847412109
 11
186.25
 21
209.4999847412109
  0
LINE
  8
0
  6
CONTINUOUS
 62
     7
 10
100
 20
140.4999847412109
 11
100
 21
209.4999847412109
  0
LINE
  8
0
  6
CONTINUOUS
 62
     7
 10
100
 20
207.0180511474609
 11
186.25
 21
207.0180511474609
  0
LINE
  8
0
  6
CONTINUOUS
 62
     7
 10
186.25
 20
210.4999694824219
 11
188.25
 21
212.4999847412109
  0
LINE
  8
0
  6
CENTER
 62
     7
 10
120
 20
188.4999847412109
 11
120
 21
201.4999847412109
  0
LINE
  8
0
  6
CONTINUOUS
 62
     7
 10
100
 20
185.0090026855469
 11
186.25
 21
185.0090026855469
  0
LINE
  8
0
  6
CENTER
 62
     7
 10
113.5
 20
194.9999847412109
 11
126.5
 21
194.9999847412109
  0
LINE
  8
0
  6
CENTER
 62
     7
 10
270
 20
223.4999847412109
 11
270
 21
233.4999847412109
  0
LINE
  8
0
  6
CONTINUOUS
 62
     7
 10
289.75
 20
126.9999847412109
 11
289.75
 21
222.9999847412109
  0
LINE
  8
0
  6
CONTINUOUS
 62
     7
 10
278.7999877929688
 20
234.9999847412109
 11
201.2000122070313
 21
234.9999847412109
  0
LINE
  8
0
  6
CONTINUOUS
 62
     7
 10
278.7999877929688
 20
114.9999847412109
 11
278.7999877929688
 21
234.9999847412109
  0
LINE
  8
0
  6
CONTINUOUS
 62
     7
 10
293.75
 20
139.4999847412109
 11
293.75
 21
210.4999847412109
  0
LINE
  8
0
  6
CONTINUOUS
 62
     7
 10
291.75
 20
126.9999847412109
 11
291.75
 21
222.9999847412109
  0
LINE
  8
0
  6
CENTER
 62
     7
 10
275
 20
228.4999847412109
 11
265
 21
228.4999847412109
  0
LINE
  8
0
  6
CONTINUOUS
 62
     7
 10
291.75
 20
222.9999847412109
 11
278.7999877929688
 21
222.9999847412109
  0
LINE
  8
0
  6
CONTINUOUS
 62
     7
 10
380
 20
209.4999847412109
 11
293.75
 21
209.4999847412109
  0
LINE
  8
0
  6
CONTINUOUS
 62
     7
 10
380
 20
140.4999847412109
 11
380
 21
209.4999847412109
  0
LINE
  8
0
  6
CONTINUOUS
 62
     7
 10
380
 20
207.0180511474609
 11
293.75
 21
207.0180511474609
  0
LINE
  8
0
  6
CONTINUOUS
 62
     7
 10
293.75
 20
210.4999847412109
 11
291.75
 21
212.4999847412109
  0
LINE
  8
0
  6
CENTER
 62
     7
 10
360
 20
188.4999847412109
 11
360
 21
201.4999847412109
  0
LINE
  8
0
  6
CONTINUOUS
 62
     7
 10
380
 20
185.0090026855469
 11
293.75
 21
185.0090026855469
  0
LINE
  8
0
  6
CENTER
 62
     7
 10
366.5
 20
194.9999847412109
 11
353.5
 21
194.9999847412109
  0
LINE
  8
0
  6
CENTER
 62
     7
 10
280
 20
188.4999847412109
 11
280
 21
201.4999847412109
  0
LINE
  8
0
  6
CONTINUOUS
 62
     7
 10
278.7999877929688
 20
206.7002868652344
 11
201.2000122070313
 21
206.7002868652344
  0
LINE
  8
0
  6
CONTINUOUS
 62
     7
 10
278.7999877929688
 20
187.3001403808594
 11
201.2000122070313
 21
187.3001403808594
  0
LINE
  8
0
  6
CENTER
 62
     7
 10
286.5
 20
194.9999847412109
 11
273.5
 21
194.9999847412109
  0
LINE
  8
0
  6
CENTER
 62
     7
 10
200.0000152587891
 20
188.4999847412109
 11
200.0000152587891
 21
201.4999847412109
  0
LINE
  8
0
  6
CENTER
 62
     7
 10
206.5000152587891
 20
194.9999847412109
 11
193.5000152587891
 21
194.9999847412109
  0
LINE
  8
0
  6
CENTER
 62
     7
 10
177.9474182128906
 20
174.9999847412109
 11
189.8862152099609
 21
174.9999847412109
  0
LINE
  8
0
  6
CONTINUOUS
 62
     7
 10
186.2500152587891
 20
170.9999694824219
 11
186.2500152587891
 21
178.9999694824219
  0
LINE
  8
0
  6
CONTINUOUS
 62
     7
 10
182.9501037597656
 20
178.9999847412109
 11
186.2500152587891
 21
178.9999847412109
  0
LINE
  8
0
  6
CONTINUOUS
 62
     7
 10
184.5701293945313
 20
170.9999847412109
 11
186.2500152587891
 21
170.9999847412109
  0
LINE
  8
0
  6
CONTINUOUS
 62
     7
 10
178.9501037597656
 20
174.9999847412109
 11
178.9501037597656
 21
173.3278656005859
  0
LINE
  8
0
  6
CONTINUOUS
 62
     7
 10
186.25
 20
178.9999847412109
 11
188.25
 21
178.9999847412109
  0
LINE
  8
0
  6
CONTINUOUS
 62
     7
 10
186.25
 20
170.9999847412109
 11
188.25
 21
170.9999847412109
  0
LINE
  8
0
  6
CENTER
 62
     7
 10
178.5018615722656
 20
163.4778747558594
 11
183.3671722412109
 21
175.2237548828125
  0
LINE
  8
0
  6
CONTINUOUS
 62
     7
 10
176.7327880859375
 20
165.4784240722656
 11
181.1674194335938
 21
163.6415405273438
  0
LINE
  8
0
  6
CONTINUOUS
 62
     7
 10
176.9345550537109
 20
168.3173217773438
 11
183.0321502685547
 21
165.7916259765625
  0
LINE
  8
0
  6
CONTINUOUS
 62
     7
 10
176.7327880859375
 20
165.4784393310547
 11
176.9345550537109
 21
168.3173370361328
  0
LINE
  8
0
  6
CONTINUOUS
 62
     7
 10
181.1674041748047
 20
163.6415405273438
 11
183.0321502685547
 21
165.7916107177734
  0
LINE
  8
0
  6
CONTINUOUS
 62
     7
 10
177.6732635498047
 20
172.0381774902344
 11
178.0879364013672
 21
173.0392456054688
  0
LINE
  8
0
  6
CONTINUOUS
 62
     7
 10
185.1408538818359
 20
168.9449920654297
 11
185.5555114746094
 21
169.946044921875
  0
LINE
  8
0
  6
CONTINUOUS
 62
     7
 10
178.8673553466797
 20
173.3620758056641
 11
178.0879211425781
 21
173.0392150878906
  0
LINE
  8
0
  6
CONTINUOUS
 62
     7
 10
179.3105621337891
 20
170.7105865478516
 11
180.1831359863281
 21
172.817138671875
  0
LINE
  8
0
  6
CONTINUOUS
 62
     7
 10
183.0443267822266
 20
169.1640014648438
 11
183.9169006347656
 21
171.2705688476563
  0
LINE
  8
0
  6
CONTINUOUS
 62
     7
 10
178.8673858642578
 20
173.3621520996094
 11
185.2326812744141
 21
170.7255554199219
  0
LINE
  8
0
  6
CONTINUOUS
 62
     7
 10
185.5555114746094
 20
169.946044921875
 11
185.2326507568359
 21
170.7254943847656
  0
LINE
  8
0
  6
CONTINUOUS
 62
     7
 10
178.0648193359375
 20
169.7394714355469
 11
183.238525390625
 21
167.596435546875
  0
LINE
  8
0
  6
CONTINUOUS
 62
     7
 10
177.9030609130859
 20
171.2935791015625
 11
184.4518432617188
 21
168.5809783935547
  0
LINE
  8
0
  6
CONTINUOUS
 62
     7
 10
182.3377532958984
 20
164.990966796875
 11
186.25
 21
164.990966796875
  0
LINE
  8
0
  6
CENTER
 62
     7
 10
175.0500030517578
 20
26.99997329711914
 11
190.9785919189453
 21
26.99997329711914
  0
LINE
  8
0
  6
CONTINUOUS
 62
     7
 10
186.25
 20
22.87997817993164
 11
186.25
 21
31.11995124816895
  0
LINE
  8
0
  6
CONTINUOUS
 62
     7
 10
183.25
 20
30.99997138977051
 11
186.25
 21
30.99997138977051
  0
LINE
  8
0
  6
CONTINUOUS
 62
     7
 10
188.25
 20
31.61996650695801
 11
186.75
 21
31.61996650695801
  0
LINE
  8
0
  6
CONTINUOUS
 62
     7
 10
188.25
 20
29.30996894836426
 11
186.25
 21
29.30996894836426
  0
LINE
  8
0
  6
CONTINUOUS
 62
     7
 10
188.25
 20
22.37997817993164
 11
186.75
 21
22.37997817993164
  0
LINE
  8
0
  6
CONTINUOUS
 62
     7
 10
188.25
 20
24.68997573852539
 11
186.25
 21
24.68997573852539
  0
LINE
  8
0
  6
CONTINUOUS
 62
     7
 10
186.7499847412109
 20
22.37998008728027
 11
186.2499847412109
 21
22.87998008728027
  0
LINE
  8
0
  6
CONTINUOUS
 62
     7
 10
186.25
 20
31.11995506286621
 11
186.75
 21
31.61994361877441
  0
LINE
  8
0
  6
CONTINUOUS
 62
     7
 10
184.3499908447266
 20
23.49997329711914
 11
179.1499938964844
 21
23.49997329711914
  0
LINE
  8
0
  6
CONTINUOUS
 62
     7
 10
184.3499908447266
 20
23.45996475219727
 11
184.3499908447266
 21
23.49997329711914
  0
LINE
  8
0
  6
CONTINUOUS
 62
     7
 10
185.8500213623047
 20
26.99998474121094
 11
184.3500213623047
 21
23.49998664855957
  0
LINE
  8
0
  6
CONTINUOUS
 62
     7
 10
184.9500427246094
 20
26.99998664855957
 11
183.3500366210938
 21
23.49999237060547
  0
LINE
  8
0
  6
CONTINUOUS
 62
     7
 10
179.1499786376953
 20
23.49995613098145
 11
178.7499694824219
 21
24.07997512817383
  0
LINE
  8
0
  6
CONTINUOUS
 62
     7
 10
179.1499786376953
 20
30.49992942810059
 11
178.7499847412109
 21
29.91992378234863
  0
LINE
  8
0
  6
CONTINUOUS
 62
     7
 10
184.3499908447266
 20
30.49997138977051
 11
179.1499938964844
 21
30.49997138977051
  0
LINE
  8
0
  6
CONTINUOUS
 62
     7
 10
184.9500274658203
 20
27.00000762939453
 11
183.3500213623047
 21
30.50000953674316
  0
LINE
  8
0
  6
CONTINUOUS
 62
     7
 10
185.8499908447266
 20
26.99997711181641
 11
184.3499908447266
 21
30.49997901916504
  0
LINE
  8
0
  6
CONTINUOUS
 62
     7
 10
183.25
 20
22.99997329711914
 11
186.25
 21
22.99997329711914
  0
LINE
  8
0
  6
CONTINUOUS
 62
     7
 10
273.8476867675781
 20
10.20306777954102
 11
273.4464416503906
 21
7.935930728912354
  0
ARC
  8
0
  6
CONTINUOUS
 62
     7
 10
-34.40039443969727
 20
5.499977588653565
 40
0.5999997258186337
 50
270.0000726276028
 51
3.597217809290627E-005
  0
ARC
  8
0
  6
CONTINUOUS
 62
     7
 10
-38.60058975219727
 20
8.000033378601074
 40
3.999998569488526
 50
253.3983962649163
 51
286.6016397072624
  0
ARC
  8
0
  6
CONTINUOUS
 62
     7
 10
-37.60010147094727
 20
4.645906448364258
 40
0.4999998211860646
 50
286.6020221978556
 51
3.597217801376074E-005
  0
ARC
  8
0
  6
CONTINUOUS
 62
     7
 10
-39.60058975219727
 20
4.645906448364258
 40
0.4999998211860647
 50
180.0000359721788
 51
253.3980684158358
  0
ARC
  8
0
  6
CONTINUOUS
 62
     7
 10
-45.48340225219727
 20
7.999978065490723
 40
2.999998331069947
 50
191.6291706945558
 51
259.0005720636741
  0
ARC
  8
0
  6
CONTINUOUS
 62
     7
 10
55.01709747314453
 20
16.00000190734863
 40
4.999998569488526
 50
89.99998201391063
 51
170.000020667789
  0
ARC
  8
0
  6
CONTINUOUS
 62
     7
 10
-55.01612091064453
 20
16.00000190734863
 40
4.999998569488526
 50
9.689445521684421
 51
90.00000250447812
  0
ARC
  8
0
  6
CONTINUOUS
 62
     7
 10
-34.48242568969727
 20
19.27795600891113
 40
2.479997873306274
 50
276.9452958436168
 51
353.5634431695916
  0
ARC
  8
0
  6
CONTINUOUS
 62
     7
 10
-34.48242568969727
 20
11.72196292877197
 40
2.479997873306276
 50
6.913708723183681
 51
83.08619132845689
  0
ARC
  8
0
  6
CONTINUOUS
 62
     7
 10
34.40039443969727
 20
5.499977588653565
 40
0.5999997258186315
 50
179.9999640278213
 51
269.9999460417319
  0
ARC
  8
0
  6
CONTINUOUS
 62
     7
 10
34.48242568969727
 20
19.27795600891113
 40
2.479997873306276
 50
186.4365603591886
 51
263.100140395975
  0
ARC
  8
0
  6
CONTINUOUS
 62
     7
 10
45.48340225219727
 20
7.999978065490723
 40
2.999998331069947
 50
280.9994639085047
 51
350.0000395644948
  0
ARC
  8
0
  6
CONTINUOUS
 62
     7
 10
34.48242568969727
 20
11.72196292877197
 40
2.479997873306274
 50
96.91377269936432
 51
173.086227983881
  0
ARC
  8
0
  6
CONTINUOUS
 62
     7
 10
7.610000610351563
 20
24.70996475219727
 40
0.9683421850204466
 50
215.3314570768741
 51
278.2972225067941
  0
ARC
  8
0
  6
CONTINUOUS
 62
     7
 10
6.620010375976563
 20
22.91997146606445
 40
1.246148109436035
 50
80.76452806729958
 51
142.1250351177266
  0
ARC
  8
0
  6
CONTINUOUS
 62
     7
 10
6.620010375976563
 20
31.07997512817383
 40
1.254199028015136
 50
217.8749648822735
 51
279.2353626496737
  0
ARC
  8
0
  6
CONTINUOUS
 62
     7
 10
7.610000610351563
 20
29.28996658325195
 40
0.9701611399650563
 50
81.7028867762326
 51
144.668542923126
  0
ARC
  8
0
  6
CONTINUOUS
 62
     7
 10
0
 20
26.99997329711914
 40
4
 50
240.0000239814524
 51
241.0449882829511
  0
ARC
  8
0
  6
CONTINUOUS
 62
     7
 10
0
 20
26.99997329711914
 40
3.998106002807619
 50
61.09402038976974
 51
298.9059076658729
  0
ARC
  8
0
  6
CONTINUOUS
 62
     7
 10
211.00048828125
 20
4.645906448364258
 40
0.4999998211860666
 50
286.6020221978563
 51
3.597217801375971E-005
  0
ARC
  8
0
  6
CONTINUOUS
 62
     7
 10
210
 20
8.000033378601074
 40
3.999998569488529
 50
253.3983962649162
 51
286.6016397072623
  0
ARC
  8
0
  6
CONTINUOUS
 62
     7
 10
209
 20
4.645906448364258
 40
0.4999998211860789
 50
180.0000359721788
 51
253.3980684158358
  0
ARC
  8
0
  6
CONTINUOUS
 62
     7
 10
270
 20
8.545884132385254
 40
3.4999966621399
 50
188.9722544281774
 51
349.9637294250933
  0
ARC
  8
0
  6
CONTINUOUS
 62
     7
 10
210
 20
8.545884132385254
 40
3.499996662139886
 50
190.0000339737244
 51
350.0000054135489
  0
CIRCLE
  8
0
  6
CONTINUOUS
 62
     7
 10
210
 20
121.4999847412109
 40
4
  0
CIRCLE
  8
0
  6
CONTINUOUS
 62
     7
 10
210
 20
121.4999847412109
 40
3.400390625
  0
CIRCLE
  8
0
  6
CONTINUOUS
 62
     7
 10
120
 20
154.9999847412109
 40
3.5
  0
CIRCLE
  8
0
  6
CONTINUOUS
 62
     7
 10
120
 20
154.9999847412109
 40
5.5
  0
ARC
  8
0
  6
CONTINUOUS
 62
     7
 10
190.499755859375
 20
176.9999847412109
 40
4.249771118164061
 50
151.9258648030746
 51
208.0741178940814
  0
ARC
  8
0
  6
CONTINUOUS
 62
     7
 10
190.4998779296875
 20
172.9999847412109
 40
4.24988555908202
 50
151.9264658597215
 51
208.0735168374343
  0
ARC
  8
0
  6
CONTINUOUS
 62
     7
 10
184.0001831054688
 20
176.9999847412109
 40
4.24977111816405
 50
331.9258836997802
 51
28.07413337569262
  0
ARC
  8
0
  6
CONTINUOUS
 62
     7
 10
184.0000610351563
 20
172.9999847412109
 40
4.249885559082024
 50
331.9264847564272
 51
28.07353231904542
  0
ARC
  8
0
  6
CONTINUOUS
 62
     7
 10
179.9833526611328
 20
167.0544586181641
 40
3.299999237060546
 50
131.5803705110077
 51
157.4999548639651
  0
ARC
  8
0
  6
CONTINUOUS
 62
     7
 10
179.9833526611328
 20
167.0544586181641
 40
3.299999237060545
 50
337.5000181569009
 51
3.419602296415186
  0
ARC
  8
0
  6
CONTINUOUS
 62
     7
 10
172.0670013427734
 20
169.9005584716797
 40
6.00000000000001
 50
2.43365082934552
 51
20.87173987704925
  0
ARC
  8
0
  6
CONTINUOUS
 62
     7
 10
187.5935363769531
 20
163.4692535400391
 40
6.000000000000011
 50
114.1278165022775
 51
132.5663219780772
  0
ARC
  8
0
  6
CONTINUOUS
 62
     7
 10
177.2622985839844
 20
170.1213531494141
 40
0.7999999523162822
 50
311.5798327472963
 51
2.433049772698627
  0
ARC
  8
0
  6
CONTINUOUS
 62
     7
 10
184.0760345458984
 20
167.2990112304688
 40
0.7999999523162747
 50
132.5669776762372
 51
183.4201402735692
  0
ARC
  8
0
  6
CONTINUOUS
 62
     7
 10
182.9501037597656
 20
174.9999847412109
 40
3.999999999999998
 50
89.99998201391055
 51
180.0000186693345
  0
ARC
  8
0
  6
CONTINUOUS
 62
     7
 10
183.2500762939453
 20
27.00003433227539
 40
3.999999999999998
 50
89.99998201391055
 51
118.4958044387708
  0
ARC
  8
0
  6
CONTINUOUS
 62
     7
 10
183.2500762939453
 20
27.00003433227539
 40
3.982465744018556
 50
241.5040862782025
 51
269.9999087030627
  0
POLYLINE
  8
0
  6
CONTINUOUS
 62
     7
 66
     1
 10
0
 20
0
  0
VERTEX
  8
0
  6
CONTINUOUS
 62
     7
 10
6.819992065429688
 20
29.84994888305664
 42
0.1885745464295995
  0
VERTEX
  8
0
  6
CONTINUOUS
 62
     7
 10
6.460261538522269
 20
29.69026033696826
 42
0.07574466113809313
  0
VERTEX
  8
0
  6
CONTINUOUS
 62
     7
 10
6.216026985965466
 20
29.3724239254459
 42
0.0393359453451973
  0
VERTEX
  8
0
  6
CONTINUOUS
 62
     7
 10
6.046165317503697
 20
29.00709036625826
 42
0.02577125752722641
  0
VERTEX
  8
0
  6
CONTINUOUS
 62
     7
 10
5.924010893244023
 20
28.62293971519052
 42
0.01950521772358574
  0
VERTEX
  8
0
  6
CONTINUOUS
 62
     7
 10
5.836520256462827
 20
28.22872793825509
 42
0.0162146106057439
  0
VERTEX
  8
0
  6
CONTINUOUS
 62
     7
 10
5.777160254708038
 20
27.82913695880276
 42
0.01446653763773136
  0
VERTEX
  8
0
  6
CONTINUOUS
 62
     7
 10
5.74229278684315
 20
27.42661227546218
 42
0.0136912652682341
  0
VERTEX
  8
0
  6
CONTINUOUS
 62
     7
 10
5.730044907543697
 20
27.02246819662794
 42
0.0136048156590164
  0
VERTEX
  8
0
  6
CONTINUOUS
 62
     7
 10
5.739761797781865
 20
26.6196230460121
 42
0.01431525852917408
  0
VERTEX
  8
0
  6
CONTINUOUS
 62
     7
 10
5.771912195952454
 20
26.21737173392759
 42
0.01598185402869239
  0
VERTEX
  8
0
  6
CONTINUOUS
 62
     7
 10
5.82842391162682
 20
25.8165538690006
 42
0.0190267548397769
  0
VERTEX
  8
0
  6
CONTINUOUS
 62
     7
 10
5.912486364333772
 20
25.42140069485219
 42
0.02487977718044393
  0
VERTEX
  8
0
  6
CONTINUOUS
 62
     7
 10
6.03050285131564
 20
25.03500492554094
 42
0.03729615370147492
  0
VERTEX
  8
0
  6
CONTINUOUS
 62
     7
 10
6.194578623268982
 20
24.66582189807443
 42
0.06998284816453432
  0
VERTEX
  8
0
  6
CONTINUOUS
 62
     7
 10
6.430164842897741
 20
24.33849191496563
 42
0.173820634021353
  0
VERTEX
  8
0
  6
CONTINUOUS
 62
     7
 10
6.779932678960283
 20
24.15189497224934
 42
0
  0
SEQEND
  8
0
  0
POLYLINE
  8
0
  6
CONTINUOUS
 62
     7
 66
     1
 10
0
 20
0
 70
     1
  0
VERTEX
  8
0
  6
CONTINUOUS
 62
     7
 10
10.52000427246094
 20
29.49997329711914
 42
0.2551592727853184
  0
VERTEX
  8
0
  6
CONTINUOUS
 62
     7
 10
9.990194421972644
 20
29.07508519739293
 42
0.06319138472291336
  0
VERTEX
  8
0
  6
CONTINUOUS
 62
     7
 10
9.736099333476972
 20
28.41219855158244
 42
0.035186389181712
  0
VERTEX
  8
0
  6
CONTINUOUS
 62
     7
 10
9.609369637790104
 20
27.71214879013808
 42
0.02798531261536331
  0
VERTEX
  8
0
  6
CONTINUOUS
 62
     7
 10
9.57000732421875
 20
26.99997329711914
 42
0.02789942790999714
  0
VERTEX
  8
0
  6
CONTINUOUS
 62
     7
 10
9.609140981222661
 20
26.28982573681115
 42
0.03516017990498866
  0
VERTEX
  8
0
  6
CONTINUOUS
 62
     7
 10
9.735634869873794
 20
25.58953522029657
 42
0.06315573245379366
  0
VERTEX
  8
0
  6
CONTINUOUS
 62
     7
 10
9.989666863013211
 20
24.92579497895363
 42
0.2552844263599685
  0
VERTEX
  8
0
  6
CONTINUOUS
 62
     7
 10
10.52000427246094
 20
24.49997329711914
 42
0.2551594730476282
  0
VERTEX
  8
0
  6
CONTINUOUS
 62
     7
 10
11.04981459858741
 20
24.92486077045215
 42
0.06319156037848785
  0
VERTEX
  8
0
  6
CONTINUOUS
 62
     7
 10
11.30390981534024
 20
25.58774735461851
 42
0.03518647356583012
  0
VERTEX
  8
0
  6
CONTINUOUS
 62
     7
 10
11.4306393075316
 20
26.28779714953434
 42
0.02798539198553091
  0
VERTEX
  8
0
  6
CONTINUOUS
 62
     7
 10
11.47000122070313
 20
26.99997329711914
 42
0.02789946216538473
  0
VERTEX
  8
0
  6
CONTINUOUS
 62
     7
 10
11.4308677871041
 20
27.71012086820455
 42
0.03516022448292962
  0
VERTEX
  8
0
  6
CONTINUOUS
 62
     7
 10
11.3043740106433
 20
28.41041140315276
 42
0.06315580443699347
  0
VERTEX
  8
0
  6
CONTINUOUS
 62
     7
 10
11.05034197507806
 20
29.07415162220372
 42
0.2552843239604568
  0
SEQEND
  8
0
  0
POLYLINE
  8
0
  6
CONTINUOUS
 62
     7
 66
     1
 10
0
 20
0
 70
     1
  0
VERTEX
  8
0
  6
CONTINUOUS
 62
     7
 10
178.9500579833984
 20
29.50003433227539
 42
0.1103779520074724
  0
VERTEX
  8
0
  6
CONTINUOUS
 62
     7
 10
178.0379008629242
 20
29.29501777886493
 42
0.102506103172529
  0
VERTEX
  8
0
  6
CONTINUOUS
 62
     7
 10
177.2905667128637
 20
28.73100987658408
 42
0.09328986082768673
  0
VERTEX
  8
0
  6
CONTINUOUS
 62
     7
 10
176.8129611887922
 20
27.92411788765389
 42
0.0878208606120028
  0
VERTEX
  8
0
  6
CONTINUOUS
 62
     7
 10
176.6500701904297
 20
27.00001907348633
 42
0.08777251647293713
  0
VERTEX
  8
0
  6
CONTINUOUS
 62
     7
 10
176.812797400421
 20
26.07640101016531
 42
0.09326058119615685
  0
VERTEX
  8
0
  6
CONTINUOUS
 62
     7
 10
177.2900950708427
 20
25.26959525360813
 42
0.1026309012342312
  0
VERTEX
  8
0
  6
CONTINUOUS
 62
     7
 10
178.03830174326
 20
24.70486387491697
 42
0.1103318032910056
  0
VERTEX
  8
0
  6
CONTINUOUS
 62
     7
 10
178.9500885009766
 20
24.50003433227539
 42
0.1103779360550989
  0
VERTEX
  8
0
  6
CONTINUOUS
 62
     7
 10
179.8622456781876
 20
24.70505064908971
 42
0.102506143131389
  0
VERTEX
  8
0
  6
CONTINUOUS
 62
     7
 10
180.6095799402605
 20
25.26905839493891
 42
0.09328991636904453
  0
VERTEX
  8
0
  6
CONTINUOUS
 62
     7
 10
181.0871854654
 20
26.07595037566299
 42
0.08782093157652075
  0
VERTEX
  8
0
  6
CONTINUOUS
 62
     7
 10
181.2500762939453
 20
27.00004959106445
 42
0.08777249801951881
  0
VERTEX
  8
0
  6
CONTINUOUS
 62
     7
 10
181.0873487448584
 20
27.92366759703523
 42
0.09326051319996796
  0
VERTEX
  8
0
  6
CONTINUOUS
 62
     7
 10
180.6100509199972
 20
28.73047327165362
 42
0.1026308476638531
  0
VERTEX
  8
0
  6
CONTINUOUS
 62
     7
 10
179.8618442789667
 20
29.29520471772665
 42
0.1103318159810435
  0
SEQEND
  8
0
  0
POLYLINE
  8
0
  6
CONTINUOUS
 62
     7
 66
     1
 10
0
 20
0
  0
VERTEX
  8
0
  6
CONTINUOUS
 62
     7
 10
180.0500793457031
 20
30.25003433227539
 42
0.01434921820486454
  0
VERTEX
  8
0
  6
CONTINUOUS
 62
     7
 10
179.891198464148
 20
30.24547334363343
 42
0.01426056112693545
  0
VERTEX
  8
0
  6
CONTINUOUS
 62
     7
 10
179.7335875795044
 20
30.23189801281569
 42
0.01417567788146311
  0
VERTEX
  8
0
  6
CONTINUOUS
 62
     7
 10
179.5774886903899
 20
30.20945537491252
 42
0.01415086977466676
  0
VERTEX
  8
0
  6
CONTINUOUS
 62
     7
 10
179.4225266914301
 20
30.17813214815508
 42
0.0141015815757507
  0
VERTEX
  8
0
  6
CONTINUOUS
 62
     7
 10
179.2692648520806
 20
30.13802461437457
 42
0.0140295776074568
  0
VERTEX
  8
0
  6
CONTINUOUS
 62
     7
 10
179.1182481581005
 20
30.08928059512152
 42
0.0139369971095878
  0
VERTEX
  8
0
  6
CONTINUOUS
 62
     7
 10
178.9699978318555
 20
30.032095238467
 42
0.01382627700121321
  0
VERTEX
  8
0
  6
CONTINUOUS
 62
     7
 10
178.8250067124921
 20
29.96670602881203
 42
0.01370006726762088
  0
VERTEX
  8
0
  6
CONTINUOUS
 62
     7
 10
178.6837356133124
 20
29.89338723723599
 42
0.01356114429090419
  0
VERTEX
  8
0
  6
CONTINUOUS
 62
     7
 10
178.5466107203079
 20
29.81244404659689
 42
0.01332237275811021
  0
VERTEX
  8
0
  6
CONTINUOUS
 62
     7
 10
178.4149008544772
 20
29.72482576885066
 42
0.01328780149532985
  0
VERTEX
  8
0
  6
CONTINUOUS
 62
     7
 10
178.2868800837423
 20
29.62946272461149
 42
0.01315486992924546
  0
VERTEX
  8
0
  6
CONTINUOUS
 62
     7
 10
178.1638278551037
 20
29.52725742267944
 42
0.0129383350315773
  0
VERTEX
  8
0
  6
CONTINUOUS
 62
     7
 10
178.0467835913458
 20
29.41924309441977
 42
0.01278034264991186
  0
VERTEX
  8
0
  6
CONTINUOUS
 62
     7
 10
177.9354471840204
 20
29.3053541208517
 42
0.01262533130663992
  0
VERTEX
  8
0
  6
CONTINUOUS
 62
     7
 10
177.8300377528012
 20
29.18595707228674
 42
0
  0
SEQEND
  8
0
  0
POLYLINE
  8
0
  6
CONTINUOUS
 62
     7
 66
     1
 10
0
 20
0
  0
VERTEX
  8
0
  6
CONTINUOUS
 62
     7
 10
177.8260109035166
 20
24.81892128811381
 42
0.06283199533623013
  0
VERTEX
  8
0
  6
CONTINUOUS
 62
     7
 10
178.3903097186882
 20
24.29274916459321
 42
0.06649698444580048
  0
VERTEX
  8
0
  6
CONTINUOUS
 62
     7
 10
179.0703100562327
 20
23.92824445945423
 42
0.06915551843232146
  0
VERTEX
  8
0
  6
CONTINUOUS
 62
     7
 10
179.8226646782232
 20
23.7593857237782
 42
0.06975294719949005
  0
VERTEX
  8
0
  6
CONTINUOUS
 62
     7
 10
180.5914195579605
 20
23.80338373291107
 42
0.06816347455691003
  0
VERTEX
  8
0
  6
CONTINUOUS
 62
     7
 10
181.3192629952014
 20
24.0552054013813
 42
0.06499586596251018
  0
VERTEX
  8
0
  6
CONTINUOUS
 62
     7
 10
181.9558286875856
 20
24.49003683546253
 42
0.06129087960757963
  0
VERTEX
  8
0
  6
CONTINUOUS
 62
     7
 10
182.4638861948102
 20
25.07013781269838
 42
0.05807959718271795
  0
VERTEX
  8
0
  6
CONTINUOUS
 62
     7
 10
182.820883354874
 20
25.75413173848935
 42
0.05590537556181539
  0
VERTEX
  8
0
  6
CONTINUOUS
 62
     7
 10
183.0145421112216
 20
26.5012756647437
 42
0.0549636775261704
  0
VERTEX
  8
0
  6
CONTINUOUS
 62
     7
 10
183.0395570760956
 20
27.27199815518994
 42
0.05547385665415529
  0
VERTEX
  8
0
  6
CONTINUOUS
 62
     7
 10
182.8954782740433
 20
28.02988746701598
 42
0.05728037912746841
  0
VERTEX
  8
0
  6
CONTINUOUS
 62
     7
 10
182.5860689084245
 20
28.73632925767585
 42
0.06026825000438586
  0
VERTEX
  8
0
  6
CONTINUOUS
 62
     7
 10
182.1208302528406
 20
29.35163852742436
 42
0.06395239830464651
  0
VERTEX
  8
0
  6
CONTINUOUS
 62
     7
 10
181.5186241080456
 20
29.83401741126255
 42
0.06744492301978758
  0
VERTEX
  8
0
  6
CONTINUOUS
 62
     7
 10
180.8119670097498
 20
30.14347976200727
 42
0.06944156007664594
  0
VERTEX
  8
0
  6
CONTINUOUS
 62
     7
 10
180.0500793457031
 20
30.25003433227539
 42
0
  0
SEQEND
  8
0
  0
TEXT
  8
0
  6
CONTINUOUS
 62
     7
 10
-11.28550004959106
 20
-31.79999995231628
 40
3.599999904632568
 41
1.00619571870364
  1
HRW35CAM
  0
ENDSEC
  0
EOF
