  0
SECTION
  2
HEADER
  0
ENDSEC
  0
SECTION
  2
TABLES
  0
TABLE
  2
LTYPE
 70
    22
  0
LTYPE
  2
CONTINUOUS
 70
    64
  3
Solid line
 72
    65
 73
     0
 40
0.000000
  0
LTYPE
  2
DASHED
 70
    64
  3
__ __ __ __ __ __ __ __ __ __ __ __ __ __ __
 72
    65
 73
     2
 40
3.500000
 49
2.000000
 49
-1.500000
  0
LTYPE
  2
CENTER
 70
    64
  3
____ _ ____ _ ____ _ ____ _ ____ _ ____ _ ____
 72
    65
 73
     4
 40
17.500000
 49
13.000000
 49
-1.500000
 49
1.500000
 49
-1.500000
  0
LTYPE
  2
PHANTOM
 70
    64
  3
_____ _ _ _____ _ _ _____ _ _ _____ _ _ ____  
 72
    65
 73
     6
 40
15.500000
 49
8.000000
 49
-1.500000
 49
1.500000
 49
-1.500000
 49
1.500000
 49
-1.500000
  0
LTYPE
  2
DOT
 70
    64
  3
. . . . . . . . . . . . . . . . . . . . . . . .
 72
    65
 73
     2
 40
0.25
 49
0.0
 49
-0.25
  0
ENDTAB
  0
TABLE
  2
LAYER
 70
     1
  0
LAYER
  2
0
 70
     0
 62
     7
  6
CONTINUOUS
  0
ENDTAB
  0
TABLE
  2
STYLE
 70
     1
  0
STYLE
  2
STANDARD
 70
     0
 40
0.000000
 41
1.000000
 50
0.000000
 71
     0
 42
0.200000
  3
txt
  0
ENDTAB
  0
TABLE
  2
VIEW
 70
     0
  0
ENDTAB
  0
ENDSEC
  0
SECTION
  2
BLOCKS
  0
ENDSEC
  0
SECTION
  2
ENTITIES
  0
LINE
  8
0
  6
CONTINUOUS
 62
     7
 10
-44
 20
0
 11
-21
 21
0
  0
LINE
  8
0
  6
CONTINUOUS
 62
     7
 10
-45
 20
4.4700012
 11
-45
 21
1
  0
LINE
  8
0
  6
CONTINUOUS
 62
     7
 10
-41.359863
 20
24
 11
-21
 21
24
  0
LINE
  8
0
  6
CONTINUOUS
 62
     7
 10
-39.899277
 20
12.459821
 11
-41.610764
 21
14.171309
  0
LINE
  8
0
  6
CONTINUOUS
 62
     7
 10
-45
 20
20.360016
 11
-45
 21
17.560394
  0
LINE
  8
0
  6
CONTINUOUS
 62
     7
 10
-41.35902
 20
23.999205
 11
-41.613743
 21
23.744484
  0
LINE
  8
0
  6
CONTINUOUS
 62
     7
 10
-44.824184
 20
17.385174
 11
-44.997517
 21
17.558491
  0
LINE
  8
0
  6
CONTINUOUS
 62
     7
 10
-44.742786
 20
20.615437
 11
-44.998997
 21
20.359228
  0
LINE
  8
0
  6
CONTINUOUS
 62
     7
 10
-39.899902
 20
12.460419
 11
-39.899902
 21
7.4144897
  0
LINE
  8
0
  6
CONTINUOUS
 62
     7
 10
-39.899166
 20
7.4141822
 11
-44.999325
 21
4.4696002
  0
LINE
  8
0
  6
CONTINUOUS
 62
     7
 10
-44.999401
 20
0.99979305
 11
-43.999157
 21
-0.0004396711
  0
LINE
  8
0
  6
CONTINUOUS
 62
     7
 10
20.000446
 20
0.99993432
 11
21.00034
 21
4.1135325E-005
  0
LINE
  8
0
  6
CONTINUOUS
 62
     7
 10
20.000706
 20
22.999483
 11
21.000708
 21
23.999485
  0
LINE
  8
0
  6
CONTINUOUS
 62
     7
 10
-19.999121
 20
0.99928695
 11
-20.999102
 21
-0.00069255702
  0
LINE
  8
0
  6
CONTINUOUS
 62
     7
 10
-19.999208
 20
22.999701
 11
-20.999102
 21
23.999594
  0
LINE
  8
0
  6
CONTINUOUS
 62
     7
 10
-20
 20
1
 11
20
 21
1
  0
LINE
  8
0
  6
CONTINUOUS
 62
     7
 10
-20
 20
23.000031
 11
20
 21
23.000031
  0
LINE
  8
0
  6
CONTINUOUS
 62
     7
 10
21
 20
24
 11
41.358223
 21
24
  0
LINE
  8
0
  6
CONTINUOUS
 62
     7
 10
21
 20
0
 11
44.000488
 21
0
  0
LINE
  8
0
  6
CENTER
 62
     7
 10
0
 20
51
 11
0
 21
-1
  0
LINE
  8
0
  6
CENTER
 62
     7
 10
30
 20
25
 11
30
 21
-1
  0
LINE
  8
0
  6
CONTINUOUS
 62
     7
 10
-54
 20
5
 11
-61.49905
 21
5
  0
LINE
  8
0
  6
CONTINUOUS
 62
     7
 10
40.400391
 20
7.7999878
 11
62
 21
7.7999878
  0
LINE
  8
0
  6
CONTINUOUS
 62
     7
 10
64
 20
44.499939
 11
64
 21
7.500061
  0
LINE
  8
0
  6
CONTINUOUS
 62
     7
 10
62.000565
 20
45.999832
 11
64.000694
 21
43.999695
  0
LINE
  8
0
  6
CONTINUOUS
 62
     7
 10
64.000519
 20
9.7995806
 11
62.000515
 21
7.7995834
  0
LINE
  8
0
  6
CONTINUOUS
 62
     7
 10
42.900391
 20
11.217773
 11
42.900391
 21
7.7999878
  0
LINE
  8
0
  6
CONTINUOUS
 62
     7
 10
42.900761
 20
11.217199
 11
48.000744
 21
16.317181
  0
LINE
  8
0
  6
CONTINUOUS
 62
     7
 10
48.000488
 20
21.602539
 11
48.000488
 21
16.317749
  0
LINE
  8
0
  6
CONTINUOUS
 62
     7
 10
42.603107
 20
26.999971
 11
48.000668
 21
21.602413
  0
LINE
  8
0
  6
CONTINUOUS
 62
     7
 10
19.757813
 20
26.999969
 11
42.603027
 21
26.999969
  0
LINE
  8
0
  6
CONTINUOUS
 62
     7
 10
18.758112
 20
25.999413
 11
19.758091
 21
26.999393
  0
LINE
  8
0
  6
CONTINUOUS
 62
     7
 10
39.90033
 20
8.3001528
 11
40.400272
 21
7.8002043
  0
LINE
  8
0
  6
CONTINUOUS
 62
     7
 10
-54
 20
6.1999817
 11
-45.599609
 21
6.1999817
  0
LINE
  8
0
  6
CONTINUOUS
 62
     7
 10
-54
 20
4.9999695
 11
-54
 21
6.1999817
  0
LINE
  8
0
  6
CONTINUOUS
 62
     7
 10
-63.998878
 20
7.4998274
 11
-61.498798
 21
4.999752
  0
LINE
  8
0
  6
CONTINUOUS
 62
     7
 10
-54
 20
5.8999634
 11
-44.799805
 21
5.8999634
  0
LINE
  8
0
  6
CONTINUOUS
 62
     7
 10
-44.799805
 20
5.8999634
 11
-44.799805
 21
7.7999878
  0
LINE
  8
0
  6
CONTINUOUS
 62
     7
 10
-45.099609
 20
6.6999817
 11
-45.099609
 21
7.7999878
  0
LINE
  8
0
  6
CONTINUOUS
 62
     7
 10
-53.699707
 20
5.0999756
 11
-53.699707
 21
5.8999634
  0
LINE
  8
0
  6
CONTINUOUS
 62
     7
 10
-53.699707
 20
5.0999756
 11
-44.799805
 21
5.0999756
  0
LINE
  8
0
  6
CONTINUOUS
 62
     7
 10
-44
 20
5.8999634
 11
-44
 21
7.7999878
  0
LINE
  8
0
  6
CENTER
 62
     7
 10
-50.25
 20
2.4000001
 11
-50.25
 21
9.3999996
  0
LINE
  8
0
  6
CONTINUOUS
 62
     7
 10
-52.5
 20
4.4062562
 11
-52.5
 21
5.0999756
  0
LINE
  8
0
  6
CONTINUOUS
 62
     7
 10
-48
 20
4.4062562
 11
-48
 21
5.0999756
  0
LINE
  8
0
  6
CONTINUOUS
 62
     7
 10
-61.999512
 20
7.7999878
 11
-40.399902
 21
7.7999878
  0
LINE
  8
0
  6
CONTINUOUS
 62
     7
 10
-64
 20
7.500061
 11
-64
 21
44.500526
  0
LINE
  8
0
  6
CONTINUOUS
 62
     7
 10
-61.998928
 20
7.7997131
 11
-63.999065
 21
9.79984
  0
LINE
  8
0
  6
CONTINUOUS
 62
     7
 10
-42.899902
 20
7.7999878
 11
-42.899902
 21
11.217773
  0
LINE
  8
0
  6
CONTINUOUS
 62
     7
 10
-47.998962
 20
16.31745
 11
-42.899025
 21
11.217512
  0
LINE
  8
0
  6
CONTINUOUS
 62
     7
 10
-48
 20
16.317749
 11
-48
 21
21.602539
  0
LINE
  8
0
  6
CONTINUOUS
 62
     7
 10
-47.998714
 20
21.601452
 11
-42.601284
 21
26.99888
  0
LINE
  8
0
  6
CONTINUOUS
 62
     7
 10
-42.602539
 20
26.999969
 11
-19.757324
 21
26.999969
  0
LINE
  8
0
  6
CONTINUOUS
 62
     7
 10
-19.756529
 20
26.999542
 11
-18.756636
 21
25.999649
  0
LINE
  8
0
  6
CONTINUOUS
 62
     7
 10
-40.398926
 20
7.7990646
 11
-39.898937
 21
8.2990561
  0
LINE
  8
0
  6
CONTINUOUS
 62
     7
 10
-62.000435
 20
45.999969
 11
62
 21
45.999969
  0
LINE
  8
0
  6
CONTINUOUS
 62
     7
 10
-18.757324
 20
26
 11
18.757813
 21
26
  0
LINE
  8
0
  6
CONTINUOUS
 62
     7
 10
213.25
 20
5
 11
346.75
 21
5
  0
LINE
  8
0
  6
CONTINUOUS
 62
     7
 10
237.75
 20
5
 11
237.75
 21
4.4062562
  0
LINE
  8
0
  6
CONTINUOUS
 62
     7
 10
242.25
 20
5
 11
242.25
 21
4.4062562
  0
LINE
  8
0
  6
CONTINUOUS
 62
     7
 10
214.25275
 20
47
 11
228.25012
 21
47
  0
LINE
  8
0
  6
CONTINUOUS
 62
     7
 10
213.25
 20
45.997253
 11
214.25275
 21
46.999996
  0
LINE
  8
0
  6
CONTINUOUS
 62
     7
 10
211.25
 20
46
 11
211.25
 21
7.7999878
  0
LINE
  8
0
  6
CONTINUOUS
 62
     7
 10
209.25
 20
25
 11
209.25
 21
7.7999878
  0
LINE
  8
0
  6
CONTINUOUS
 62
     7
 10
211.25
 20
46
 11
213.25
 21
46
  0
LINE
  8
0
  6
CONTINUOUS
 62
     7
 10
209.25
 20
7.7999878
 11
213.25
 21
7.7999878
  0
LINE
  8
0
  6
CONTINUOUS
 62
     7
 10
213.25
 20
45.997257
 11
213.25
 21
5
  0
LINE
  8
0
  6
CONTINUOUS
 62
     7
 10
207.1123
 20
41.853424
 11
210.68799
 21
41.853424
  0
LINE
  8
0
  6
CONTINUOUS
 62
     7
 10
206.55029
 20
38.966675
 11
211.25
 21
38.966675
  0
LINE
  8
0
  6
CONTINUOUS
 62
     7
 10
206.55029
 20
40.879944
 11
206.55029
 21
35.999939
  0
LINE
  8
0
  6
CONTINUOUS
 62
     7
 10
199.05029
 20
40.799713
 11
206.55029
 21
40.799713
  0
LINE
  8
0
  6
CONTINUOUS
 62
     7
 10
206.55029
 20
31.199738
 11
199.05029
 21
31.199738
  0
LINE
  8
0
  6
CONTINUOUS
 62
     7
 10
196.90039
 20
39.579956
 11
201.4751
 21
39.579956
  0
LINE
  8
0
  6
CONTINUOUS
 62
     7
 10
206.55312
 20
40.878075
 11
207.11516
 21
41.851559
  0
LINE
  8
0
  6
CONTINUOUS
 62
     7
 10
206.55078
 20
35.999725
 11
206.55078
 21
31.11972
  0
LINE
  8
0
  6
CONTINUOUS
 62
     7
 10
207.11279
 20
30.145599
 11
206.55078
 21
31.119032
  0
LINE
  8
0
  6
CONTINUOUS
 62
     7
 10
210.68848
 20
30.14624
 11
207.11279
 21
30.14624
  0
LINE
  8
0
  6
CONTINUOUS
 62
     7
 10
211.25
 20
33.03299
 11
206.55078
 21
33.03299
  0
LINE
  8
0
  6
CONTINUOUS
 62
     7
 10
210.68866
 20
41.852547
 11
211.25067
 21
40.879112
  0
LINE
  8
0
  6
CONTINUOUS
 62
     7
 10
211.25304
 20
31.118179
 11
210.69099
 21
30.144695
  0
LINE
  8
0
  6
CONTINUOUS
 62
     7
 10
201.47624
 20
39.578499
 11
203.31635
 21
35.998302
  0
LINE
  8
0
  6
CONTINUOUS
 62
     7
 10
196.50577
 20
38.805424
 11
196.90295
 21
39.578197
  0
LINE
  8
0
  6
CONTINUOUS
 62
     7
 10
200.60132
 20
39.578415
 11
202.44142
 21
35.998219
  0
LINE
  8
0
  6
CONTINUOUS
 62
     7
 10
202.4431
 20
35.998253
 11
200.6031
 21
32.418259
  0
LINE
  8
0
  6
CONTINUOUS
 62
     7
 10
203.31805
 20
35.998081
 11
201.47803
 21
32.418045
  0
LINE
  8
0
  6
CONTINUOUS
 62
     7
 10
201.47559
 20
32.419739
 11
196.90088
 21
32.419739
  0
LINE
  8
0
  6
CONTINUOUS
 62
     7
 10
196.90126
 20
32.418438
 11
196.50418
 21
33.191021
  0
LINE
  8
0
  6
CENTER
 62
     7
 10
192.57422
 20
36
 11
212.94922
 21
36
  0
LINE
  8
0
  6
CENTER
 62
     7
 10
-30
 20
25
 11
-30
 21
-1
  0
LINE
  8
0
  6
DASHED
 62
     7
 10
-23
 20
12
 11
-37
 21
12
  0
LINE
  8
0
  6
DASHED
 62
     7
 10
-25.5
 20
12
 11
-25.5
 21
0
  0
LINE
  8
0
  6
DASHED
 62
     7
 10
-34.5
 20
12
 11
-34.5
 21
0
  0
LINE
  8
0
  6
CONTINUOUS
 62
     7
 10
54
 20
5
 11
61.500629
 21
5
  0
LINE
  8
0
  6
CONTINUOUS
 62
     7
 10
-61.50053
 20
47
 11
61.5
 21
47
  0
LINE
  8
0
  6
CONTINUOUS
 62
     7
 10
45.600098
 20
6.1999817
 11
54
 21
6.1999817
  0
LINE
  8
0
  6
CONTINUOUS
 62
     7
 10
54.000488
 20
6.1999817
 11
54.000488
 21
4.9999695
  0
LINE
  8
0
  6
CONTINUOUS
 62
     7
 10
61.500584
 20
46.99995
 11
64.000656
 21
44.49987
  0
LINE
  8
0
  6
CONTINUOUS
 62
     7
 10
61.500408
 20
4.9997735
 11
64.00042
 21
7.499784
  0
LINE
  8
0
  6
CONTINUOUS
 62
     7
 10
44.800293
 20
5.8999634
 11
54
 21
5.8999634
  0
LINE
  8
0
  6
CONTINUOUS
 62
     7
 10
44.800293
 20
7.7999878
 11
44.800293
 21
5.8999634
  0
LINE
  8
0
  6
CONTINUOUS
 62
     7
 10
45.100098
 20
7.7999878
 11
45.100098
 21
6.6999817
  0
LINE
  8
0
  6
CONTINUOUS
 62
     7
 10
45.100517
 20
6.6999087
 11
45.600464
 21
6.1999593
  0
LINE
  8
0
  6
CONTINUOUS
 62
     7
 10
53.700195
 20
5.8999634
 11
53.700195
 21
5.0999756
  0
LINE
  8
0
  6
CONTINUOUS
 62
     7
 10
44.800293
 20
5.0999756
 11
53.700195
 21
5.0999756
  0
LINE
  8
0
  6
CONTINUOUS
 62
     7
 10
44
 20
7.7999878
 11
44
 21
5.8999634
  0
LINE
  8
0
  6
CENTER
 62
     7
 10
50.250488
 20
9.3999634
 11
50.250488
 21
2.3999634
  0
LINE
  8
0
  6
CONTINUOUS
 62
     7
 10
346.75
 20
46
 11
346.75
 21
5
  0
LINE
  8
0
  6
CONTINUOUS
 62
     7
 10
350.75
 20
7.7999878
 11
346.75
 21
7.7999878
  0
LINE
  8
0
  6
CONTINUOUS
 62
     7
 10
348.75
 20
46
 11
346.75
 21
46
  0
LINE
  8
0
  6
CONTINUOUS
 62
     7
 10
350.75
 20
25
 11
350.75
 21
7.7999878
  0
LINE
  8
0
  6
CONTINUOUS
 62
     7
 10
348.75
 20
46
 11
348.75
 21
7.7999878
  0
LINE
  8
0
  6
CONTINUOUS
 62
     7
 10
346.7485
 20
45.998722
 11
345.7485
 21
46.998722
  0
LINE
  8
0
  6
CONTINUOUS
 62
     7
 10
345.74722
 20
47
 11
331.74988
 21
47
  0
LINE
  8
0
  6
CONTINUOUS
 62
     7
 10
-45.099609
 20
6.6999817
 11
-45.599609
 21
6.1999826
  0
LINE
  8
0
  6
CONTINUOUS
 62
     7
 10
-62.000565
 20
45.999832
 11
-64.000694
 21
43.999695
  0
LINE
  8
0
  6
CONTINUOUS
 62
     7
 10
-61.500584
 20
46.99995
 11
-64.000656
 21
44.49987
  0
LINE
  8
0
  6
CENTER
 62
     7
 10
-6.8178654
 20
36
 11
14.14656
 21
36
  0
LINE
  8
0
  6
CONTINUOUS
 62
     7
 10
2.6165762
 20
39.5
 11
6.6965628
 21
39.5
  0
LINE
  8
0
  6
CONTINUOUS
 62
     7
 10
2.6165762
 20
32.5
 11
6.6965628
 21
32.5
  0
LINE
  8
0
  6
CONTINUOUS
 62
     7
 10
1.9665687
 20
35.999954
 11
2.6165619
 21
32.499954
  0
LINE
  8
0
  6
CONTINUOUS
 62
     7
 10
1.9665653
 20
35.999969
 11
2.6165562
 21
39.499954
  0
LINE
  8
0
  6
CONTINUOUS
 62
     7
 10
4.2765808
 20
35.99995
 11
4.9265919
 21
32.499939
  0
LINE
  8
0
  6
CONTINUOUS
 62
     7
 10
4.2765517
 20
35.999962
 11
4.9265633
 21
39.499977
  0
LINE
  8
0
  6
CONTINUOUS
 62
     7
 10
6.7865801
 20
32.969975
 11
6.6965675
 21
32.499969
  0
LINE
  8
0
  6
CONTINUOUS
 62
     7
 10
6.7865982
 20
39.019989
 11
6.6965899
 21
39.499981
  0
LINE
  8
0
  6
CONTINUOUS
 62
     7
 10
8.6025267
 20
32.754284
 11
11.356558
 21
33.499958
  0
LINE
  8
0
  6
CONTINUOUS
 62
     7
 10
8.5865517
 20
39.249989
 11
11.356564
 21
38.499989
  0
LINE
  8
0
  6
CONTINUOUS
 62
     7
 10
-5.000021
 20
33.113251
 11
-2.6089307E-005
 21
30.226505
  0
LINE
  8
0
  6
CONTINUOUS
 62
     7
 10
-4.999999
 20
38.886734
 11
-4.999999
 21
36
  0
LINE
  8
0
  6
CONTINUOUS
 62
     7
 10
-3.4958626E-005
 20
41.773464
 11
-5.0000305
 21
38.886715
  0
LINE
  8
0
  6
CONTINUOUS
 62
     7
 10
-4.999999
 20
36
 11
-4.999999
 21
33.113266
  0
LINE
  8
0
  6
CONTINUOUS
 62
     7
 10
3.9377966
 20
39.499989
 11
3.6099365E-005
 21
41.773453
  0
LINE
  8
0
  6
CONTINUOUS
 62
     7
 10
1.7821072E-005
 20
30.226528
 11
3.9377792
 21
32.499996
  0
LINE
  8
0
  6
CONTINUOUS
 62
     7
 10
140
 20
24
 11
140
 21
0
  0
LINE
  8
0
  6
CONTINUOUS
 62
     7
 10
140
 20
0
 11
420
 21
0
  0
LINE
  8
0
  6
CONTINUOUS
 62
     7
 10
140
 20
24
 11
209.25
 21
24
  0
LINE
  8
0
  6
DASHED
 62
     7
 10
155.5
 20
12
 11
155.5
 21
0
  0
LINE
  8
0
  6
DASHED
 62
     7
 10
164.5
 20
12
 11
164.5
 21
0
  0
LINE
  8
0
  6
DASHED
 62
     7
 10
167
 20
12
 11
153
 21
12
  0
LINE
  8
0
  6
CENTER
 62
     7
 10
160
 20
25
 11
160
 21
-1.8443298
  0
LINE
  8
0
  6
CENTER
 62
     7
 10
400
 20
26.41571
 11
400
 21
-1.8443298
  0
LINE
  8
0
  6
CONTINUOUS
 62
     7
 10
420
 20
24
 11
350.75
 21
24
  0
LINE
  8
0
  6
CONTINUOUS
 62
     7
 10
420
 20
24
 11
420
 21
0
  0
LINE
  8
0
  6
DASHED
 62
     7
 10
153
 20
24
 11
153
 21
12
  0
LINE
  8
0
  6
DASHED
 62
     7
 10
167
 20
24
 11
167
 21
12
  0
LINE
  8
0
  6
DASHED
 62
     7
 10
-37
 20
24
 11
-37
 21
12
  0
LINE
  8
0
  6
DASHED
 62
     7
 10
-23
 20
24
 11
-23
 21
12
  0
LINE
  8
0
  6
CONTINUOUS
 62
     7
 10
44.999401
 20
0.99979305
 11
43.999157
 21
-0.0004396711
  0
LINE
  8
0
  6
CONTINUOUS
 62
     7
 10
39.899166
 20
7.4141822
 11
44.999325
 21
4.4696002
  0
LINE
  8
0
  6
CONTINUOUS
 62
     7
 10
39.899902
 20
12.460419
 11
39.899902
 21
7.4144897
  0
LINE
  8
0
  6
CONTINUOUS
 62
     7
 10
44.742786
 20
20.615437
 11
44.998997
 21
20.359228
  0
LINE
  8
0
  6
CONTINUOUS
 62
     7
 10
44.824184
 20
17.385174
 11
44.997517
 21
17.558491
  0
LINE
  8
0
  6
CONTINUOUS
 62
     7
 10
41.35902
 20
23.999205
 11
41.613743
 21
23.744484
  0
LINE
  8
0
  6
CONTINUOUS
 62
     7
 10
45
 20
20.360016
 11
45
 21
17.560394
  0
LINE
  8
0
  6
CONTINUOUS
 62
     7
 10
39.899902
 20
12.460446
 11
41.610764
 21
14.171309
  0
LINE
  8
0
  6
CONTINUOUS
 62
     7
 10
45
 20
4.4700012
 11
45
 21
1
  0
LINE
  8
0
  6
CONTINUOUS
 62
     7
 10
228.25
 20
147
 11
211.25
 21
147
  0
LINE
  8
0
  6
CONTINUOUS
 62
     7
 10
209.25
 20
166
 11
140
 21
166
  0
LINE
  8
0
  6
CONTINUOUS
 62
     7
 10
209.25
 20
165
 11
211.25
 21
163
  0
LINE
  8
0
  6
CONTINUOUS
 62
     7
 10
209.25
 20
25.000006
 11
211.25
 21
26.999996
  0
LINE
  8
0
  6
CONTINUOUS
 62
     7
 10
348.75
 20
26.999996
 11
350.75
 21
25.000006
  0
LINE
  8
0
  6
CONTINUOUS
 62
     7
 10
209.25
 20
189.99878
 11
140
 21
189.99878
  0
LINE
  8
0
  6
CONTINUOUS
 62
     7
 10
209.25
 20
169.64177
 11
140
 21
169.64177
  0
LINE
  8
0
  6
CENTER
 62
     7
 10
160
 20
189
 11
160
 21
173
  0
LINE
  8
0
  6
CENTER
 62
     7
 10
152
 20
181
 11
168
 21
181
  0
LINE
  8
0
  6
CONTINUOUS
 62
     7
 10
209.25
 20
252.35823
 11
140
 21
252.35823
  0
LINE
  8
0
  6
CONTINUOUS
 62
     7
 10
228.25
 20
146
 11
228.25
 21
276
  0
LINE
  8
0
  6
CONTINUOUS
 62
     7
 10
212.94922
 20
147
 11
212.94922
 21
275
  0
LINE
  8
0
  6
CONTINUOUS
 62
     7
 10
211.25
 20
147
 11
211.25
 21
275
  0
LINE
  8
0
  6
CONTINUOUS
 62
     7
 10
228.25
 20
275
 11
211.25
 21
275
  0
LINE
  8
0
  6
CONTINUOUS
 62
     7
 10
209.25
 20
165
 11
209.25
 21
206
  0
LINE
  8
0
  6
CONTINUOUS
 62
     7
 10
140
 20
166
 11
140
 21
256
  0
LINE
  8
0
  6
CONTINUOUS
 62
     7
 10
209.25
 20
257
 11
211.25
 21
259
  0
LINE
  8
0
  6
CONTINUOUS
 62
     7
 10
209.25
 20
256
 11
140
 21
256
  0
LINE
  8
0
  6
CONTINUOUS
 62
     7
 10
209.25
 20
232.00122
 11
140
 21
232.00122
  0
LINE
  8
0
  6
CENTER
 62
     7
 10
152
 20
241
 11
168
 21
241
  0
LINE
  8
0
  6
CENTER
 62
     7
 10
160
 20
233
 11
160
 21
249
  0
LINE
  8
0
  6
CENTER
 62
     7
 10
232
 20
181
 11
248
 21
181
  0
LINE
  8
0
  6
CENTER
 62
     7
 10
240
 20
189
 11
240
 21
173
  0
LINE
  8
0
  6
CENTER
 62
     7
 10
232
 20
241
 11
248
 21
241
  0
LINE
  8
0
  6
CENTER
 62
     7
 10
240
 20
233
 11
240
 21
249
  0
LINE
  8
0
  6
CONTINUOUS
 62
     7
 10
350.75
 20
169.64177
 11
420
 21
169.64177
  0
LINE
  8
0
  6
CENTER
 62
     7
 10
328
 20
241
 11
312
 21
241
  0
LINE
  8
0
  6
CONTINUOUS
 62
     7
 10
331.75
 20
146
 11
331.75
 21
276
  0
LINE
  8
0
  6
CENTER
 62
     7
 10
139
 20
211
 11
421
 21
211
  0
LINE
  8
0
  6
CONTINUOUS
 62
     7
 10
331.75
 20
147
 11
348.75
 21
147
  0
LINE
  8
0
  6
CONTINUOUS
 62
     7
 10
347.05078
 20
147
 11
347.05078
 21
275
  0
LINE
  8
0
  6
CENTER
 62
     7
 10
320
 20
233
 11
320
 21
249
  0
LINE
  8
0
  6
CONTINUOUS
 62
     7
 10
350.74997
 20
165
 11
348.75
 21
163.00002
  0
LINE
  8
0
  6
CONTINUOUS
 62
     7
 10
350.75
 20
166
 11
420
 21
166
  0
LINE
  8
0
  6
CONTINUOUS
 62
     7
 10
350.75
 20
189.99878
 11
420
 21
189.99878
  0
LINE
  8
0
  6
CENTER
 62
     7
 10
408
 20
181
 11
392
 21
181
  0
LINE
  8
0
  6
CENTER
 62
     7
 10
400
 20
189
 11
400
 21
173
  0
LINE
  8
0
  6
CONTINUOUS
 62
     7
 10
350.75
 20
252.35823
 11
420
 21
252.35823
  0
LINE
  8
0
  6
CONTINUOUS
 62
     7
 10
348.75
 20
147
 11
348.75
 21
275
  0
LINE
  8
0
  6
CONTINUOUS
 62
     7
 10
331.75
 20
275
 11
348.75
 21
275
  0
LINE
  8
0
  6
CONTINUOUS
 62
     7
 10
350.75
 20
165
 11
350.75
 21
257
  0
LINE
  8
0
  6
CONTINUOUS
 62
     7
 10
420
 20
166
 11
420
 21
256
  0
LINE
  8
0
  6
CONTINUOUS
 62
     7
 10
350.75
 20
257
 11
348.75
 21
259
  0
LINE
  8
0
  6
CONTINUOUS
 62
     7
 10
350.75
 20
256
 11
420
 21
256
  0
LINE
  8
0
  6
CONTINUOUS
 62
     7
 10
350.75
 20
232.00122
 11
420
 21
232.00122
  0
LINE
  8
0
  6
CENTER
 62
     7
 10
408
 20
241
 11
392
 21
241
  0
LINE
  8
0
  6
CENTER
 62
     7
 10
400
 20
233
 11
400
 21
249
  0
LINE
  8
0
  6
CENTER
 62
     7
 10
196.21284
 20
197.91136
 11
201.79178
 21
211.38007
  0
LINE
  8
0
  6
CONTINUOUS
 62
     7
 10
194.63303
 20
200.36882
 11
199.06764
 21
198.53195
  0
LINE
  8
0
  6
CONTINUOUS
 62
     7
 10
194.83479
 20
203.20772
 11
200.93237
 21
200.68202
  0
LINE
  8
0
  6
CONTINUOUS
 62
     7
 10
194.63303
 20
200.36882
 11
194.83479
 21
203.20772
  0
LINE
  8
0
  6
CONTINUOUS
 62
     7
 10
199.06769
 20
198.53197
 11
200.93242
 21
200.68202
  0
LINE
  8
0
  6
CONTINUOUS
 62
     7
 10
195.57349
 20
206.92859
 11
195.98816
 21
207.92966
  0
LINE
  8
0
  6
CONTINUOUS
 62
     7
 10
203.04112
 20
203.83542
 11
203.45576
 21
204.83647
  0
LINE
  8
0
  6
CONTINUOUS
 62
     7
 10
196.76762
 20
208.25246
 11
195.98819
 21
207.9296
  0
LINE
  8
0
  6
CONTINUOUS
 62
     7
 10
197.2108
 20
205.601
 11
198.08336
 21
207.70752
  0
LINE
  8
0
  6
CONTINUOUS
 62
     7
 10
200.9446
 20
204.05443
 11
201.81714
 21
206.16095
  0
LINE
  8
0
  6
CONTINUOUS
 62
     7
 10
196.12874
 20
208.51715
 11
203.1329
 21
205.61594
  0
LINE
  8
0
  6
CONTINUOUS
 62
     7
 10
203.4558
 20
204.83644
 11
203.13293
 21
205.61589
  0
LINE
  8
0
  6
CONTINUOUS
 62
     7
 10
195.96507
 20
204.6299
 11
201.13878
 21
202.48686
  0
LINE
  8
0
  6
CONTINUOUS
 62
     7
 10
206.54999
 20
216
 11
206.54999
 21
206
  0
LINE
  8
0
  6
CONTINUOUS
 62
     7
 10
196.05
 20
212.79999
 11
196.05
 21
209.14529
  0
LINE
  8
0
  6
CONTINUOUS
 62
     7
 10
206.54999
 20
216
 11
211.25
 21
216
  0
LINE
  8
0
  6
CONTINUOUS
 62
     7
 10
199.05
 20
215.79999
 11
206.54999
 21
215.79999
  0
LINE
  8
0
  6
CONTINUOUS
 62
     7
 10
201.72287
 20
206.2
 11
206.54999
 21
206.2
  0
LINE
  8
0
  6
CONTINUOUS
 62
     7
 10
206.54999
 20
206
 11
211.25
 21
206
  0
LINE
  8
0
  6
CONTINUOUS
 62
     7
 10
209.25
 20
216
 11
209.25
 21
257
  0
LINE
  8
0
  6
CONTINUOUS
 62
     7
 10
195.80328
 20
206.18401
 11
202.3521
 21
203.47141
  0
LINE
  8
0
  6
CONTINUOUS
 62
     7
 10
140
 20
4.4692101
 11
237.75278
 21
4.4692101
  0
LINE
  8
0
  6
CONTINUOUS
 62
     7
 10
140
 20
7.4137564
 11
213.25
 21
7.4137564
  0
LINE
  8
0
  6
CONTINUOUS
 62
     7
 10
140
 20
12.460447
 11
209.25
 21
12.460447
  0
LINE
  8
0
  6
CONTINUOUS
 62
     7
 10
140
 20
20.360016
 11
209.25
 21
20.360016
  0
LINE
  8
0
  6
CONTINUOUS
 62
     7
 10
140
 20
17.560976
 11
209.25
 21
17.560976
  0
LINE
  8
0
  6
CONTINUOUS
 62
     7
 10
350.75
 20
20.360016
 11
420
 21
20.360016
  0
LINE
  8
0
  6
CONTINUOUS
 62
     7
 10
350.75
 20
17.560976
 11
420
 21
17.560976
  0
LINE
  8
0
  6
CONTINUOUS
 62
     7
 10
350.75
 20
12.460447
 11
420
 21
12.460447
  0
LINE
  8
0
  6
CONTINUOUS
 62
     7
 10
346.75
 20
7.4137564
 11
420
 21
7.4137564
  0
LINE
  8
0
  6
CONTINUOUS
 62
     7
 10
242.25
 20
4.4692101
 11
420
 21
4.4692101
  0
LINE
  8
0
  6
CONTINUOUS
 62
     7
 10
229.7534
 20
50
 11
330.25
 21
50
  0
LINE
  8
0
  6
CONTINUOUS
 62
     7
 10
228.25012
 20
48.496723
 11
228.25012
 21
5
  0
LINE
  8
0
  6
CONTINUOUS
 62
     7
 10
331.74988
 20
48.500126
 11
331.74988
 21
5
  0
LINE
  8
0
  6
CONTINUOUS
 62
     7
 10
228.25012
 20
48.496727
 11
229.75342
 21
50.000004
  0
LINE
  8
0
  6
CONTINUOUS
 62
     7
 10
331.74988
 20
48.500126
 11
330.25
 21
50.000004
  0
LINE
  8
0
  6
CONTINUOUS
 62
     7
 10
228.25012
 20
32.000031
 11
331.74988
 21
32.000031
  0
LINE
  8
0
  6
CENTER
 62
     7
 10
312.5
 20
53.165161
 11
312.5
 21
25.053192
  0
LINE
  8
0
  6
DASHED
 62
     7
 10
243.20001
 20
50
 11
243.20001
 21
31
  0
LINE
  8
0
  6
DASHED
 62
     7
 10
252.5
 20
35
 11
242.5
 21
35
  0
LINE
  8
0
  6
CENTER
 62
     7
 10
247.5
 20
53.165161
 11
247.5
 21
25.053192
  0
LINE
  8
0
  6
DASHED
 62
     7
 10
251.79999
 20
31
 11
243.20001
 21
31
  0
LINE
  8
0
  6
DASHED
 62
     7
 10
243.19998
 20
31.000013
 11
247.49998
 21
28.517408
  0
LINE
  8
0
  6
DASHED
 62
     7
 10
252.5
 20
35.000011
 11
251.79999
 21
33.787567
  0
LINE
  8
0
  6
DASHED
 62
     7
 10
251.79997
 20
30.999987
 11
247.49998
 21
28.517382
  0
LINE
  8
0
  6
DASHED
 62
     7
 10
251.79999
 20
50
 11
251.79999
 21
31
  0
LINE
  8
0
  6
DASHED
 62
     7
 10
252.5
 20
50
 11
252.5
 21
35
  0
LINE
  8
0
  6
DASHED
 62
     7
 10
242.49997
 20
34.999985
 11
243.19997
 21
33.787556
  0
LINE
  8
0
  6
DASHED
 62
     7
 10
242.5
 20
50
 11
242.5
 21
35
  0
LINE
  8
0
  6
CONTINUOUS
 62
     7
 10
64.999969
 20
48.500034
 11
63.5
 21
50.000004
  0
LINE
  8
0
  6
DASHED
 62
     7
 10
-5
 20
50.000031
 11
-5
 21
35.000031
  0
LINE
  8
0
  6
CENTER
 62
     7
 10
-50
 20
53.165192
 11
-50
 21
25.053223
  0
LINE
  8
0
  6
CONTINUOUS
 62
     7
 10
16
 20
49.000031
 11
35
 21
49.000031
  0
LINE
  8
0
  6
CONTINUOUS
 62
     7
 10
36.000011
 20
50.000031
 11
35.000008
 21
49.000027
  0
LINE
  8
0
  6
CONTINUOUS
 62
     7
 10
15.000008
 20
50.000031
 11
15.999988
 21
49.00005
  0
LINE
  8
0
  6
CONTINUOUS
 62
     7
 10
36
 20
50.000031
 11
63.5
 21
50.000031
  0
LINE
  8
0
  6
CONTINUOUS
 62
     7
 10
-16
 20
49.000031
 11
-35
 21
49.000031
  0
LINE
  8
0
  6
CONTINUOUS
 62
     7
 10
-36
 20
50.000031
 11
-63.5
 21
50.000031
  0
LINE
  8
0
  6
CONTINUOUS
 62
     7
 10
-65.000031
 20
32.300045
 11
-64.699997
 21
32.000008
  0
LINE
  8
0
  6
CONTINUOUS
 62
     7
 10
-64.700027
 20
7.0000401
 11
-62.700024
 21
5.0000377
  0
LINE
  8
0
  6
CENTER
 62
     7
 10
50
 20
53.165192
 11
50
 21
25.053223
  0
LINE
  8
0
  6
CONTINUOUS
 62
     7
 10
-62.700012
 20
5.0000305
 11
-61.499077
 21
5.0000305
  0
LINE
  8
0
  6
DASHED
 62
     7
 10
-45
 20
50.000031
 11
-45
 21
35.000031
  0
LINE
  8
0
  6
CONTINUOUS
 62
     7
 10
-65
 20
48.500023
 11
-63.499989
 21
50.000038
  0
LINE
  8
0
  6
DASHED
 62
     7
 10
-45.700012
 20
50.000031
 11
-45.700012
 21
31.000031
  0
LINE
  8
0
  6
DASHED
 62
     7
 10
-54.299992
 20
31.000038
 11
-49.999996
 21
28.517433
  0
LINE
  8
0
  6
DASHED
 62
     7
 10
-45.700027
 20
31.000015
 11
-50.000027
 21
28.51741
  0
LINE
  8
0
  6
DASHED
 62
     7
 10
-45.000015
 20
35.000038
 11
-45.700012
 21
33.787609
  0
LINE
  8
0
  6
CONTINUOUS
 62
     7
 10
-64.700012
 20
32.000031
 11
-64.700012
 21
7.0000305
  0
LINE
  8
0
  6
CONTINUOUS
 62
     7
 10
-15
 20
50.000031
 11
15
 21
50.000031
  0
LINE
  8
0
  6
CONTINUOUS
 62
     7
 10
61.500664
 20
5.0000305
 11
62.700012
 21
5.0000305
  0
LINE
  8
0
  6
CONTINUOUS
 62
     7
 10
65
 20
48.500031
 11
65
 21
32.300034
  0
LINE
  8
0
  6
CONTINUOUS
 62
     7
 10
65.000015
 20
32.300003
 11
64.700027
 21
32.000011
  0
LINE
  8
0
  6
CONTINUOUS
 62
     7
 10
64.700012
 20
32.000031
 11
64.700012
 21
7.0000305
  0
LINE
  8
0
  6
CONTINUOUS
 62
     7
 10
64.699989
 20
7.0000291
 11
62.699986
 21
5.0000272
  0
LINE
  8
0
  6
DASHED
 62
     7
 10
-4.2999878
 20
50.000031
 11
-4.2999878
 21
27.300018
  0
LINE
  8
0
  6
DASHED
 62
     7
 10
-5.0000134
 20
35.000031
 11
-4.3000164
 21
33.787598
  0
LINE
  8
0
  6
DASHED
 62
     7
 10
-45.700012
 20
31.000031
 11
-54.299988
 21
31.000031
  0
LINE
  8
0
  6
CONTINUOUS
 62
     7
 10
-65
 20
48.500031
 11
-65
 21
32.300034
  0
LINE
  8
0
  6
DASHED
 62
     7
 10
-55.000011
 20
35.000031
 11
-54.300014
 21
33.787598
  0
LINE
  8
0
  6
DASHED
 62
     7
 10
-55
 20
50.000031
 11
-55
 21
35.000031
  0
LINE
  8
0
  6
DASHED
 62
     7
 10
-54.299988
 20
50.000031
 11
-54.299988
 21
31.000031
  0
LINE
  8
0
  6
DASHED
 62
     7
 10
-45
 20
35.000031
 11
-55
 21
35.000031
  0
LINE
  8
0
  6
DASHED
 62
     7
 10
5
 20
50.000031
 11
5
 21
35.000031
  0
LINE
  8
0
  6
DASHED
 62
     7
 10
4.2999878
 20
50.000031
 11
4.2999878
 21
27.300018
  0
LINE
  8
0
  6
DASHED
 62
     7
 10
-5
 20
35.000031
 11
5
 21
35.000031
  0
LINE
  8
0
  6
DASHED
 62
     7
 10
4.9999838
 20
35.000038
 11
4.2999878
 21
33.787609
  0
LINE
  8
0
  6
DASHED
 62
     7
 10
7.5435181
 20
27.300018
 11
-7.5435181
 21
27.300018
  0
LINE
  8
0
  6
CONTINUOUS
 62
     7
 10
-14.99998
 20
50.000031
 11
-15.999981
 21
49.000031
  0
LINE
  8
0
  6
CONTINUOUS
 62
     7
 10
-35.999981
 20
50.000031
 11
-35
 21
49.000053
  0
LINE
  8
0
  6
CONTINUOUS
 62
     7
 10
228.25
 20
195.99998
 11
331.75
 21
195.99998
  0
LINE
  8
0
  6
CONTINUOUS
 62
     7
 10
228.25
 20
247.00002
 11
331.75
 21
247.00002
  0
LINE
  8
0
  6
CONTINUOUS
 62
     7
 10
228.25
 20
226.00002
 11
331.75
 21
226.00002
  0
LINE
  8
0
  6
CONTINUOUS
 62
     7
 10
228.25
 20
146
 11
331.75
 21
146
  0
LINE
  8
0
  6
CONTINUOUS
 62
     7
 10
228.25
 20
276
 11
331.75
 21
276
  0
LINE
  8
0
  6
CENTER
 62
     7
 10
247.5
 20
167
 11
247.5
 21
155
  0
LINE
  8
0
  6
CENTER
 62
     7
 10
241.5
 20
161
 11
253.5
 21
161
  0
LINE
  8
0
  6
CONTINUOUS
 62
     7
 10
228.25
 20
174.99998
 11
331.75
 21
174.99998
  0
LINE
  8
0
  6
CENTER
 62
     7
 10
318.5
 20
161
 11
306.5
 21
161
  0
LINE
  8
0
  6
CENTER
 62
     7
 10
312.5
 20
167
 11
312.5
 21
155
  0
LINE
  8
0
  6
CENTER
 62
     7
 10
318.5
 20
261
 11
306.5
 21
261
  0
LINE
  8
0
  6
CENTER
 62
     7
 10
312.5
 20
255
 11
312.5
 21
267
  0
LINE
  8
0
  6
CENTER
 62
     7
 10
241.5
 20
261
 11
253.5
 21
261
  0
LINE
  8
0
  6
CENTER
 62
     7
 10
247.5
 20
255
 11
247.5
 21
267
  0
LINE
  8
0
  6
CENTER
 62
     7
 10
312.5
 20
217
 11
312.5
 21
205
  0
LINE
  8
0
  6
CENTER
 62
     7
 10
247.5
 20
217
 11
247.5
 21
205
  0
LINE
  8
0
  6
CENTER
 62
     7
 10
240
 20
6.8790183
 11
240
 21
2.2717919
  0
LINE
  8
0
  6
CENTER
 62
     7
 10
320
 20
6.8790183
 11
320
 21
2.2717919
  0
LINE
  8
0
  6
CENTER
 62
     7
 10
328
 20
181
 11
312
 21
181
  0
LINE
  8
0
  6
CENTER
 62
     7
 10
320
 20
189
 11
320
 21
173
  0
ARC
  8
0
  6
CONTINUOUS
 62
     7
 10
240
 20
9.3999996
 40
6
 50
253.80864
 51
286.19139
  0
ARC
  8
0
  6
CONTINUOUS
 62
     7
 10
238.55029
 20
4.4062562
 40
0.80000007
 50
179.99996
 51
253.80857
  0
ARC
  8
0
  6
CONTINUOUS
 62
     7
 10
241.4502
 20
4.4062562
 40
0.80000007
 50
286.19139
 51
0
  0
ARC
  8
0
  6
CONTINUOUS
 62
     7
 10
199.05029
 20
37.799927
 40
3
 50
89.999982
 51
165.86464
  0
ARC
  8
0
  6
CONTINUOUS
 62
     7
 10
199.05029
 20
34.199951
 40
3
 50
195.64286
 51
270.00007
  0
ARC
  8
0
  6
CONTINUOUS
 62
     7
 10
-44.910156
 20
23.912018
 40
3.2999992
 50
272.89607
 51
357.10396
  0
ARC
  8
0
  6
CONTINUOUS
 62
     7
 10
-44.910156
 20
14.088013
 40
3.2999992
 50
1.4579449
 51
88.541928
  0
ARC
  8
0
  6
CONTINUOUS
 62
     7
 10
44.800293
 20
5.8999634
 40
0.80000007
 50
179.99996
 51
270
  0
ARC
  8
0
  6
CONTINUOUS
 62
     7
 10
-44.799805
 20
5.8999634
 40
0.80000007
 50
270.00002
 51
1.8669332E-005
  0
ARC
  8
0
  6
CONTINUOUS
 62
     7
 10
-50.25
 20
9.3999996
 40
6
 50
253.80864
 51
286.19139
  0
ARC
  8
0
  6
CONTINUOUS
 62
     7
 10
-48.799805
 20
4.4062562
 40
0.80000007
 50
286.19145
 51
1.8669332E-005
  0
ARC
  8
0
  6
CONTINUOUS
 62
     7
 10
-51.699707
 20
4.4062562
 40
0.80000007
 50
180.00004
 51
253.80864
  0
ARC
  8
0
  6
CONTINUOUS
 62
     7
 10
8.446578
 20
33.709991
 40
0.96834219
 50
215.33146
 51
278.29722
  0
ARC
  8
0
  6
CONTINUOUS
 62
     7
 10
7.4565878
 20
31.919998
 40
1.2461481
 50
80.764528
 51
142.12504
  0
ARC
  8
0
  6
CONTINUOUS
 62
     7
 10
7.4565878
 20
40.080002
 40
1.254199
 50
217.87496
 51
279.23536
  0
ARC
  8
0
  6
CONTINUOUS
 62
     7
 10
8.446578
 20
38.289993
 40
0.97016114
 50
81.702887
 51
144.66854
  0
ARC
  8
0
  6
CONTINUOUS
 62
     7
 10
0
 20
36
 40
4.7999992
 50
46.951096
 51
313.18341
  0
ARC
  8
0
  6
CONTINUOUS
 62
     7
 10
44.910156
 20
23.912018
 40
3.2999992
 50
182.89604
 51
267.10393
  0
ARC
  8
0
  6
CONTINUOUS
 62
     7
 10
44.910156
 20
14.088013
 40
3.2999992
 50
91.45807
 51
178.54206
  0
CIRCLE
  8
0
  6
CONTINUOUS
 62
     7
 10
160
 20
181
 40
4.5
  0
CIRCLE
  8
0
  6
CONTINUOUS
 62
     7
 10
160
 20
181
 40
7
  0
ARC
  8
0
  6
CONTINUOUS
 62
     7
 10
197.88359
 20
201.9449
 40
3.2999992
 50
131.58037
 51
157.49995
  0
ARC
  8
0
  6
CONTINUOUS
 62
     7
 10
197.88359
 20
201.9449
 40
3.2999992
 50
337.50002
 51
3.4196023
  0
ARC
  8
0
  6
CONTINUOUS
 62
     7
 10
189.96724
 20
204.79099
 40
6
 50
2.4336508
 51
20.87174
  0
ARC
  8
0
  6
CONTINUOUS
 62
     7
 10
205.49379
 20
198.35968
 40
6
 50
114.12782
 51
132.56632
  0
ARC
  8
0
  6
CONTINUOUS
 62
     7
 10
195.16254
 20
205.0118
 40
0.79999995
 50
311.57983
 51
2.4330498
  0
ARC
  8
0
  6
CONTINUOUS
 62
     7
 10
201.97629
 20
202.18945
 40
0.79999995
 50
132.56698
 51
183.42014
  0
ARC
  8
0
  6
CONTINUOUS
 62
     7
 10
199.05
 20
212.79999
 40
3
 50
89.999982
 51
179.99996
  0
ARC
  8
0
  6
CONTINUOUS
 62
     7
 10
199.05
 20
209.20001
 40
3
 50
180.00009
 51
193.15695
  0
CIRCLE
  8
0
  6
CONTINUOUS
 62
     7
 10
247.5
 20
161
 40
4.2999878
  0
CIRCLE
  8
0
  6
CONTINUOUS
 62
     7
 10
247.5
 20
161
 40
5
  0
POLYLINE
  8
0
  6
CONTINUOUS
 62
     7
 66
     1
 10
0
 20
0
 70
     1
  0
VERTEX
  8
0
  6
CONTINUOUS
 62
     7
 10
196.8501
 20
38.5
 42
0.11037792
  0
VERTEX
  8
0
  6
CONTINUOUS
 62
     7
 10
195.93793
 20
38.295003
 42
0.10251003
  0
VERTEX
  8
0
  6
CONTINUOUS
 62
     7
 10
195.19059
 20
37.731004
 42
0.093293707
  0
VERTEX
  8
0
  6
CONTINUOUS
 62
     7
 10
194.71299
 20
36.92411
 42
0.08782287
  0
VERTEX
  8
0
  6
CONTINUOUS
 62
     7
 10
194.55011
 20
36
 42
0.087776625
  0
VERTEX
  8
0
  6
CONTINUOUS
 62
     7
 10
194.71282
 20
35.076377
 42
0.093263951
  0
VERTEX
  8
0
  6
CONTINUOUS
 62
     7
 10
195.19011
 20
34.269568
 42
0.10263115
  0
VERTEX
  8
0
  6
CONTINUOUS
 62
     7
 10
195.93832
 20
33.704836
 42
0.11032675
  0
VERTEX
  8
0
  6
CONTINUOUS
 62
     7
 10
196.8501
 20
33.5
 42
0.11037381
  0
VERTEX
  8
0
  6
CONTINUOUS
 62
     7
 10
197.76226
 20
33.705015
 42
0.10250644
  0
VERTEX
  8
0
  6
CONTINUOUS
 62
     7
 10
198.5096
 20
34.269016
 42
0.0932933
  0
VERTEX
  8
0
  6
CONTINUOUS
 62
     7
 10
198.98721
 20
35.075908
 42
0.087824126
  0
VERTEX
  8
0
  6
CONTINUOUS
 62
     7
 10
199.15009
 20
36
 42
0.087773716
  0
VERTEX
  8
0
  6
CONTINUOUS
 62
     7
 10
198.98738
 20
36.923624
 42
0.093264239
  0
VERTEX
  8
0
  6
CONTINUOUS
 62
     7
 10
198.5101
 20
37.73044
 42
0.10263459
  0
VERTEX
  8
0
  6
CONTINUOUS
 62
     7
 10
197.7619
 20
38.295174
 42
0.11033279
  0
SEQEND
  8
0
  0
POLYLINE
  8
0
  6
CONTINUOUS
 62
     7
 66
     1
 10
0
 20
0
  0
VERTEX
  8
0
  6
CONTINUOUS
 62
     7
 10
195.8501
 20
33.76001
 42
0.063888921
  0
VERTEX
  8
0
  6
CONTINUOUS
 62
     7
 10
196.44656
 20
33.23018
 42
0.074877992
  0
VERTEX
  8
0
  6
CONTINUOUS
 62
     7
 10
197.16462
 20
32.883927
 42
0.064578058
  0
VERTEX
  8
0
  6
CONTINUOUS
 62
     7
 10
197.9502
 20
32.75
 42
0
  0
SEQEND
  8
0
  0
POLYLINE
  8
0
  6
CONTINUOUS
 62
     7
 66
     1
 10
0
 20
0
  0
VERTEX
  8
0
  6
CONTINUOUS
 62
     7
 10
195.72613
 20
33.8189
 42
0.062831323
  0
VERTEX
  8
0
  6
CONTINUOUS
 62
     7
 10
196.29042
 20
33.292727
 42
0.066495991
  0
VERTEX
  8
0
  6
CONTINUOUS
 62
     7
 10
196.97042
 20
32.928219
 42
0.069154558
  0
VERTEX
  8
0
  6
CONTINUOUS
 62
     7
 10
197.72278
 20
32.759354
 42
0.069758181
  0
VERTEX
  8
0
  6
CONTINUOUS
 62
     7
 10
198.49153
 20
32.803354
 42
0.068162439
  0
VERTEX
  8
0
  6
CONTINUOUS
 62
     7
 10
199.21937
 20
33.055179
 42
0.064994956
  0
VERTEX
  8
0
  6
CONTINUOUS
 62
     7
 10
199.85594
 20
33.490011
 42
0.06129039
  0
VERTEX
  8
0
  6
CONTINUOUS
 62
     7
 10
200.364
 20
34.070112
 42
0.05807963
  0
VERTEX
  8
0
  6
CONTINUOUS
 62
     7
 10
200.721
 20
34.754105
 42
0.05590591
  0
VERTEX
  8
0
  6
CONTINUOUS
 62
     7
 10
200.91466
 20
35.501249
 42
0.054964237
  0
VERTEX
  8
0
  6
CONTINUOUS
 62
     7
 10
200.93967
 20
36.271972
 42
0.055473167
  0
VERTEX
  8
0
  6
CONTINUOUS
 62
     7
 10
200.79559
 20
37.029861
 42
0.057280217
  0
VERTEX
  8
0
  6
CONTINUOUS
 62
     7
 10
200.48619
 20
37.736304
 42
0.060268656
  0
VERTEX
  8
0
  6
CONTINUOUS
 62
     7
 10
200.02095
 20
38.351615
 42
0.063953299
  0
VERTEX
  8
0
  6
CONTINUOUS
 62
     7
 10
199.41874
 20
38.833993
 42
0.067446057
  0
VERTEX
  8
0
  6
CONTINUOUS
 62
     7
 10
198.71208
 20
39.143452
 42
0.069442435
  0
VERTEX
  8
0
  6
CONTINUOUS
 62
     7
 10
197.9502
 20
39.25
 42
0
  0
SEQEND
  8
0
  0
POLYLINE
  8
0
  6
CONTINUOUS
 62
     7
 66
     1
 10
0
 20
0
  0
VERTEX
  8
0
  6
CONTINUOUS
 62
     7
 10
195.86854
 20
38.260868
 42
-0.063268851
  0
VERTEX
  8
0
  6
CONTINUOUS
 62
     7
 10
196.46113
 20
38.779808
 42
-0.074181207
  0
VERTEX
  8
0
  6
CONTINUOUS
 62
     7
 10
197.17248
 20
39.118574
 42
-0.0637732
  0
VERTEX
  8
0
  6
CONTINUOUS
 62
     7
 10
197.9502
 20
39.25
 42
0
  0
SEQEND
  8
0
  0
POLYLINE
  8
0
  6
CONTINUOUS
 62
     7
 66
     1
 10
0
 20
0
 70
     1
  0
VERTEX
  8
0
  6
CONTINUOUS
 62
     7
 10
11.356582
 20
38.5
 42
0.25515927
  0
VERTEX
  8
0
  6
CONTINUOUS
 62
     7
 10
10.826772
 20
38.075112
 42
0.063191385
  0
VERTEX
  8
0
  6
CONTINUOUS
 62
     7
 10
10.572677
 20
37.412225
 42
0.035186389
  0
VERTEX
  8
0
  6
CONTINUOUS
 62
     7
 10
10.445947
 20
36.712175
 42
0.027985313
  0
VERTEX
  8
0
  6
CONTINUOUS
 62
     7
 10
10.406585
 20
36
 42
0.027899428
  0
VERTEX
  8
0
  6
CONTINUOUS
 62
     7
 10
10.445718
 20
35.289852
 42
0.03516018
  0
VERTEX
  8
0
  6
CONTINUOUS
 62
     7
 10
10.572212
 20
34.589562
 42
0.063155732
  0
VERTEX
  8
0
  6
CONTINUOUS
 62
     7
 10
10.826244
 20
33.925822
 42
0.25528443
  0
VERTEX
  8
0
  6
CONTINUOUS
 62
     7
 10
11.356582
 20
33.5
 42
0.25515944
  0
VERTEX
  8
0
  6
CONTINUOUS
 62
     7
 10
11.886392
 20
33.924888
 42
0.063191475
  0
VERTEX
  8
0
  6
CONTINUOUS
 62
     7
 10
12.140487
 20
34.587774
 42
0.035186429
  0
VERTEX
  8
0
  6
CONTINUOUS
 62
     7
 10
12.267217
 20
35.287824
 42
0.02798535
  0
VERTEX
  8
0
  6
CONTINUOUS
 62
     7
 10
12.306579
 20
36
 42
0.027899492
  0
VERTEX
  8
0
  6
CONTINUOUS
 62
     7
 10
12.267445
 20
36.710148
 42
0.035160264
  0
VERTEX
  8
0
  6
CONTINUOUS
 62
     7
 10
12.140952
 20
37.410438
 42
0.063155869
  0
VERTEX
  8
0
  6
CONTINUOUS
 62
     7
 10
11.88692
 20
38.074178
 42
0.25528434
  0
SEQEND
  8
0
  0
POLYLINE
  8
0
  6
CONTINUOUS
 62
     7
 66
     1
 10
0
 20
0
  0
VERTEX
  8
0
  6
CONTINUOUS
 62
     7
 10
7.6565695
 20
38.849976
 42
0.18857461
  0
VERTEX
  8
0
  6
CONTINUOUS
 62
     7
 10
7.296839
 20
38.690287
 42
0.075744625
  0
VERTEX
  8
0
  6
CONTINUOUS
 62
     7
 10
7.0526045
 20
38.372451
 42
0.039335922
  0
VERTEX
  8
0
  6
CONTINUOUS
 62
     7
 10
6.8827429
 20
38.007117
 42
0.025771242
  0
VERTEX
  8
0
  6
CONTINUOUS
 62
     7
 10
6.7605885
 20
37.622966
 42
0.019505207
  0
VERTEX
  8
0
  6
CONTINUOUS
 62
     7
 10
6.6730978
 20
37.228755
 42
0.016214602
  0
VERTEX
  8
0
  6
CONTINUOUS
 62
     7
 10
6.6137378
 20
36.829164
 42
0.01446653
  0
VERTEX
  8
0
  6
CONTINUOUS
 62
     7
 10
6.5788703
 20
36.426639
 42
0.013691259
  0
VERTEX
  8
0
  6
CONTINUOUS
 62
     7
 10
6.5666223
 20
36.022495
 42
0.013604828
  0
VERTEX
  8
0
  6
CONTINUOUS
 62
     7
 10
6.5763393
 20
35.61965
 42
0.014315251
  0
VERTEX
  8
0
  6
CONTINUOUS
 62
     7
 10
6.6084897
 20
35.217398
 42
0.015981846
  0
VERTEX
  8
0
  6
CONTINUOUS
 62
     7
 10
6.6650015
 20
34.816581
 42
0.019026744
  0
VERTEX
  8
0
  6
CONTINUOUS
 62
     7
 10
6.7490639
 20
34.421427
 42
0.024879763
  0
VERTEX
  8
0
  6
CONTINUOUS
 62
     7
 10
6.8670804
 20
34.035032
 42
0.037296132
  0
VERTEX
  8
0
  6
CONTINUOUS
 62
     7
 10
7.0311562
 20
33.665849
 42
0.069982814
  0
VERTEX
  8
0
  6
CONTINUOUS
 62
     7
 10
7.2667423
 20
33.338519
 42
0.17382067
  0
VERTEX
  8
0
  6
CONTINUOUS
 62
     7
 10
7.6165101
 20
33.151922
 42
0
  0
SEQEND
  8
0
  0
TEXT
  8
0
  6
CONTINUOUS
 62
     7
 10
-11.2855
 20
-31.8
 40
3.5999999
 41
1.0071251
  1
HRW50CR
  0
ENDSEC
  0
EOF
