  0
SECTION
  2
HEADER
  0
ENDSEC
  0
SECTION
  2
TABLES
  0
TABLE
  2
LTYPE
 70
    22
  0
LTYPE
  2
CONTINUOUS
 70
    64
  3
Solid line
 72
    65
 73
     0
 40
0.000000
  0
LTYPE
  2
DASHED
 70
    64
  3
__ __ __ __ __ __ __ __ __ __ __ __ __ __ __
 72
    65
 73
     2
 40
3.500000
 49
2.000000
 49
-1.500000
  0
LTYPE
  2
CENTER
 70
    64
  3
____ _ ____ _ ____ _ ____ _ ____ _ ____ _ ____
 72
    65
 73
     4
 40
17.500000
 49
13.000000
 49
-1.500000
 49
1.500000
 49
-1.500000
  0
LTYPE
  2
PHANTOM
 70
    64
  3
_____ _ _ _____ _ _ _____ _ _ _____ _ _ ____  
 72
    65
 73
     6
 40
15.500000
 49
8.000000
 49
-1.500000
 49
1.500000
 49
-1.500000
 49
1.500000
 49
-1.500000
  0
LTYPE
  2
DOT
 70
    64
  3
. . . . . . . . . . . . . . . . . . . . . . . .
 72
    65
 73
     2
 40
0.25
 49
0.0
 49
-0.25
  0
ENDTAB
  0
TABLE
  2
LAYER
 70
     1
  0
LAYER
  2
0
 70
     0
 62
     7
  6
CONTINUOUS
  0
ENDTAB
  0
TABLE
  2
STYLE
 70
     1
  0
STYLE
  2
STANDARD
 70
     0
 40
0.000000
 41
1.000000
 50
0.000000
 71
     0
 42
0.200000
  3
txt
  0
ENDTAB
  0
TABLE
  2
VIEW
 70
     0
  0
ENDTAB
  0
ENDSEC
  0
SECTION
  2
BLOCKS
  0
ENDSEC
  0
SECTION
  2
ENTITIES
  0
LINE
  8
0
  6
CONTINUOUS
 62
     7
 10
-80
 20
23.5999755859375
 11
-80
 21
22.99996948242188
  0
LINE
  8
0
  6
CENTER
 62
     7
 10
-73.5
 20
24.5999755859375
 11
-73.5
 21
19
  0
LINE
  8
0
  6
CONTINUOUS
 62
     7
 10
-78.75
 20
23.5999755859375
 11
-78.75
 21
22.677978515625
  0
LINE
  8
0
  6
CONTINUOUS
 62
     7
 10
-68.25
 20
23.5999755859375
 11
-68.25
 21
22.677978515625
  0
LINE
  8
0
  6
CONTINUOUS
 62
     7
 10
-99.5
 20
23.5999755859375
 11
-51.9000244140625
 21
23.5999755859375
  0
LINE
  8
0
  6
CONTINUOUS
 62
     7
 10
-107.5
 20
111.6000518798828
 11
-107.5
 21
31.5999755859375
  0
LINE
  8
0
  6
CONTINUOUS
 62
     7
 10
-99.49993896484375
 20
23.59995269775391
 11
-107.4999542236328
 21
31.59995460510254
  0
LINE
  8
0
  6
CONTINUOUS
 62
     7
 10
-105.5
 20
109.6000518798828
 11
-105.5
 21
33.5999755859375
  0
LINE
  8
0
  6
CONTINUOUS
 62
     7
 10
-105.5000305175781
 20
33.60002899169922
 11
-95.49997711181641
 21
23.5999755859375
  0
LINE
  8
0
  6
CONTINUOUS
 62
     7
 10
-62
 20
67.02105712890625
 11
-62
 21
54.17892456054688
  0
LINE
  8
0
  6
CONTINUOUS
 62
     7
 10
-61.99998092651367
 20
67.02102661132813
 11
-57.99198532104492
 21
71.02900695800781
  0
LINE
  8
0
  6
CONTINUOUS
 62
     7
 10
-53.03015518188477
 20
75.99105072021484
 11
-49.02117156982422
 21
80.00003051757813
  0
LINE
  8
0
  6
CONTINUOUS
 62
     7
 10
-62.00006103515625
 20
54.17893600463867
 11
-57.99202728271484
 21
50.17090225219727
  0
LINE
  8
0
  6
CONTINUOUS
 62
     7
 10
-53.03010940551758
 20
45.208984375
 11
-49.00006484985352
 21
41.17893981933594
  0
LINE
  8
0
  6
CONTINUOUS
 62
     7
 10
-49
 20
41.17889404296875
 11
-49
 21
33.571044921875
  0
LINE
  8
0
  6
CONTINUOUS
 62
     7
 10
-58.97107315063477
 20
23.59997367858887
 11
-48.99997711181641
 21
33.57106781005859
  0
LINE
  8
0
  6
CONTINUOUS
 62
     7
 10
-101.0004730224609
 20
22.99996948242188
 11
-80
 21
22.99996948242188
  0
LINE
  8
0
  6
DASHED
 62
     7
 10
-16.5
 20
31.99996948242188
 11
-16.5
 21
1.5
  0
LINE
  8
0
  6
DASHED
 62
     7
 10
-24
 20
74.99996948242188
 11
-24
 21
31.99996948242188
  0
LINE
  8
0
  6
CONTINUOUS
 62
     7
 10
80
 20
23.5999755859375
 11
80
 21
22.99996948242188
  0
LINE
  8
0
  6
CONTINUOUS
 62
     7
 10
14.5
 20
0
 11
-14.4998779296875
 21
0
  0
LINE
  8
0
  6
CENTER
 62
     7
 10
0
 20
131
 11
0
 21
-1
  0
LINE
  8
0
  6
CONTINUOUS
 62
     7
 10
57.00004959106445
 20
18.49994659423828
 11
43.99996948242188
 21
31.50002670288086
  0
LINE
  8
0
  6
CONTINUOUS
 62
     7
 10
57
 20
18.49996948242188
 11
57
 21
2.999969482421875
  0
LINE
  8
0
  6
CONTINUOUS
 62
     7
 10
57
 20
64.94998168945313
 11
57
 21
56.24996948242188
  0
LINE
  8
0
  6
CONTINUOUS
 62
     7
 10
44
 20
43.24996948242188
 11
44
 21
31.49996948242188
  0
LINE
  8
0
  6
CONTINUOUS
 62
     7
 10
57.00001907348633
 20
64.94995880126953
 11
55.98156356811523
 21
65.96840667724609
  0
LINE
  8
0
  6
CONTINUOUS
 62
     7
 10
46.9500732421875
 20
74.99996948242188
 11
-46.949951171875
 21
74.99996948242188
  0
LINE
  8
0
  6
CONTINUOUS
 62
     7
 10
54
 20
0
 11
38.5
 21
0
  0
LINE
  8
0
  6
CONTINUOUS
 62
     7
 10
833.5000610351563
 20
125
 11
833.5000610351563
 21
23
  0
LINE
  8
0
  6
CONTINUOUS
 62
     7
 10
546.500244140625
 20
125.0000610351563
 11
546.500244140625
 21
23
  0
LINE
  8
0
  6
CONTINUOUS
 62
     7
 10
546.500244140625
 20
23
 11
833.5000610351563
 21
23
  0
LINE
  8
0
  6
CONTINUOUS
 62
     7
 10
513.500244140625
 20
119.5999755859375
 11
513.500244140625
 21
23.5999755859375
  0
LINE
  8
0
  6
CONTINUOUS
 62
     7
 10
507.500244140625
 20
23.5999755859375
 11
546.500244140625
 21
23.5999755859375
  0
LINE
  8
0
  6
CONTINUOUS
 62
     7
 10
516.500244140625
 20
121.5999145507813
 11
546.500244140625
 21
121.5999145507813
  0
LINE
  8
0
  6
CONTINUOUS
 62
     7
 10
513.5001220703125
 20
118.5998992919922
 11
516.5001220703125
 21
121.5998992919922
  0
LINE
  8
0
  6
CONTINUOUS
 62
     7
 10
510.500244140625
 20
119.5999755859375
 11
510.500244140625
 21
23.5999755859375
  0
LINE
  8
0
  6
CONTINUOUS
 62
     7
 10
510.500244140625
 20
119.5999755859375
 11
513.500244140625
 21
119.5999755859375
  0
LINE
  8
0
  6
CONTINUOUS
 62
     7
 10
507.500244140625
 20
77
 11
507.500244140625
 21
23.5999755859375
  0
LINE
  8
0
  6
CONTINUOUS
 62
     7
 10
510.5001220703125
 20
80
 11
507.5000915527344
 21
77.00000762939453
  0
LINE
  8
0
  6
CONTINUOUS
 62
     7
 10
866.5000610351563
 20
119.5999755859375
 11
866.5000610351563
 21
23.5999755859375
  0
LINE
  8
0
  6
CONTINUOUS
 62
     7
 10
872.5000610351563
 20
23.5999755859375
 11
833.5000610351563
 21
23.5999755859375
  0
LINE
  8
0
  6
CONTINUOUS
 62
     7
 10
863.5000610351563
 20
121.5999145507813
 11
833.5000610351563
 21
121.5999145507813
  0
LINE
  8
0
  6
CONTINUOUS
 62
     7
 10
866.5000610351563
 20
118.5998992919922
 11
863.5000610351563
 21
121.5999221801758
  0
LINE
  8
0
  6
CONTINUOUS
 62
     7
 10
869.5000610351563
 20
119.5999755859375
 11
869.5000610351563
 21
23.5999755859375
  0
LINE
  8
0
  6
CONTINUOUS
 62
     7
 10
869.5000610351563
 20
119.5999755859375
 11
866.5000610351563
 21
119.5999755859375
  0
LINE
  8
0
  6
CONTINUOUS
 62
     7
 10
872.5000610351563
 20
77
 11
872.5000610351563
 21
23.5999755859375
  0
LINE
  8
0
  6
CONTINUOUS
 62
     7
 10
869.5
 20
79.99992370605469
 11
872.4999389648438
 21
76.99999237060547
  0
LINE
  8
0
  6
CONTINUOUS
 62
     7
 10
16.00003051757813
 20
1.49994969367981
 11
14.50006198883057
 21
-1.980900742637459E-005
  0
LINE
  8
0
  6
CONTINUOUS
 62
     7
 10
36.99992752075195
 20
1.499983429908752
 11
38.49993896484375
 21
-2.914453762059566E-005
  0
LINE
  8
0
  6
CONTINUOUS
 62
     7
 10
557.250244140625
 20
23
 11
557.250244140625
 21
22.677978515625
  0
LINE
  8
0
  6
CONTINUOUS
 62
     7
 10
567.750244140625
 20
23
 11
567.750244140625
 21
22.677978515625
  0
LINE
  8
0
  6
CONTINUOUS
 62
     7
 10
551.5
 20
130
 11
828.5001220703125
 21
130
  0
LINE
  8
0
  6
CONTINUOUS
 62
     7
 10
551.5000610351563
 20
129.9999694824219
 11
546.5001220703125
 21
125.0000305175781
  0
LINE
  8
0
  6
CONTINUOUS
 62
     7
 10
828.5001220703125
 20
129.9998779296875
 11
833.5000610351563
 21
124.9999008178711
  0
LINE
  8
0
  6
CONTINUOUS
 62
     7
 10
101.0004730224609
 20
22.99996948242188
 11
80
 21
22.99996948242188
  0
LINE
  8
0
  6
CONTINUOUS
 62
     7
 10
-54.00032424926758
 20
0
 11
-38.5
 21
0
  0
LINE
  8
0
  6
DASHED
 62
     7
 10
24
 20
31.99996948242188
 11
-24
 21
31.99996948242188
  0
LINE
  8
0
  6
DASHED
 62
     7
 10
16.5
 20
31.99996948242188
 11
16.5
 21
1.5
  0
LINE
  8
0
  6
DASHED
 62
     7
 10
24
 20
74.99996948242188
 11
24
 21
31.99996948242188
  0
LINE
  8
0
  6
CONTINUOUS
 62
     7
 10
49
 20
41.17889404296875
 11
49
 21
33.571044921875
  0
LINE
  8
0
  6
CONTINUOUS
 62
     7
 10
58.97109222412109
 20
23.59997177124023
 11
49.00003814697266
 21
33.57102584838867
  0
LINE
  8
0
  6
CONTINUOUS
 62
     7
 10
53.03008270263672
 20
45.20902252197266
 11
48.99999618530273
 21
41.17893981933594
  0
LINE
  8
0
  6
CONTINUOUS
 62
     7
 10
62
 20
67.02105712890625
 11
62
 21
54.17892456054688
  0
LINE
  8
0
  6
CONTINUOUS
 62
     7
 10
61.9999885559082
 20
54.17893218994141
 11
57.99200057983398
 21
50.17094421386719
  0
LINE
  8
0
  6
CONTINUOUS
 62
     7
 10
49.0211181640625
 20
79.99996948242188
 11
-49.0211181640625
 21
79.99996948242188
  0
LINE
  8
0
  6
CONTINUOUS
 62
     7
 10
53.03012466430664
 20
75.99099731445313
 11
49.02114486694336
 21
79.99998474121094
  0
LINE
  8
0
  6
CONTINUOUS
 62
     7
 10
61.99999618530273
 20
67.02104949951172
 11
57.99195861816406
 21
71.02907562255859
  0
LINE
  8
0
  6
CONTINUOUS
 62
     7
 10
105.5
 20
33.59998321533203
 11
95.49999237060547
 21
23.59997177124023
  0
LINE
  8
0
  6
CONTINUOUS
 62
     7
 10
97.5
 20
121.5999755859375
 11
-97.50008392333984
 21
121.5999755859375
  0
LINE
  8
0
  6
CONTINUOUS
 62
     7
 10
95.5
 20
119.6000671386719
 11
105.5000457763672
 21
109.6000137329102
  0
LINE
  8
0
  6
CONTINUOUS
 62
     7
 10
105.5
 20
109.5999755859375
 11
105.5
 21
33.5999755859375
  0
LINE
  8
0
  6
CONTINUOUS
 62
     7
 10
95.5
 20
119.5999755859375
 11
-95.50008392333984
 21
119.5999755859375
  0
LINE
  8
0
  6
CONTINUOUS
 62
     7
 10
97.5
 20
121.6000671386719
 11
107.5000534057617
 21
111.6000137329102
  0
LINE
  8
0
  6
CONTINUOUS
 62
     7
 10
99.49995422363281
 20
23.60002136230469
 11
107.4999694824219
 21
31.60002517700195
  0
LINE
  8
0
  6
CONTINUOUS
 62
     7
 10
107.5
 20
111.5999755859375
 11
107.5
 21
31.5999755859375
  0
LINE
  8
0
  6
CONTINUOUS
 62
     7
 10
99.5
 20
23.5999755859375
 11
51.9000244140625
 21
23.5999755859375
  0
LINE
  8
0
  6
CONTINUOUS
 62
     7
 10
-47.9693603515625
 20
73.98059844970703
 11
-46.94995880126953
 21
75
  0
LINE
  8
0
  6
CONTINUOUS
 62
     7
 10
-15.99988460540772
 20
1.500090003013611
 11
-14.4998722076416
 21
7.729729986749589E-005
  0
LINE
  8
0
  6
CONTINUOUS
 62
     7
 10
-37.00000381469727
 20
1.499940037727356
 11
-38.50001525878906
 21
-7.257687684614211E-005
  0
LINE
  8
0
  6
CONTINUOUS
 62
     7
 10
-37
 20
1.5
 11
-16
 21
1.5
  0
LINE
  8
0
  6
CONTINUOUS
 62
     7
 10
-57.00011825561523
 20
2.999790191650391
 11
-54.00017929077148
 21
-0.0001483569067204371
  0
LINE
  8
0
  6
CONTINUOUS
 62
     7
 10
-47.96940231323242
 20
47.21943283081055
 11
-43.99995040893555
 21
43.24998092651367
  0
LINE
  8
0
  6
CONTINUOUS
 62
     7
 10
-44
 20
43.24996948242188
 11
-44
 21
31.49996948242188
  0
LINE
  8
0
  6
CONTINUOUS
 62
     7
 10
-56.99994659423828
 20
56.24997711181641
 11
-55.98158264160156
 21
55.23160934448242
  0
LINE
  8
0
  6
CONTINUOUS
 62
     7
 10
-57.00008773803711
 20
64.95001983642578
 11
-55.98163604736328
 21
65.96846771240234
  0
LINE
  8
0
  6
CONTINUOUS
 62
     7
 10
-57
 20
18.49996948242188
 11
-57
 21
2.999969482421875
  0
LINE
  8
0
  6
CONTINUOUS
 62
     7
 10
-57.00003051757813
 20
18.49994850158691
 11
-43.99999618530273
 21
31.49998474121094
  0
LINE
  8
0
  6
CONTINUOUS
 62
     7
 10
-57
 20
64.94998168945313
 11
-57
 21
56.24996948242188
  0
LINE
  8
0
  6
CONTINUOUS
 62
     7
 10
47.96941757202148
 20
47.21942901611328
 11
44.0000114440918
 21
43.25002288818359
  0
LINE
  8
0
  6
CONTINUOUS
 62
     7
 10
57.00000381469727
 20
56.25001525878906
 11
55.98159790039063
 21
55.23160552978516
  0
LINE
  8
0
  6
CONTINUOUS
 62
     7
 10
57.00004959106445
 20
2.999926567077637
 11
54.00006866455078
 21
-5.45380353287328E-005
  0
LINE
  8
0
  6
CONTINUOUS
 62
     7
 10
37
 20
1.5
 11
16
 21
1.5
  0
LINE
  8
0
  6
CONTINUOUS
 62
     7
 10
47.96950531005859
 20
73.98063659667969
 11
46.95010375976563
 21
75.00003814697266
  0
LINE
  8
0
  6
CENTER
 62
     7
 10
562.500244140625
 20
24
 11
562.500244140625
 21
19
  0
LINE
  8
0
  6
CONTINUOUS
 62
     7
 10
-97.5
 20
121.6000671386719
 11
-107.5000534057617
 21
111.6000137329102
  0
LINE
  8
0
  6
CONTINUOUS
 62
     7
 10
-95.5
 20
119.6000671386719
 11
-105.5000457763672
 21
109.6000137329102
  0
LINE
  8
0
  6
CENTER
 62
     7
 10
73.5
 20
24.5999755859375
 11
73.5
 21
19
  0
LINE
  8
0
  6
CONTINUOUS
 62
     7
 10
497.0004272460938
 20
106.9999771118164
 11
501.0703735351563
 21
106.9999771118164
  0
LINE
  8
0
  6
CONTINUOUS
 62
     7
 10
497.0004272460938
 20
99.99997711181641
 11
501.0703735351563
 21
99.99997711181641
  0
LINE
  8
0
  6
CONTINUOUS
 62
     7
 10
504.500244140625
 20
109.562141418457
 11
504.500244140625
 21
97.43781280517578
  0
LINE
  8
0
  6
CONTINUOUS
 62
     7
 10
505.000244140625
 20
111.5828628540039
 11
510.000244140625
 21
111.5828628540039
  0
LINE
  8
0
  6
CENTER
 62
     7
 10
491.7007751464844
 20
103.4999771118164
 11
512.2193603515625
 21
103.4999771118164
  0
LINE
  8
0
  6
CONTINUOUS
 62
     7
 10
510.500244140625
 20
109.562141418457
 11
510.500244140625
 21
97.43781280517578
  0
LINE
  8
0
  6
CONTINUOUS
 62
     7
 10
499.4472351074219
 20
110.2499771118164
 11
504.55517578125
 21
110.2499771118164
  0
LINE
  8
0
  6
CONTINUOUS
 62
     7
 10
505.000244140625
 20
107.5414199829102
 11
510.000244140625
 21
107.5414199829102
  0
LINE
  8
0
  6
CONTINUOUS
 62
     7
 10
505.000244140625
 20
99.45853424072266
 11
510.000244140625
 21
99.45853424072266
  0
LINE
  8
0
  6
CONTINUOUS
 62
     7
 10
505.000244140625
 20
95.41709136962891
 11
510.000244140625
 21
95.41709136962891
  0
LINE
  8
0
  6
CONTINUOUS
 62
     7
 10
501.0703735351563
 20
106.9999618530273
 11
502.9765625
 21
103.4999618530273
  0
LINE
  8
0
  6
CONTINUOUS
 62
     7
 10
501.0703735351563
 20
99.99996948242188
 11
502.9765930175781
 21
103.4999847412109
  0
LINE
  8
0
  6
CONTINUOUS
 62
     7
 10
499.4472351074219
 20
96.74997711181641
 11
504.55517578125
 21
96.74997711181641
  0
LINE
  8
0
  6
CONTINUOUS
 62
     7
 10
8.360671997070313
 20
99.99997711181641
 11
5.773818969726563
 21
99.99997711181641
  0
LINE
  8
0
  6
CONTINUOUS
 62
     7
 10
8.360694885253906
 20
106.9999771118164
 11
5.773818969726563
 21
106.9999771118164
  0
LINE
  8
0
  6
CONTINUOUS
 62
     7
 10
7
 20
107.5414199829102
 11
7
 21
106.9999771118164
  0
LINE
  8
0
  6
CONTINUOUS
 62
     7
 10
-1.401481131324545E-005
 20
111.5828552246094
 11
6.999970436096191
 21
107.5414123535156
  0
LINE
  8
0
  6
CONTINUOUS
 62
     7
 10
7.000030994415283
 20
99.45851898193359
 11
-5.644167231366737E-006
 21
95.41704559326172
  0
LINE
  8
0
  6
CONTINUOUS
 62
     7
 10
7
 20
99.99997711181641
 11
7
 21
99.45853424072266
  0
LINE
  8
0
  6
CENTER
 62
     7
 10
-9.9193115234375
 20
103.4999771118164
 11
15.83950805664063
 21
103.4999771118164
  0
LINE
  8
0
  6
CONTINUOUS
 62
     7
 10
-7.000049114227295
 20
99.45855712890625
 11
4.021363201900385E-005
 21
95.41705322265625
  0
LINE
  8
0
  6
CONTINUOUS
 62
     7
 10
-7
 20
107.541389465332
 11
-7
 21
99.45853424072266
  0
LINE
  8
0
  6
CONTINUOUS
 62
     7
 10
1.503695602877997E-005
 20
111.5828399658203
 11
-6.999969482421875
 21
107.5413970947266
  0
LINE
  8
0
  6
CONTINUOUS
 62
     7
 10
11.51142883300781
 20
106.7683715820313
 11
13.95835494995117
 21
105.8769912719727
  0
LINE
  8
0
  6
CONTINUOUS
 62
     7
 10
11.51141834259033
 20
100.2315826416016
 11
13.95834827423096
 21
101.1229705810547
  0
LINE
  8
0
  6
CONTINUOUS
 62
     7
 10
9.66020679473877
 20
100.6526489257813
 11
11.20188903808594
 21
100.2189331054688
  0
LINE
  8
0
  6
CONTINUOUS
 62
     7
 10
9.660223007202148
 20
106.3473129272461
 11
11.20187950134277
 21
106.7810211181641
  0
LINE
  8
0
  6
CENTER
 62
     7
 10
647.500244140625
 20
24
 11
647.500244140625
 21
19
  0
LINE
  8
0
  6
CENTER
 62
     7
 10
732.500244140625
 20
24
 11
732.500244140625
 21
19
  0
LINE
  8
0
  6
CENTER
 62
     7
 10
817.500244140625
 20
24
 11
817.500244140625
 21
19
  0
LINE
  8
0
  6
CONTINUOUS
 62
     7
 10
300.0001220703125
 20
0
 11
1080.000122070313
 21
0
  0
LINE
  8
0
  6
CONTINUOUS
 62
     7
 10
300.0001220703125
 20
18.49996948242188
 11
1080.000122070313
 21
18.49996948242188
  0
LINE
  8
0
  6
CONTINUOUS
 62
     7
 10
300.0001220703125
 20
31.49996948242188
 11
507.500244140625
 21
31.49996948242188
  0
LINE
  8
0
  6
CONTINUOUS
 62
     7
 10
300.0001220703125
 20
43.24996948242188
 11
507.500244140625
 21
43.24996948242188
  0
LINE
  8
0
  6
CONTINUOUS
 62
     7
 10
300.0001220703125
 20
55.28997039794922
 11
507.500244140625
 21
55.28997039794922
  0
LINE
  8
0
  6
CONTINUOUS
 62
     7
 10
300.0001220703125
 20
65.90998077392578
 11
507.500244140625
 21
65.90998077392578
  0
LINE
  8
0
  6
CONTINUOUS
 62
     7
 10
300.0001220703125
 20
74.99996948242188
 11
507.500244140625
 21
74.99996948242188
  0
LINE
  8
0
  6
CONTINUOUS
 62
     7
 10
300.0001220703125
 20
74.99996948242188
 11
300.0001220703125
 21
0
  0
LINE
  8
0
  6
DASHED
 62
     7
 10
369.0001220703125
 20
74.99996948242188
 11
369.0001220703125
 21
31.99996948242188
  0
LINE
  8
0
  6
DASHED
 62
     7
 10
361.5001220703125
 20
31.99996948242188
 11
361.5001220703125
 21
0
  0
LINE
  8
0
  6
DASHED
 62
     7
 10
369.0001220703125
 20
31.99996948242188
 11
321.0001220703125
 21
31.99996948242188
  0
LINE
  8
0
  6
CENTER
 62
     7
 10
345.0001220703125
 20
75.99996948242188
 11
345.0001220703125
 21
-1
  0
LINE
  8
0
  6
DASHED
 62
     7
 10
321.0001220703125
 20
74.99996948242188
 11
321.0001220703125
 21
31.99996948242188
  0
LINE
  8
0
  6
DASHED
 62
     7
 10
328.5001220703125
 20
31.99996948242188
 11
328.5001220703125
 21
0
  0
LINE
  8
0
  6
CENTER
 62
     7
 10
575.0001220703125
 20
24
 11
575.0001220703125
 21
-1
  0
LINE
  8
0
  6
CONTINUOUS
 62
     7
 10
1080.000122070313
 20
31.49996948242188
 11
872.5
 21
31.49996948242188
  0
LINE
  8
0
  6
CENTER
 62
     7
 10
1035.000122070313
 20
75.99996948242188
 11
1035.000122070313
 21
-1
  0
LINE
  8
0
  6
CONTINUOUS
 62
     7
 10
1080.000122070313
 20
74.99996948242188
 11
872.5
 21
74.99996948242188
  0
LINE
  8
0
  6
CONTINUOUS
 62
     7
 10
1080.000122070313
 20
65.90998077392578
 11
872.5
 21
65.90998077392578
  0
LINE
  8
0
  6
CONTINUOUS
 62
     7
 10
1080.000122070313
 20
55.28997039794922
 11
872.5
 21
55.28997039794922
  0
LINE
  8
0
  6
CONTINUOUS
 62
     7
 10
1080.000122070313
 20
43.24996948242188
 11
872.5
 21
43.24996948242188
  0
LINE
  8
0
  6
CENTER
 62
     7
 10
805.0001220703125
 20
24
 11
805.0001220703125
 21
-1
  0
LINE
  8
0
  6
CONTINUOUS
 62
     7
 10
1080.000122070313
 20
74.99996948242188
 11
1080.000122070313
 21
0
  0
LINE
  8
0
  6
CENTER
 62
     7
 10
299.0001220703125
 20
470
 11
1081.000122070313
 21
470
  0
LINE
  8
0
  6
CONTINUOUS
 62
     7
 10
510.500244140625
 20
575.5
 11
510.500244140625
 21
364.5
  0
LINE
  8
0
  6
CONTINUOUS
 62
     7
 10
513.500244140625
 20
577.5
 11
513.500244140625
 21
362.5
  0
LINE
  8
0
  6
CONTINUOUS
 62
     7
 10
507.500244140625
 20
529
 11
507.500244140625
 21
477
  0
LINE
  8
0
  6
CONTINUOUS
 62
     7
 10
513.500244140625
 20
362.5
 11
546.500244140625
 21
362.5
  0
LINE
  8
0
  6
CONTINUOUS
 62
     7
 10
510.500244140625
 20
364.5
 11
546.500244140625
 21
364.5
  0
LINE
  8
0
  6
CONTINUOUS
 62
     7
 10
513.500244140625
 20
577.5
 11
546.500244140625
 21
577.5
  0
LINE
  8
0
  6
CONTINUOUS
 62
     7
 10
510.500244140625
 20
575.5
 11
513.500244140625
 21
575.5
  0
LINE
  8
0
  6
CONTINUOUS
 62
     7
 10
507.500244140625
 20
529
 11
510.500244140625
 21
532
  0
LINE
  8
0
  6
CONTINUOUS
 62
     7
 10
507.5002746582031
 20
411.0000305175781
 11
510.500244140625
 21
408.0000305175781
  0
LINE
  8
0
  6
CONTINUOUS
 62
     7
 10
300.0001220703125
 20
413
 11
507.500244140625
 21
413
  0
LINE
  8
0
  6
CONTINUOUS
 62
     7
 10
300.0001220703125
 20
527.0000610351563
 11
507.500244140625
 21
527.0000610351563
  0
LINE
  8
0
  6
CONTINUOUS
 62
     7
 10
300.0001220703125
 20
422.0890197753906
 11
507.500244140625
 21
422.0890197753906
  0
LINE
  8
0
  6
CONTINUOUS
 62
     7
 10
300.0001220703125
 20
517.9110107421875
 11
507.500244140625
 21
517.9110107421875
  0
LINE
  8
0
  6
CONTINUOUS
 62
     7
 10
300.0001220703125
 20
527.0000610351563
 11
300.0001220703125
 21
413
  0
LINE
  8
0
  6
CENTER
 62
     7
 10
345.0001220703125
 20
495
 11
345.0001220703125
 21
445
  0
LINE
  8
0
  6
CONTINUOUS
 62
     7
 10
1080.000122070313
 20
422.0890197753906
 11
872.5
 21
422.0890197753906
  0
LINE
  8
0
  6
CONTINUOUS
 62
     7
 10
1080.000122070313
 20
527.0000610351563
 11
872.5
 21
527.0000610351563
  0
LINE
  8
0
  6
CONTINUOUS
 62
     7
 10
869.5
 20
575.5
 11
866.5
 21
575.5
  0
LINE
  8
0
  6
CONTINUOUS
 62
     7
 10
866.5
 20
577.5
 11
833.5
 21
577.5
  0
LINE
  8
0
  6
CONTINUOUS
 62
     7
 10
872.5
 20
411
 11
869.5
 21
408
  0
LINE
  8
0
  6
CONTINUOUS
 62
     7
 10
869.5
 20
364.5
 11
833.5
 21
364.5
  0
LINE
  8
0
  6
CONTINUOUS
 62
     7
 10
866.5
 20
362.5
 11
833.5
 21
362.5
  0
LINE
  8
0
  6
CONTINUOUS
 62
     7
 10
872.5
 20
529
 11
872.5
 21
411
  0
LINE
  8
0
  6
CONTINUOUS
 62
     7
 10
866.5
 20
577.5
 11
866.5
 21
362.5
  0
LINE
  8
0
  6
CONTINUOUS
 62
     7
 10
869.5
 20
575.5
 11
869.5
 21
364.5
  0
LINE
  8
0
  6
CONTINUOUS
 62
     7
 10
1080.000122070313
 20
527.0000610351563
 11
1080.000122070313
 21
413
  0
LINE
  8
0
  6
CONTINUOUS
 62
     7
 10
1080.000122070313
 20
517.9110107421875
 11
872.5
 21
517.9110107421875
  0
LINE
  8
0
  6
CONTINUOUS
 62
     7
 10
872.5
 20
529.0000610351563
 11
869.5
 21
532.0000610351563
  0
LINE
  8
0
  6
CONTINUOUS
 62
     7
 10
1080.000122070313
 20
413
 11
872.5
 21
413
  0
LINE
  8
0
  6
CENTER
 62
     7
 10
575.0001220703125
 20
495
 11
575.0001220703125
 21
445
  0
LINE
  8
0
  6
CENTER
 62
     7
 10
805.0001220703125
 20
495
 11
805.0001220703125
 21
445
  0
LINE
  8
0
  6
CENTER
 62
     7
 10
1035.000122070313
 20
495
 11
1035.000122070313
 21
445
  0
LINE
  8
0
  6
CENTER
 62
     7
 10
495.5805053710938
 20
454.6294555664063
 11
502.6465148925781
 21
471.6883544921875
  0
LINE
  8
0
  6
CONTINUOUS
 62
     7
 10
494.000732421875
 20
457.0868835449219
 11
498.4353332519531
 21
455.25
  0
LINE
  8
0
  6
CONTINUOUS
 62
     7
 10
494.2024841308594
 20
459.92578125
 11
500.3000793457031
 21
457.4000854492188
  0
LINE
  8
0
  6
CONTINUOUS
 62
     7
 10
494.000732421875
 20
457.0869140625
 11
494.2024841308594
 21
459.9257507324219
  0
LINE
  8
0
  6
CONTINUOUS
 62
     7
 10
498.4353637695313
 20
455.2500305175781
 11
500.3001098632813
 21
457.4001159667969
  0
LINE
  8
0
  6
CONTINUOUS
 62
     7
 10
495.0942077636719
 20
464.0162658691406
 11
495.5088806152344
 21
465.017333984375
  0
LINE
  8
0
  6
CONTINUOUS
 62
     7
 10
502.5619201660156
 20
460.9230346679688
 11
502.9765625
 21
461.9241027832031
  0
LINE
  8
0
  6
CONTINUOUS
 62
     7
 10
496.2884216308594
 20
465.3400268554688
 11
495.5089416503906
 21
465.0171508789063
  0
LINE
  8
0
  6
CONTINUOUS
 62
     7
 10
496.7315368652344
 20
462.6886596679688
 11
497.6040954589844
 21
464.7951965332031
  0
LINE
  8
0
  6
CONTINUOUS
 62
     7
 10
500.46533203125
 20
461.14208984375
 11
501.337890625
 21
463.2485961914063
  0
LINE
  8
0
  6
CONTINUOUS
 62
     7
 10
496.2885437011719
 20
465.3401184082031
 11
502.6536865234375
 21
462.7035827636719
  0
LINE
  8
0
  6
CONTINUOUS
 62
     7
 10
502.9765014648438
 20
461.9240417480469
 11
502.6536560058594
 21
462.7034912109375
  0
LINE
  8
0
  6
CONTINUOUS
 62
     7
 10
495.251708984375
 20
461.3815002441406
 11
500.5064697265625
 21
459.2048950195313
  0
LINE
  8
0
  6
CONTINUOUS
 62
     7
 10
499.4472351074219
 20
476.75
 11
504.500244140625
 21
476.75
  0
LINE
  8
0
  6
CONTINUOUS
 62
     7
 10
504.500244140625
 20
477
 11
510.500244140625
 21
477
  0
LINE
  8
0
  6
CONTINUOUS
 62
     7
 10
504.500244140625
 20
463
 11
510.500244140625
 21
463
  0
LINE
  8
0
  6
CONTINUOUS
 62
     7
 10
504.500244140625
 20
477
 11
504.500244140625
 21
463
  0
LINE
  8
0
  6
CONTINUOUS
 62
     7
 10
510.500244140625
 20
477
 11
510.500244140625
 21
463
  0
LINE
  8
0
  6
CONTINUOUS
 62
     7
 10
501.3344421386719
 20
463.25
 11
504.500244140625
 21
463.25
  0
LINE
  8
0
  6
CONTINUOUS
 62
     7
 10
495.4159851074219
 20
463.2335815429688
 11
501.7811279296875
 21
460.5970458984375
  0
LINE
  8
0
  6
CONTINUOUS
 62
     7
 10
507.500244140625
 20
463
 11
507.500244140625
 21
411
  0
LINE
  8
0
  6
CONTINUOUS
 62
     7
 10
110
 20
125.99951171875
 11
110
 21
92.99947357177734
  0
LINE
  8
0
  6
CONTINUOUS
 62
     7
 10
-105.9999618530273
 20
129.9994659423828
 11
-109.9999694824219
 21
125.9994659423828
  0
LINE
  8
0
  6
CONTINUOUS
 62
     7
 10
105.9999847412109
 20
129.9995422363281
 11
109.9999847412109
 21
125.9995346069336
  0
LINE
  8
0
  6
CONTINUOUS
 62
     7
 10
-52
 20
127.99951171875
 11
-26
 21
127.99951171875
  0
LINE
  8
0
  6
CONTINUOUS
 62
     7
 10
-54.00003051757813
 20
129.9994964599609
 11
-51.99998092651367
 21
127.9994506835938
  0
LINE
  8
0
  6
CONTINUOUS
 62
     7
 10
-23.99995040893555
 20
129.9994964599609
 11
-25.99995231628418
 21
127.9994888305664
  0
LINE
  8
0
  6
CONTINUOUS
 62
     7
 10
23.99997138977051
 20
129.9995422363281
 11
26.0000171661377
 21
127.9994888305664
  0
LINE
  8
0
  6
CONTINUOUS
 62
     7
 10
52
 20
127.99951171875
 11
26
 21
127.99951171875
  0
LINE
  8
0
  6
CONTINUOUS
 62
     7
 10
54
 20
129.9994812011719
 11
52.00000381469727
 21
127.9994888305664
  0
LINE
  8
0
  6
CONTINUOUS
 62
     7
 10
-109
 20
91.99947357177734
 11
-109
 21
30.9995002746582
  0
LINE
  8
0
  6
CONTINUOUS
 62
     7
 10
109
 20
91.99947357177734
 11
109
 21
30.99949645996094
  0
LINE
  8
0
  6
CONTINUOUS
 62
     7
 10
-101.0000457763672
 20
22.99954414367676
 11
-108.9999618530273
 21
30.99946594238281
  0
LINE
  8
0
  6
CONTINUOUS
 62
     7
 10
100.9999771118164
 20
22.99947929382324
 11
108.9999847412109
 21
30.99948692321777
  0
LINE
  8
0
  6
CONTINUOUS
 62
     7
 10
-109.9999618530273
 20
92.99947357177734
 11
-108.9999847412109
 21
91.99949645996094
  0
LINE
  8
0
  6
CONTINUOUS
 62
     7
 10
110.0000152587891
 20
92.99946594238281
 11
108.9999923706055
 21
91.99944305419922
  0
LINE
  8
0
  6
CONTINUOUS
 62
     7
 10
-106
 20
129.99951171875
 11
-54
 21
129.99951171875
  0
LINE
  8
0
  6
CONTINUOUS
 62
     7
 10
-110
 20
125.99951171875
 11
-110
 21
92.99947357177734
  0
LINE
  8
0
  6
CONTINUOUS
 62
     7
 10
-24
 20
129.99951171875
 11
24
 21
129.99951171875
  0
LINE
  8
0
  6
CONTINUOUS
 62
     7
 10
54
 20
129.99951171875
 11
106
 21
129.99951171875
  0
LINE
  8
0
  6
CENTER
 62
     7
 10
-73
 20
130.99951171875
 11
-73
 21
83.770751953125
  0
LINE
  8
0
  6
DASHED
 62
     7
 10
-81.8499755859375
 20
91.99951171875
 11
-64.1500244140625
 21
91.99951171875
  0
LINE
  8
0
  6
DASHED
 62
     7
 10
-83
 20
99.99951171875
 11
-63
 21
99.99951171875
  0
LINE
  8
0
  6
DASHED
 62
     7
 10
-83
 20
129.99951171875
 11
-83
 21
99.99951171875
  0
LINE
  8
0
  6
DASHED
 62
     7
 10
-81.8499755859375
 20
129.99951171875
 11
-81.8499755859375
 21
91.99951171875
  0
LINE
  8
0
  6
DASHED
 62
     7
 10
-81.84996795654297
 20
91.99951171875
 11
-72.99995422363281
 21
86.88995361328125
  0
LINE
  8
0
  6
DASHED
 62
     7
 10
-82.99995422363281
 20
99.99951171875
 11
-81.84995269775391
 21
98.00765991210938
  0
LINE
  8
0
  6
DASHED
 62
     7
 10
-63
 20
129.99951171875
 11
-63
 21
99.99951171875
  0
LINE
  8
0
  6
DASHED
 62
     7
 10
-64.1500244140625
 20
129.99951171875
 11
-64.1500244140625
 21
91.99951171875
  0
LINE
  8
0
  6
DASHED
 62
     7
 10
-62.99997711181641
 20
99.99948883056641
 11
-64.14997100830078
 21
98.00764465332031
  0
LINE
  8
0
  6
DASHED
 62
     7
 10
-64.15004730224609
 20
91.99944305419922
 11
-72.99995422363281
 21
86.88994598388672
  0
LINE
  8
0
  6
CENTER
 62
     7
 10
73
 20
130.99951171875
 11
73
 21
83.770751953125
  0
LINE
  8
0
  6
CONTINUOUS
 62
     7
 10
546.500244140625
 20
92
 11
833.5000610351563
 21
92
  0
LINE
  8
0
  6
CENTER
 62
     7
 10
585.0001220703125
 20
131
 11
585.0001220703125
 21
83.771240234375
  0
LINE
  8
0
  6
DASHED
 62
     7
 10
576.150146484375
 20
92
 11
593.85009765625
 21
92
  0
LINE
  8
0
  6
DASHED
 62
     7
 10
575.0001220703125
 20
100
 11
595.0001220703125
 21
100
  0
LINE
  8
0
  6
DASHED
 62
     7
 10
575.0001220703125
 20
130
 11
575.0001220703125
 21
100
  0
LINE
  8
0
  6
DASHED
 62
     7
 10
576.150146484375
 20
130
 11
576.150146484375
 21
92
  0
LINE
  8
0
  6
DASHED
 62
     7
 10
576.150146484375
 20
92.00000762939453
 11
585.0001831054688
 21
86.89044952392578
  0
LINE
  8
0
  6
DASHED
 62
     7
 10
575.0001831054688
 20
100.0000152587891
 11
576.1502075195313
 21
98.00816345214844
  0
LINE
  8
0
  6
DASHED
 62
     7
 10
595.0001220703125
 20
130
 11
595.0001220703125
 21
100
  0
LINE
  8
0
  6
DASHED
 62
     7
 10
593.85009765625
 20
130
 11
593.85009765625
 21
92
  0
LINE
  8
0
  6
DASHED
 62
     7
 10
595.0001220703125
 20
99.99997711181641
 11
593.8501586914063
 21
98.00813293457031
  0
LINE
  8
0
  6
DASHED
 62
     7
 10
593.85009765625
 20
91.99994659423828
 11
585.0001831054688
 21
86.89044952392578
  0
LINE
  8
0
  6
CENTER
 62
     7
 10
690.0001220703125
 20
131
 11
690.0001220703125
 21
83.771240234375
  0
LINE
  8
0
  6
CENTER
 62
     7
 10
795.0001220703125
 20
131
 11
795.0001220703125
 21
83.771240234375
  0
LINE
  8
0
  6
CONTINUOUS
 62
     7
 10
546.500244140625
 20
360
 11
833.5000610351563
 21
360
  0
LINE
  8
0
  6
CONTINUOUS
 62
     7
 10
546.500244140625
 20
580
 11
546.500244140625
 21
360
  0
LINE
  8
0
  6
CONTINUOUS
 62
     7
 10
833.5000610351563
 20
580
 11
833.5000610351563
 21
360
  0
LINE
  8
0
  6
CONTINUOUS
 62
     7
 10
546.500244140625
 20
580
 11
833.5000610351563
 21
580
  0
LINE
  8
0
  6
CONTINUOUS
 62
     7
 10
546.500244140625
 20
524
 11
833.5000610351563
 21
524
  0
LINE
  8
0
  6
CONTINUOUS
 62
     7
 10
546.500244140625
 20
494
 11
833.5000610351563
 21
494
  0
LINE
  8
0
  6
CONTINUOUS
 62
     7
 10
546.500244140625
 20
446
 11
833.5000610351563
 21
446
  0
LINE
  8
0
  6
CONTINUOUS
 62
     7
 10
546.500244140625
 20
416
 11
833.5000610351563
 21
416
  0
LINE
  8
0
  6
CENTER
 62
     7
 10
585.0001220703125
 20
408
 11
585.0001220703125
 21
386
  0
LINE
  8
0
  6
CENTER
 62
     7
 10
574.0001220703125
 20
397
 11
596.0001220703125
 21
397
  0
LINE
  8
0
  6
CENTER
 62
     7
 10
585.0001220703125
 20
554
 11
585.0001220703125
 21
532
  0
LINE
  8
0
  6
CENTER
 62
     7
 10
574.0001220703125
 20
543
 11
596.0001220703125
 21
543
  0
LINE
  8
0
  6
CENTER
 62
     7
 10
690.0001220703125
 20
554
 11
690.0001220703125
 21
532
  0
LINE
  8
0
  6
CENTER
 62
     7
 10
679.0001220703125
 20
543
 11
701.0001220703125
 21
543
  0
LINE
  8
0
  6
CENTER
 62
     7
 10
690.0001220703125
 20
408
 11
690.0001220703125
 21
386
  0
LINE
  8
0
  6
CENTER
 62
     7
 10
679.0001220703125
 20
397
 11
701.0001220703125
 21
397
  0
LINE
  8
0
  6
CENTER
 62
     7
 10
795.0001220703125
 20
408
 11
795.0001220703125
 21
386
  0
LINE
  8
0
  6
CENTER
 62
     7
 10
784.0001220703125
 20
397
 11
806.0001220703125
 21
397
  0
LINE
  8
0
  6
CENTER
 62
     7
 10
795.0001220703125
 20
554
 11
795.0001220703125
 21
532
  0
LINE
  8
0
  6
CENTER
 62
     7
 10
784.0001220703125
 20
543
 11
806.0001220703125
 21
543
  0
ARC
  8
0
  6
CONTINUOUS
 62
     7
 10
-70.550048828125
 20
22.677978515625
 40
2.299999952316284
 50
284.6039254882496
 51
3.597217809493896E-005
  0
ARC
  8
0
  6
CONTINUOUS
 62
     7
 10
-73.5
 20
34
 40
14.00000095367432
 50
255.3960285216591
 51
284.6039664693846
  0
ARC
  8
0
  6
CONTINUOUS
 62
     7
 10
-76.449951171875
 20
22.677978515625
 40
2.299999952316282
 50
179.999991348578
 51
255.3961000112744
  0
ARC
  8
0
  6
CONTINUOUS
 62
     7
 10
-57.010986328125
 20
75.00997924804688
 40
4.100000381469728
 50
256.1567886517934
 51
13.84327202297813
  0
ARC
  8
0
  6
CONTINUOUS
 62
     7
 10
57.010986328125
 20
46.18997192382813
 40
9.100000381469728
 50
96.49528700891767
 51
173.5046453724359
  0
ARC
  8
0
  6
CONTINUOUS
 62
     7
 10
57.010986328125
 20
75.00997924804688
 40
9.10000038146973
 50
186.4952590049157
 51
263.5047129910823
  0
ARC
  8
0
  6
CONTINUOUS
 62
     7
 10
-57.010986328125
 20
46.18997192382813
 40
9.100000381469727
 50
6.495318655385349
 51
83.50467701890361
  0
ARC
  8
0
  6
CONTINUOUS
 62
     7
 10
57.010986328125
 20
46.18997192382813
 40
4.100000381469728
 50
76.15688245320898
 51
193.8430772489013
  0
ARC
  8
0
  6
CONTINUOUS
 62
     7
 10
57.010986328125
 20
75.00997924804688
 40
4.100000381469725
 50
166.1567278633363
 51
283.8432095269737
  0
ARC
  8
0
  6
CONTINUOUS
 62
     7
 10
-57.010986328125
 20
75.00997924804688
 40
9.100000381469734
 50
276.4952546792047
 51
353.5047086653713
  0
ARC
  8
0
  6
CONTINUOUS
 62
     7
 10
-57.010986328125
 20
46.18997192382813
 40
4.100000381469727
 50
346.1569226374131
 51
103.8431157255582
  0
ARC
  8
0
  6
CONTINUOUS
 62
     7
 10
559.550048828125
 20
22.677978515625
 40
2.299999952316283
 50
179.9999640278213
 51
255.3960726905188
  0
ARC
  8
0
  6
CONTINUOUS
 62
     7
 10
562.500244140625
 20
34
 40
14.00000095367433
 50
255.396035351848
 51
284.6039732995737
  0
ARC
  8
0
  6
CONTINUOUS
 62
     7
 10
565.4501953125
 20
22.677978515625
 40
2.299999952316279
 50
284.6038913373033
 51
6.830189170012718E-006
  0
ARC
  8
0
  6
CONTINUOUS
 62
     7
 10
516.5087890625
 20
113.3650894165039
 40
17.08318519592286
 50
201.8756838836255
 51
215.2731409217406
  0
ARC
  8
0
  6
CONTINUOUS
 62
     7
 10
499.4472351074219
 20
107.2499771118164
 40
3.000000000000003
 50
90.00000250447846
 51
164.8107161439801
  0
ARC
  8
0
  6
CONTINUOUS
 62
     7
 10
513.2597045898438
 20
103.4999771118164
 40
17.31249999999999
 50
164.8107161439802
 51
169.6547546052449
  0
ARC
  8
0
  6
CONTINUOUS
 62
     7
 10
508.8335571289063
 20
109.562141418457
 40
4.333314895629886
 50
152.2041676909959
 51
207.7958286665384
  0
ARC
  8
0
  6
CONTINUOUS
 62
     7
 10
506.1669311523438
 20
109.562141418457
 40
4.3333148956299
 50
332.2041678046817
 51
27.79583219531834
  0
ARC
  8
0
  6
CONTINUOUS
 62
     7
 10
521.08349609375
 20
103.4999771118164
 40
16.58325958251953
 50
165.8946125237478
 51
194.1053838337865
  0
ARC
  8
0
  6
CONTINUOUS
 62
     7
 10
493.9169616699219
 20
103.4999771118164
 40
16.58325958251951
 50
345.8946151987543
 51
14.10538480124569
  0
ARC
  8
0
  6
CONTINUOUS
 62
     7
 10
508.8335571289063
 20
97.43781280517578
 40
4.333314895629886
 50
152.2041676909959
 51
207.7958286665384
  0
ARC
  8
0
  6
CONTINUOUS
 62
     7
 10
506.1669311523438
 20
97.43781280517578
 40
4.3333148956299
 50
332.2041678046817
 51
27.79583219531834
  0
ARC
  8
0
  6
CONTINUOUS
 62
     7
 10
516.5087890625
 20
93.63486480712891
 40
17.08318519592283
 50
144.7268590782594
 51
158.1243161163746
  0
ARC
  8
0
  6
CONTINUOUS
 62
     7
 10
510.9472961425781
 20
97.1348876953125
 40
17.08318519592284
 50
144.7269410405295
 51
145.6667614099449
  0
ARC
  8
0
  6
CONTINUOUS
 62
     7
 10
510.9472961425781
 20
109.8650741577148
 40
17.08318519592284
 50
214.3332385900551
 51
215.2730589594705
  0
ARC
  8
0
  6
CONTINUOUS
 62
     7
 10
513.2597045898438
 20
103.4999771118164
 40
17.31250000000001
 50
190.3452453947551
 51
195.1892838560198
  0
ARC
  8
0
  6
CONTINUOUS
 62
     7
 10
499.4472351074219
 20
99.74997711181641
 40
2.99999999999998
 50
195.18928385602
 51
269.9999974955215
  0
ARC
  8
0
  6
CONTINUOUS
 62
     7
 10
-0.7137680053710938
 20
100.3698501586914
 40
7.875409126281738
 50
357.308301849047
 51
23.41950118275418
  0
ARC
  8
0
  6
CONTINUOUS
 62
     7
 10
13.19907379150391
 20
96.45175933837891
 40
6.000000000000003
 50
139.6351716180684
 51
143.7457433851222
  0
ARC
  8
0
  6
CONTINUOUS
 62
     7
 10
8.369361877441406
 20
102.4259414672852
 40
3.552768945693969
 50
162.4033613294958
 51
223.0653859146405
  0
ARC
  8
0
  6
CONTINUOUS
 62
     7
 10
-0.7137680053710938
 20
106.6301345825195
 40
7.875409126281737
 50
336.5804680813946
 51
2.691665707554334
  0
ARC
  8
0
  6
CONTINUOUS
 62
     7
 10
8.369361877441406
 20
104.5740127563477
 40
3.552768945693967
 50
136.9345694617588
 51
197.5965940469035
  0
ARC
  8
0
  6
CONTINUOUS
 62
     7
 10
13.19907379150391
 20
110.548225402832
 40
6.000000000000004
 50
216.254625445093
 51
220.3651972121467
  0
ARC
  8
0
  6
CONTINUOUS
 62
     7
 10
0
 20
103.4999771118164
 40
6.750000000000006
 50
90.00000250447816
 51
328.7670849058184
  0
ARC
  8
0
  6
CONTINUOUS
 62
     7
 10
0
 20
103.4999771118164
 40
6.749999999999996
 50
31.23292852718877
 51
90.00000250447816
  0
ARC
  8
0
  6
CONTINUOUS
 62
     7
 10
9.389419555664063
 20
107.309944152832
 40
1
 50
220.3651972121467
 51
285.712717907542
  0
ARC
  8
0
  6
CONTINUOUS
 62
     7
 10
9.389396667480469
 20
99.69002532958984
 40
0.9999999999999941
 50
74.28728209245796
 51
139.6351716180682
  0
CIRCLE
  8
0
  6
CONTINUOUS
 62
     7
 10
345.0001220703125
 20
470
 40
24
  0
CIRCLE
  8
0
  6
CONTINUOUS
 62
     7
 10
345.0001220703125
 20
470
 40
16.5
  0
ARC
  8
0
  6
CONTINUOUS
 62
     7
 10
497.2512817382813
 20
458.6629638671875
 40
3.299999237060556
 50
337.5000181569004
 51
2.009806215165055
  0
ARC
  8
0
  6
CONTINUOUS
 62
     7
 10
505.0145568847656
 20
455.4472961425781
 40
6.000000000000011
 50
114.1278165022775
 51
131.2359377315422
  0
ARC
  8
0
  6
CONTINUOUS
 62
     7
 10
499.4472351074219
 20
466.25
 40
2.999999999999977
 50
195.1892838560197
 51
200.5897231874524
  0
ARC
  8
0
  6
CONTINUOUS
 62
     7
 10
513.2597045898438
 20
470
 40
17.31249999999999
 50
164.8107161439802
 51
195.1892802135542
  0
ARC
  8
0
  6
CONTINUOUS
 62
     7
 10
499.4472351074219
 20
473.75
 40
3.000000000000003
 50
90.00000250447846
 51
164.8107161439803
  0
ARC
  8
0
  6
CONTINUOUS
 62
     7
 10
502.0483093261719
 20
458.831298828125
 40
1.500000000000001
 50
131.2359377315422
 51
182.0098018326104
  0
ARC
  8
0
  6
CONTINUOUS
 62
     7
 10
497.2511901855469
 20
458.6629943847656
 40
3.299999237060538
 50
132.9901898575898
 51
157.4999821847224
  0
ARC
  8
0
  6
CONTINUOUS
 62
     7
 10
493.9782104492188
 20
462.174072265625
 40
1.50000000000001
 50
312.9901950939163
 51
3.764061756307549
  0
ARC
  8
0
  6
CONTINUOUS
 62
     7
 10
489.4879150390625
 20
461.8786315917969
 40
6.00000000000002
 50
3.764061756307043
 51
20.87218554689261
  0
CIRCLE
  8
0
  6
CONTINUOUS
 62
     7
 10
585.0001220703125
 20
397
 40
8.8499755859375
  0
CIRCLE
  8
0
  6
CONTINUOUS
 62
     7
 10
585.0001220703125
 20
397
 40
10
  0
POLYLINE
  8
0
  6
CONTINUOUS
 62
     7
 66
     1
 10
0
 20
0
 70
     1
  0
VERTEX
  8
0
  6
CONTINUOUS
 62
     7
 10
498.4353332519531
 20
103.4999771118164
 42
0.08828163963580396
  0
VERTEX
  8
0
  6
CONTINUOUS
 62
     7
 10
498.2779025055068
 20
104.3881701603981
 42
0.09354512668453421
  0
VERTEX
  8
0
  6
CONTINUOUS
 62
     7
 10
497.8167466722505
 20
105.1629695113543
 42
0.1024573343348997
  0
VERTEX
  8
0
  6
CONTINUOUS
 62
     7
 10
497.0954674748233
 20
105.7040617666986
 42
0.1097085003897418
  0
VERTEX
  8
0
  6
CONTINUOUS
 62
     7
 10
496.218017578125
 20
105.8999786376953
 42
0.1096452357918138
  0
VERTEX
  8
0
  6
CONTINUOUS
 62
     7
 10
495.3410346809404
 20
105.7042795092146
 42
0.1023463685969687
  0
VERTEX
  8
0
  6
CONTINUOUS
 62
     7
 10
494.6203428448054
 20
105.1641562183194
 42
0.09358402784974376
  0
VERTEX
  8
0
  6
CONTINUOUS
 62
     7
 10
494.1585944199987
 20
104.3894237969295
 42
0.08841498540526281
  0
VERTEX
  8
0
  6
CONTINUOUS
 62
     7
 10
494.0007019042969
 20
103.4999771118164
 42
0.08828195421363309
  0
VERTEX
  8
0
  6
CONTINUOUS
 62
     7
 10
494.1581330285476
 20
102.6117841519213
 42
0.09354571604798122
  0
VERTEX
  8
0
  6
CONTINUOUS
 62
     7
 10
494.6192906529512
 20
101.8369859389987
 42
0.1024576081944671
  0
VERTEX
  8
0
  6
CONTINUOUS
 62
     7
 10
495.3405720848669
 20
101.2958967657006
 42
0.1097073466524326
  0
VERTEX
  8
0
  6
CONTINUOUS
 62
     7
 10
496.2180175781249
 20
101.099983215332
 42
0.1096447053133351
  0
VERTEX
  8
0
  6
CONTINUOUS
 62
     7
 10
497.095000840046
 20
101.2956812482446
 42
0.1023465913995112
  0
VERTEX
  8
0
  6
CONTINUOUS
 62
     7
 10
497.8156936560037
 20
101.8358031921949
 42
0.09358457257780571
  0
VERTEX
  8
0
  6
CONTINUOUS
 62
     7
 10
498.2774421852045
 20
102.6105354753951
 42
0.08841477158591075
  0
SEQEND
  8
0
  0
POLYLINE
  8
0
  6
CONTINUOUS
 62
     7
 66
     1
 10
0
 20
0
  0
VERTEX
  8
0
  6
CONTINUOUS
 62
     7
 10
497.2512512207031
 20
100.1999816894531
 42
0.07311575340818706
  0
VERTEX
  8
0
  6
CONTINUOUS
 62
     7
 10
498.0663140861815
 20
100.3200933970914
 42
0.0706194655533279
  0
VERTEX
  8
0
  6
CONTINUOUS
 62
     7
 10
498.8138836323229
 20
100.6663934349265
 42
0.0667999773445922
  0
VERTEX
  8
0
  6
CONTINUOUS
 62
     7
 10
499.4403287502383
 20
101.2030840876382
 42
0.06287568773708653
  0
VERTEX
  8
0
  6
CONTINUOUS
 62
     7
 10
499.9087367180381
 20
101.882556550773
 42
0.05987872030458366
  0
VERTEX
  8
0
  6
CONTINUOUS
 62
     7
 10
500.1986009672957
 20
102.6557830869558
 42
0.05828721123772478
  0
VERTEX
  8
0
  6
CONTINUOUS
 62
     7
 10
500.2999672517244
 20
103.475836771264
 42
0.0581569451098691
  0
VERTEX
  8
0
  6
CONTINUOUS
 62
     7
 10
500.2100081675557
 20
104.2960505742908
 42
0.05969792917195364
  0
VERTEX
  8
0
  6
CONTINUOUS
 62
     7
 10
499.9314672636373
 20
105.0728437098724
 42
0.06265991450123527
  0
VERTEX
  8
0
  6
CONTINUOUS
 62
     7
 10
499.4734081057629
 20
105.7593524460321
 42
0.0666024441336351
  0
VERTEX
  8
0
  6
CONTINUOUS
 62
     7
 10
498.855160212749
 20
106.3064157303648
 42
0.07054868742012378
  0
VERTEX
  8
0
  6
CONTINUOUS
 62
     7
 10
498.1120273892001
 20
106.6657238486476
 42
0.0731147781172206
  0
VERTEX
  8
0
  6
CONTINUOUS
 62
     7
 10
497.2981925610491
 20
106.7995889930297
 42
0.07318744508193062
  0
VERTEX
  8
0
  6
CONTINUOUS
 62
     7
 10
496.4812696453114
 20
106.6930041363864
 42
0.07079752755879747
  0
VERTEX
  8
0
  6
CONTINUOUS
 62
     7
 10
495.7283953448215
 20
106.3588258447079
 42
0.06704873803878589
  0
VERTEX
  8
0
  6
CONTINUOUS
 62
     7
 10
495.0937394616582
 20
105.8316029792075
 42
0.06307943185509621
  0
VERTEX
  8
0
  6
CONTINUOUS
 62
     7
 10
494.615697624947
 20
105.158910377721
 42
0
  0
SEQEND
  8
0
  0
POLYLINE
  8
0
  6
CONTINUOUS
 62
     7
 66
     1
 10
0
 20
0
  0
VERTEX
  8
0
  6
CONTINUOUS
 62
     7
 10
494.6151527046013
 20
101.8420605078079
 42
0.015194352322625
  0
VERTEX
  8
0
  6
CONTINUOUS
 62
     7
 10
494.7169514973367
 20
101.6654925830861
 42
0.01540042016080288
  0
VERTEX
  8
0
  6
CONTINUOUS
 62
     7
 10
494.8293593083673
 20
101.4954736997706
 42
0.015621695973072
  0
VERTEX
  8
0
  6
CONTINUOUS
 62
     7
 10
494.952096010151
 20
101.3327445636724
 42
0.01585552726560232
  0
VERTEX
  8
0
  6
CONTINUOUS
 62
     7
 10
495.0848313881829
 20
101.1780522880361
 42
0.01609876387362036
  0
VERTEX
  8
0
  6
CONTINUOUS
 62
     7
 10
495.2271797391799
 20
101.0321461951354
 42
0.01634773491734737
  0
VERTEX
  8
0
  6
CONTINUOUS
 62
     7
 10
495.3786946762521
 20
100.8957722083827
 42
0.0165982489961279
  0
VERTEX
  8
0
  6
CONTINUOUS
 62
     7
 10
495.5388644431516
 20
100.7696657612153
 42
0.01684562806873575
  0
VERTEX
  8
0
  6
CONTINUOUS
 62
     7
 10
495.7071080907154
 20
100.6545432186103
 42
0.01708478100350526
  0
VERTEX
  8
0
  6
CONTINUOUS
 62
     7
 10
495.8827729053784
 20
100.5510919012233
 42
0.017310323670746
  0
VERTEX
  8
0
  6
CONTINUOUS
 62
     7
 10
496.0651334916984
 20
100.4599589183989
 42
0.01751674657064099
  0
VERTEX
  8
0
  6
CONTINUOUS
 62
     7
 10
496.2533928874616
 20
100.3817391474469
 42
0.01769862680349797
  0
VERTEX
  8
0
  6
CONTINUOUS
 62
     7
 10
496.4466860223286
 20
100.3169628299978
 42
0.01785087371690046
  0
VERTEX
  8
0
  6
CONTINUOUS
 62
     7
 10
496.6440857149025
 20
100.2660833743531
 42
0.01796899129019242
  0
VERTEX
  8
0
  6
CONTINUOUS
 62
     7
 10
496.8446112416651
 20
100.2294660350076
 42
0.01804933365466269
  0
VERTEX
  8
0
  6
CONTINUOUS
 62
     7
 10
497.0472393165666
 20
100.207378167043
 42
0.01811901355505517
  0
VERTEX
  8
0
  6
CONTINUOUS
 62
     7
 10
497.2512512207031
 20
100.1999816894531
 42
0
  0
SEQEND
  8
0
  0
POLYLINE
  8
0
  6
CONTINUOUS
 62
     7
 66
     1
 10
0
 20
0
 70
     1
  0
VERTEX
  8
0
  6
CONTINUOUS
 62
     7
 10
13.83154296875
 20
105.8999862670898
 42
0.2547050057865628
  0
VERTEX
  8
0
  6
CONTINUOUS
 62
     7
 10
13.32026563750223
 20
105.4937238088515
 42
0.0636523730098742
  0
VERTEX
  8
0
  6
CONTINUOUS
 62
     7
 10
13.07431071388762
 20
104.858114541384
 42
0.03549875221982329
  0
VERTEX
  8
0
  6
CONTINUOUS
 62
     7
 10
12.95135926254632
 20
104.1853901811556
 42
0.0281672530634863
  0
VERTEX
  8
0
  6
CONTINUOUS
 62
     7
 10
12.91310923516391
 20
103.5022434251663
 42
0.02812347652229677
  0
VERTEX
  8
0
  6
CONTINUOUS
 62
     7
 10
12.95078549627849
 20
102.8196170008449
 42
0.03541277106636277
  0
VERTEX
  8
0
  6
CONTINUOUS
 62
     7
 10
13.07306991177084
 20
102.1465808583019
 42
0.06347459633133334
  0
VERTEX
  8
0
  6
CONTINUOUS
 62
     7
 10
13.31863677592632
 20
101.5090997323864
 42
0.2547692361163036
  0
VERTEX
  8
0
  6
CONTINUOUS
 62
     7
 10
13.83154296875
 20
101.099983215332
 42
0.2547037754546753
  0
VERTEX
  8
0
  6
CONTINUOUS
 62
     7
 10
14.3428235219676
 20
101.506242236697
 42
0.06365332165712286
  0
VERTEX
  8
0
  6
CONTINUOUS
 62
     7
 10
14.58878178840948
 20
102.1418501283611
 42
0.0354994480118211
  0
VERTEX
  8
0
  6
CONTINUOUS
 62
     7
 10
14.71173462838212
 20
102.8145742036413
 42
0.02816782885338215
  0
VERTEX
  8
0
  6
CONTINUOUS
 62
     7
 10
14.74998433529585
 20
103.4977207087417
 42
0.02812381740110439
  0
VERTEX
  8
0
  6
CONTINUOUS
 62
     7
 10
14.7123064491514
 20
104.180346972462
 42
0.03541272322982361
  0
VERTEX
  8
0
  6
CONTINUOUS
 62
     7
 10
14.5900200206871
 20
104.8533827426199
 42
0.06347362881949296
  0
VERTEX
  8
0
  6
CONTINUOUS
 62
     7
 10
14.34445232774457
 20
105.4908635937632
 42
0.2547673441374463
  0
SEQEND
  8
0
  0
POLYLINE
  8
0
  6
CONTINUOUS
 62
     7
 66
     1
 10
0
 20
0
  0
VERTEX
  8
0
  6
CONTINUOUS
 62
     7
 10
11.51128484414742
 20
106.7684265254373
 42
0.2419549943319812
  0
VERTEX
  8
0
  6
CONTINUOUS
 62
     7
 10
11.04147379563735
 20
106.7083069652915
 42
0.1040602418275417
  0
VERTEX
  8
0
  6
CONTINUOUS
 62
     7
 10
10.70416787395761
 20
106.3556386885406
 42
0.04748772166607308
  0
VERTEX
  8
0
  6
CONTINUOUS
 62
     7
 10
10.47849792014485
 20
105.9199954409928
 42
0.02915041631282593
  0
VERTEX
  8
0
  6
CONTINUOUS
 62
     7
 10
10.3194353299451
 20
105.4541156457826
 42
0.02124433023244932
  0
VERTEX
  8
0
  6
CONTINUOUS
 62
     7
 10
10.20730615391152
 20
104.9745869059078
 42
0.01734001507260169
  0
VERTEX
  8
0
  6
CONTINUOUS
 62
     7
 10
10.13200472550042
 20
104.4868579005999
 42
0.01529278916299988
  0
VERTEX
  8
0
  6
CONTINUOUS
 62
     7
 10
10.08855204692387
 20
103.9958875599446
 42
0.01441683554785603
  0
VERTEX
  8
0
  6
CONTINUOUS
 62
     7
 10
10.07421170853373
 20
103.5031614050142
 42
0.01436644647246918
  0
VERTEX
  8
0
  6
CONTINUOUS
 62
     7
 10
10.08809799850468
 20
103.0119362138224
 42
0.01525598417407547
  0
VERTEX
  8
0
  6
CONTINUOUS
 62
     7
 10
10.1310163575059
 20
102.5213754834681
 42
0.01732076104878661
  0
VERTEX
  8
0
  6
CONTINUOUS
 62
     7
 10
10.20588141181709
 20
102.0328445649765
 42
0.02117974019736076
  0
VERTEX
  8
0
  6
CONTINUOUS
 62
     7
 10
10.31748397194494
 20
101.5527965514627
 42
0.02902604933189949
  0
VERTEX
  8
0
  6
CONTINUOUS
 62
     7
 10
10.4759731925974
 20
101.0860918974723
 42
0.04737184694820112
  0
VERTEX
  8
0
  6
CONTINUOUS
 62
     7
 10
10.70168277841445
 20
100.6480863188085
 42
0.103799995788532
  0
VERTEX
  8
0
  6
CONTINUOUS
 62
     7
 10
11.03938475302447
 20
100.2929664481085
 42
0.2421695498578858
  0
VERTEX
  8
0
  6
CONTINUOUS
 62
     7
 10
11.50990270319089
 20
100.2310266606731
 42
0
  0
SEQEND
  8
0
  0
POLYLINE
  8
0
  6
CONTINUOUS
 62
     7
 66
     1
 10
0
 20
0
  0
VERTEX
  8
0
  6
CONTINUOUS
 62
     7
 10
9.591292277998804
 20
106.3279218540973
 42
0.1426553360572177
  0
VERTEX
  8
0
  6
CONTINUOUS
 62
     7
 10
9.274705862900735
 20
106.110215528717
 42
0.06078303718479593
  0
VERTEX
  8
0
  6
CONTINUOUS
 62
     7
 10
9.059503280685293
 20
105.7862452225475
 42
0.03423980391305325
  0
VERTEX
  8
0
  6
CONTINUOUS
 62
     7
 10
8.90680712236016
 20
105.4281415199896
 42
0.02354281437418151
  0
VERTEX
  8
0
  6
CONTINUOUS
 62
     7
 10
8.795393524991207
 20
105.0542265433104
 42
0.01829035794327454
  0
VERTEX
  8
0
  6
CONTINUOUS
 62
     7
 10
8.71519565121074
 20
104.6719210422871
 42
0.01545182576226036
  0
VERTEX
  8
0
  6
CONTINUOUS
 62
     7
 10
8.660782172061127
 20
104.2850145771685
 42
0.01392491048274656
  0
VERTEX
  8
0
  6
CONTINUOUS
 62
     7
 10
8.629077556798508
 20
103.8955348696768
 42
0.01324648276145528
  0
VERTEX
  8
0
  6
CONTINUOUS
 62
     7
 10
8.618501355473054
 20
103.5048532639594
 42
0.01319882441778632
  0
VERTEX
  8
0
  6
CONTINUOUS
 62
     7
 10
8.628500454154532
 20
103.1153101786815
 42
0.01387796692498151
  0
VERTEX
  8
0
  6
CONTINUOUS
 62
     7
 10
8.659548044953484
 20
102.7262588647315
 42
0.0154212877262387
  0
VERTEX
  8
0
  6
CONTINUOUS
 62
     7
 10
8.713383095951254
 20
102.3385661021
 42
0.01824157842776909
  0
VERTEX
  8
0
  6
CONTINUOUS
 62
     7
 10
8.793060067942117
 20
101.9551170642068
 42
0.0234074457198799
  0
VERTEX
  8
0
  6
CONTINUOUS
 62
     7
 10
8.903794734860039
 20
101.5803900632705
 42
0.03403058240492923
  0
VERTEX
  8
0
  6
CONTINUOUS
 62
     7
 10
9.056005670015241
 20
101.2205096522874
 42
0.06024399300137574
  0
VERTEX
  8
0
  6
CONTINUOUS
 62
     7
 10
9.270575531287966
 20
100.8944471697919
 42
0.1417951362032545
  0
VERTEX
  8
0
  6
CONTINUOUS
 62
     7
 10
9.587568708647652
 20
100.6731030128259
 42
0
  0
SEQEND
  8
0
  0
TEXT
  8
0
  6
CONTINUOUS
 62
     7
 10
-11.28550004959106
 20
-31.79999995231628
 40
3.599999904632568
 41
1.00619571870364
  1
HSR120HR
  0
ENDSEC
  0
EOF
