  0
SECTION
  2
HEADER
  0
ENDSEC
  0
SECTION
  2
TABLES
  0
TABLE
  2
LTYPE
 70
    22
  0
LTYPE
  2
CONTINUOUS
 70
    64
  3
Solid line
 72
    65
 73
     0
 40
0.000000
  0
LTYPE
  2
DASHED
 70
    64
  3
__ __ __ __ __ __ __ __ __ __ __ __ __ __ __
 72
    65
 73
     2
 40
3.500000
 49
2.000000
 49
-1.500000
  0
LTYPE
  2
CENTER
 70
    64
  3
____ _ ____ _ ____ _ ____ _ ____ _ ____ _ ____
 72
    65
 73
     4
 40
17.500000
 49
13.000000
 49
-1.500000
 49
1.500000
 49
-1.500000
  0
LTYPE
  2
PHANTOM
 70
    64
  3
_____ _ _ _____ _ _ _____ _ _ _____ _ _ ____  
 72
    65
 73
     6
 40
15.500000
 49
8.000000
 49
-1.500000
 49
1.500000
 49
-1.500000
 49
1.500000
 49
-1.500000
  0
LTYPE
  2
DOT
 70
    64
  3
. . . . . . . . . . . . . . . . . . . . . . . .
 72
    65
 73
     2
 40
0.25
 49
0.0
 49
-0.25
  0
ENDTAB
  0
TABLE
  2
LAYER
 70
     1
  0
LAYER
  2
0
 70
     0
 62
     7
  6
CONTINUOUS
  0
ENDTAB
  0
TABLE
  2
STYLE
 70
     1
  0
STYLE
  2
STANDARD
 70
     0
 40
0.000000
 41
1.000000
 50
0.000000
 71
     0
 42
0.200000
  3
txt
  0
ENDTAB
  0
TABLE
  2
VIEW
 70
     0
  0
ENDTAB
  0
ENDSEC
  0
SECTION
  2
BLOCKS
  0
ENDSEC
  0
SECTION
  2
ENTITIES
  0
LINE
  8
0
  6
CONTINUOUS
 62
     7
 10
51.524994
 20
97.4319
 11
103.22498
 21
97.4319
  0
LINE
  8
0
  6
CONTINUOUS
 62
     7
 10
51.524994
 20
82.4319
 11
103.22498
 21
82.4319
  0
LINE
  8
0
  6
CONTINUOUS
 62
     7
 10
51.524994
 20
97.4319
 11
51.524994
 21
82.4319
  0
LINE
  8
0
  6
CONTINUOUS
 62
     7
 10
211.52498
 20
97.4319
 11
211.52498
 21
82.4319
  0
LINE
  8
0
  6
CENTER
 62
     7
 10
46.080292
 20
89.9319
 11
217.42342
 21
89.9319
  0
LINE
  8
0
  6
CONTINUOUS
 62
     7
 10
112.12498
 20
113.4319
 11
112.12498
 21
66.4319
  0
LINE
  8
0
  6
CONTINUOUS
 62
     7
 10
150.92499
 20
113.4319
 11
150.92499
 21
66.4319
  0
LINE
  8
0
  6
CONTINUOUS
 62
     7
 10
112.12498
 20
113.4319
 11
150.92499
 21
113.4319
  0
LINE
  8
0
  6
CONTINUOUS
 62
     7
 10
112.12498
 20
66.4319
 11
150.92499
 21
66.4319
  0
LINE
  8
0
  6
CENTER
 62
     7
 10
116.52498
 20
74.4319
 11
116.52498
 21
67.4319
  0
LINE
  8
0
  6
CENTER
 62
     7
 10
113.02498
 20
70.9319
 11
120.02498
 21
70.9319
  0
LINE
  8
0
  6
CENTER
 62
     7
 10
113.02498
 20
108.9319
 11
120.02498
 21
108.9319
  0
LINE
  8
0
  6
CENTER
 62
     7
 10
116.52498
 20
112.4319
 11
116.52498
 21
105.4319
  0
LINE
  8
0
  6
CENTER
 62
     7
 10
143.02498
 20
108.9319
 11
150.02498
 21
108.9319
  0
LINE
  8
0
  6
CENTER
 62
     7
 10
146.52498
 20
112.4319
 11
146.52498
 21
105.4319
  0
LINE
  8
0
  6
CENTER
 62
     7
 10
143.02498
 20
70.9319
 11
150.02498
 21
70.9319
  0
LINE
  8
0
  6
CENTER
 62
     7
 10
146.52498
 20
74.4319
 11
146.52498
 21
67.4319
  0
LINE
  8
0
  6
CONTINUOUS
 62
     7
 10
103.22498
 20
105.9319
 11
103.22498
 21
73.9319
  0
LINE
  8
0
  6
CONTINUOUS
 62
     7
 10
159.82498
 20
105.9319
 11
159.82498
 21
73.9319
  0
LINE
  8
0
  6
CONTINUOUS
 62
     7
 10
103.22498
 20
105.9319
 11
112.12498
 21
105.9319
  0
LINE
  8
0
  6
CONTINUOUS
 62
     7
 10
103.22498
 20
73.9319
 11
112.12498
 21
73.9319
  0
LINE
  8
0
  6
CONTINUOUS
 62
     7
 10
150.92499
 20
105.9319
 11
159.82498
 21
105.9319
  0
LINE
  8
0
  6
CONTINUOUS
 62
     7
 10
150.92499
 20
73.9319
 11
159.82498
 21
73.9319
  0
LINE
  8
0
  6
CONTINUOUS
 62
     7
 10
159.82498
 20
97.4319
 11
211.52498
 21
97.4319
  0
LINE
  8
0
  6
CONTINUOUS
 62
     7
 10
159.82498
 20
82.4319
 11
211.52498
 21
82.4319
  0
LINE
  8
0
  6
CENTER
 62
     7
 10
71.524994
 20
94.6819
 11
71.524994
 21
85.1819
  0
LINE
  8
0
  6
CENTER
 62
     7
 10
131.52498
 20
94.6819
 11
131.52498
 21
85.1819
  0
LINE
  8
0
  6
CENTER
 62
     7
 10
191.52498
 20
94.6819
 11
191.52498
 21
85.1819
  0
LINE
  8
0
  6
CONTINUOUS
 62
     7
 10
51.524994
 20
95.281906
 11
103.22498
 21
95.281906
  0
LINE
  8
0
  6
CONTINUOUS
 62
     7
 10
51.524994
 20
84.581909
 11
103.22498
 21
84.581909
  0
LINE
  8
0
  6
CONTINUOUS
 62
     7
 10
159.82498
 20
95.281906
 11
211.52498
 21
95.281906
  0
LINE
  8
0
  6
CONTINUOUS
 62
     7
 10
159.82498
 20
84.581909
 11
211.52498
 21
84.581909
  0
LINE
  8
0
  6
CONTINUOUS
 62
     7
 10
112.12498
 20
102.94191
 11
150.92499
 21
102.94191
  0
LINE
  8
0
  6
CONTINUOUS
 62
     7
 10
112.12498
 20
94.94191
 11
150.92499
 21
94.94191
  0
LINE
  8
0
  6
CONTINUOUS
 62
     7
 10
112.12498
 20
84.94191
 11
150.92499
 21
84.94191
  0
LINE
  8
0
  6
CONTINUOUS
 62
     7
 10
112.12498
 20
76.94191
 11
150.92499
 21
76.94191
  0
LINE
  8
0
  6
CONTINUOUS
 62
     7
 10
150.15498
 20
23.999992
 11
150.92499
 21
23.229994
  0
LINE
  8
0
  6
CONTINUOUS
 62
     7
 10
159.82498
 20
15
 11
211.52498
 21
15
  0
LINE
  8
0
  6
DASHED
 62
     7
 10
69.274994
 20
9.6999969
 11
69.274994
 21
0
  0
LINE
  8
0
  6
DASHED
 62
     7
 10
67.774994
 20
15
 11
67.774994
 21
9.6999969
  0
LINE
  8
0
  6
DASHED
 62
     7
 10
73.774994
 20
9.6999969
 11
73.774994
 21
0
  0
LINE
  8
0
  6
DASHED
 62
     7
 10
67.774994
 20
9.6999969
 11
75.274994
 21
9.6999969
  0
LINE
  8
0
  6
DASHED
 62
     7
 10
75.274994
 20
15
 11
75.274994
 21
9.6999969
  0
LINE
  8
0
  6
CONTINUOUS
 62
     7
 10
159.82498
 20
12.849991
 11
211.52498
 21
12.849991
  0
LINE
  8
0
  6
CONTINUOUS
 62
     7
 10
159.82498
 20
11.539993
 11
211.52498
 21
11.539993
  0
LINE
  8
0
  6
CONTINUOUS
 62
     7
 10
159.82498
 20
8.8399963
 11
211.52498
 21
8.8399963
  0
LINE
  8
0
  6
CONTINUOUS
 62
     7
 10
159.82498
 20
6.8999939
 11
211.52498
 21
6.8999939
  0
LINE
  8
0
  6
CENTER
 62
     7
 10
131.52498
 20
9.9185944
 11
131.52498
 21
-2.4767609
  0
LINE
  8
0
  6
CENTER
 62
     7
 10
71.524994
 20
17.822556
 11
71.524994
 21
-2.3465576
  0
LINE
  8
0
  6
CONTINUOUS
 62
     7
 10
51.524994
 20
15
 11
51.524994
 21
0
  0
LINE
  8
0
  6
CONTINUOUS
 62
     7
 10
51.524994
 20
4.1999969
 11
211.52498
 21
4.1999969
  0
LINE
  8
0
  6
CONTINUOUS
 62
     7
 10
51.524994
 20
8.8399963
 11
103.22498
 21
8.8399963
  0
LINE
  8
0
  6
CONTINUOUS
 62
     7
 10
51.524994
 20
6.8999939
 11
103.22498
 21
6.8999939
  0
LINE
  8
0
  6
CONTINUOUS
 62
     7
 10
51.524994
 20
11.539993
 11
103.22498
 21
11.539993
  0
LINE
  8
0
  6
CONTINUOUS
 62
     7
 10
51.524994
 20
12.849991
 11
103.22498
 21
12.849991
  0
LINE
  8
0
  6
CONTINUOUS
 62
     7
 10
51.524994
 20
15
 11
103.22498
 21
15
  0
LINE
  8
0
  6
CONTINUOUS
 62
     7
 10
51.524994
 20
0.69999695
 11
211.52498
 21
0.69999695
  0
LINE
  8
0
  6
CONTINUOUS
 62
     7
 10
51.524994
 20
0
 11
211.52498
 21
0
  0
LINE
  8
0
  6
CONTINUOUS
 62
     7
 10
-23.5
 20
23.139984
 11
-23.5
 21
17
  0
LINE
  8
0
  6
CONTINUOUS
 62
     7
 10
7.5000186
 20
0.70001131
 11
6.8000221
 21
1.4886266E-005
  0
LINE
  8
0
  6
CONTINUOUS
 62
     7
 10
-7.4999766
 20
0.69999409
 11
-6.7999907
 21
8.4799467E-006
  0
LINE
  8
0
  6
CONTINUOUS
 62
     7
 10
4.8000183
 20
8.8399963
 11
4.8000183
 21
6.8999939
  0
LINE
  8
0
  6
CONTINUOUS
 62
     7
 10
5.3500247
 20
14.999995
 11
5.7559724
 21
14.594048
  0
LINE
  8
0
  6
CONTINUOUS
 62
     7
 10
-7.5
 20
4.1999969
 11
-7.5
 21
0.69999695
  0
LINE
  8
0
  6
CONTINUOUS
 62
     7
 10
-7.0815287
 20
13.268438
 11
-7.4999704
 21
12.849997
  0
LINE
  8
0
  6
CONTINUOUS
 62
     7
 10
-7.4999814
 20
11.54
 11
-7.0942926
 21
11.134311
  0
LINE
  8
0
  6
CONTINUOUS
 62
     7
 10
7.5000343
 20
4.1999903
 11
4.800025
 21
6.8999996
  0
LINE
  8
0
  6
CONTINUOUS
 62
     7
 10
-4.7999878
 20
8.8399963
 11
-4.7999878
 21
6.8999939
  0
LINE
  8
0
  6
CONTINUOUS
 62
     7
 10
-5.3499718
 20
14.999995
 11
-5.7559085
 21
14.594059
  0
LINE
  8
0
  6
CONTINUOUS
 62
     7
 10
-5.7541604
 20
9.794179
 11
-4.7999721
 21
8.8399906
  0
LINE
  8
0
  6
CONTINUOUS
 62
     7
 10
-7.4999814
 20
4.2000122
 11
-4.799983
 21
6.9000106
  0
LINE
  8
0
  6
CONTINUOUS
 62
     7
 10
7.5
 20
4.1999969
 11
7.5
 21
0.69999695
  0
LINE
  8
0
  6
CONTINUOUS
 62
     7
 10
-7.5
 20
12.849991
 11
-7.5
 21
11.539993
  0
LINE
  8
0
  6
CENTER
 62
     7
 10
0
 20
26.387451
 11
0
 21
-1.2505035
  0
LINE
  8
0
  6
CONTINUOUS
 62
     7
 10
7.5000234
 20
11.54001
 11
7.0943346
 21
11.134321
  0
LINE
  8
0
  6
CONTINUOUS
 62
     7
 10
7.0815816
 20
13.268438
 11
7.5000234
 21
12.849997
  0
LINE
  8
0
  6
CENTER
 62
     7
 10
-19
 20
26.619904
 11
-19
 21
11.260605
  0
LINE
  8
0
  6
CONTINUOUS
 62
     7
 10
-6.6999817
 20
8.1887207
 11
-6.6999817
 21
7.811264
  0
LINE
  8
0
  6
CONTINUOUS
 62
     7
 10
112.12498
 20
4.6999969
 11
103.22498
 21
4.6999969
  0
LINE
  8
0
  6
CONTINUOUS
 62
     7
 10
14.500031
 20
4.6999969
 11
11.600006
 21
4.6999969
  0
LINE
  8
0
  6
CONTINUOUS
 62
     7
 10
112.12498
 20
23.5
 11
103.22498
 21
23.5
  0
LINE
  8
0
  6
CENTER
 62
     7
 10
19
 20
26.619904
 11
19
 21
11.260605
  0
LINE
  8
0
  6
CONTINUOUS
 62
     7
 10
112.89499
 20
24
 11
150.15498
 21
24
  0
LINE
  8
0
  6
CONTINUOUS
 62
     7
 10
-22.639954
 20
24
 11
-13.380005
 21
24
  0
LINE
  8
0
  6
CONTINUOUS
 62
     7
 10
-4.6400146
 20
24
 11
4.6199951
 21
24
  0
LINE
  8
0
  6
CONTINUOUS
 62
     7
 10
-23.50001
 20
16.999998
 11
-22.990007
 21
16.489996
  0
LINE
  8
0
  6
CONTINUOUS
 62
     7
 10
22.98999
 20
16.48999
 11
22.98999
 21
14
  0
LINE
  8
0
  6
CONTINUOUS
 62
     7
 10
100.72498
 20
16.699997
 11
101.72498
 21
16.699997
  0
LINE
  8
0
  6
CONTINUOUS
 62
     7
 10
15
 20
5.2000103
 11
14.499999
 21
4.7000098
  0
LINE
  8
0
  6
CONTINUOUS
 62
     7
 10
5.7542024
 20
9.7941895
 11
4.800014
 21
8.8400011
  0
LINE
  8
0
  6
CONTINUOUS
 62
     7
 10
-9.3112411
 20
5.2000022
 11
-6.6999764
 21
7.8112674
  0
LINE
  8
0
  6
CONTINUOUS
 62
     7
 10
9.5000362
 20
10.988716
 11
6.7000399
 21
8.1887197
  0
LINE
  8
0
  6
CONTINUOUS
 62
     7
 10
2.602417
 20
17
 11
6.0362854
 21
17
  0
LINE
  8
0
  6
CONTINUOUS
 62
     7
 10
-5.3499756
 20
15
 11
5.3500061
 21
15
  0
LINE
  8
0
  6
CONTINUOUS
 62
     7
 10
-14.5
 20
4.6999969
 11
-11.599976
 21
4.6999969
  0
LINE
  8
0
  6
CONTINUOUS
 62
     7
 10
9.3113155
 20
5.1999807
 11
6.7000399
 21
7.8112564
  0
LINE
  8
0
  6
CENTER
 62
     7
 10
13.972778
 20
21.5
 11
10.817017
 21
21.5
  0
LINE
  8
0
  6
DASHED
 62
     7
 10
-2.25
 20
9.6999969
 11
-2.25
 21
0
  0
LINE
  8
0
  6
CONTINUOUS
 62
     7
 10
-15.999965
 20
6.1999779
 11
-14.999963
 21
5.1999769
  0
LINE
  8
0
  6
CENTER
 62
     7
 10
12.500031
 20
22.923813
 11
12.500031
 21
19.716309
  0
LINE
  8
0
  6
CONTINUOUS
 62
     7
 10
100.72498
 20
22.699997
 11
101.72498
 21
22.699997
  0
LINE
  8
0
  6
CONTINUOUS
 62
     7
 10
-14.5
 20
23.5
 11
14.5
 21
23.5
  0
LINE
  8
0
  6
CONTINUOUS
 62
     7
 10
-15
 20
5.1999969
 11
-6.5
 21
5.1999969
  0
LINE
  8
0
  6
CONTINUOUS
 62
     7
 10
-14.999963
 20
5.1999769
 11
-14.499973
 21
4.6999874
  0
LINE
  8
0
  6
CONTINUOUS
 62
     7
 10
-6.7999878
 20
0
 11
6.8000183
 21
0
  0
LINE
  8
0
  6
CONTINUOUS
 62
     7
 10
-6.0362549
 20
17
 11
-2.6023865
 21
17
  0
LINE
  8
0
  6
CONTINUOUS
 62
     7
 10
9.5000257
 20
13.536258
 11
6.0363073
 21
16.999975
  0
LINE
  8
0
  6
CONTINUOUS
 62
     7
 10
-9.4999733
 20
13.536259
 11
-6.0362444
 21
16.999989
  0
LINE
  8
0
  6
CENTER
 62
     7
 10
-13.972748
 20
21.5
 11
-10.816986
 21
21.5
  0
LINE
  8
0
  6
CENTER
 62
     7
 10
-12.5
 20
22.923813
 11
-12.5
 21
19.716309
  0
LINE
  8
0
  6
CONTINUOUS
 62
     7
 10
9.5
 20
13.53627
 11
9.5
 21
10.988724
  0
LINE
  8
0
  6
CONTINUOUS
 62
     7
 10
-9.5
 20
13.53627
 11
-9.5
 21
10.988724
  0
LINE
  8
0
  6
CONTINUOUS
 62
     7
 10
6.7000122
 20
8.1887207
 11
6.7000122
 21
7.811264
  0
LINE
  8
0
  6
CONTINUOUS
 62
     7
 10
16
 20
22
 11
16
 21
6.1999969
  0
LINE
  8
0
  6
CONTINUOUS
 62
     7
 10
15
 20
5.1999969
 11
6.5000305
 21
5.1999969
  0
LINE
  8
0
  6
CONTINUOUS
 62
     7
 10
100.72498
 20
22.699997
 11
100.72498
 21
16.699997
  0
LINE
  8
0
  6
CONTINUOUS
 62
     7
 10
-14.499973
 20
23.49999
 11
-15.999975
 21
21.999989
  0
LINE
  8
0
  6
CONTINUOUS
 62
     7
 10
7.5
 20
12.849991
 11
7.5
 21
11.539993
  0
LINE
  8
0
  6
CONTINUOUS
 62
     7
 10
16.000002
 20
6.2000113
 11
15
 21
5.2000103
  0
LINE
  8
0
  6
CONTINUOUS
 62
     7
 10
14.500022
 20
23.499992
 11
16.000013
 21
22.000002
  0
LINE
  8
0
  6
DASHED
 62
     7
 10
-3.75
 20
15
 11
-3.75
 21
9.6999969
  0
LINE
  8
0
  6
DASHED
 62
     7
 10
2.25
 20
9.6999969
 11
2.25
 21
0
  0
LINE
  8
0
  6
CONTINUOUS
 62
     7
 10
150.92499
 20
23.5
 11
159.82498
 21
23.5
  0
LINE
  8
0
  6
CONTINUOUS
 62
     7
 10
150.92499
 20
23.5
 11
150.92499
 21
4.6999969
  0
LINE
  8
0
  6
CONTINUOUS
 62
     7
 10
150.92499
 20
4.6999969
 11
159.82498
 21
4.6999969
  0
LINE
  8
0
  6
CONTINUOUS
 62
     7
 10
11.600006
 20
5.1999969
 11
11.600006
 21
4.6999969
  0
LINE
  8
0
  6
CONTINUOUS
 62
     7
 10
-11.599976
 20
5.1999969
 11
-11.599976
 21
4.6999969
  0
LINE
  8
0
  6
DASHED
 62
     7
 10
-3.75
 20
9.6999969
 11
3.75
 21
9.6999969
  0
LINE
  8
0
  6
DASHED
 62
     7
 10
3.75
 20
15
 11
3.75
 21
9.6999969
  0
LINE
  8
0
  6
CONTINUOUS
 62
     7
 10
103.22498
 20
23.5
 11
103.22498
 21
4.6999969
  0
LINE
  8
0
  6
CONTINUOUS
 62
     7
 10
159.82498
 20
23.5
 11
159.82498
 21
4.6999969
  0
LINE
  8
0
  6
CONTINUOUS
 62
     7
 10
23.5
 20
23.12001
 11
23.5
 21
17
  0
LINE
  8
0
  6
CONTINUOUS
 62
     7
 10
-13.01001
 20
23.62999
 11
-5.0100098
 21
23.62999
  0
LINE
  8
0
  6
CONTINUOUS
 62
     7
 10
-16.641508
 20
11.3473
 11
-15.999964
 21
7.7089238
  0
LINE
  8
0
  6
CONTINUOUS
 62
     7
 10
13.359985
 20
24
 11
22.620026
 21
24
  0
LINE
  8
0
  6
CONTINUOUS
 62
     7
 10
22.620022
 20
23.999992
 11
23.5
 21
23.120014
  0
LINE
  8
0
  6
CONTINUOUS
 62
     7
 10
-22.639967
 20
24.000002
 11
-23.499996
 21
23.139975
  0
LINE
  8
0
  6
CONTINUOUS
 62
     7
 10
18.591156
 20
13
 11
21.98999
 21
13
  0
LINE
  8
0
  6
CONTINUOUS
 62
     7
 10
4.9899902
 20
23.62999
 11
12.98999
 21
23.62999
  0
LINE
  8
0
  6
CONTINUOUS
 62
     7
 10
-21.98999
 20
13
 11
-18.611145
 21
13
  0
LINE
  8
0
  6
CONTINUOUS
 62
     7
 10
16.000002
 20
7.8223577
 11
16.621544
 21
11.347295
  0
LINE
  8
0
  6
CONTINUOUS
 62
     7
 10
-9.4999619
 20
10.988716
 11
-6.6999545
 21
8.1887093
  0
LINE
  8
0
  6
CONTINUOUS
 62
     7
 10
112.12498
 20
4.9299927
 11
150.92499
 21
4.9299927
  0
LINE
  8
0
  6
CONTINUOUS
 62
     7
 10
112.12498
 20
23.5
 11
112.12498
 21
4.6999969
  0
LINE
  8
0
  6
CONTINUOUS
 62
     7
 10
112.895
 20
23.999992
 11
112.12499
 21
23.229982
  0
LINE
  8
0
  6
CONTINUOUS
 62
     7
 10
101.72498
 20
23.449997
 11
101.72498
 21
15.949997
  0
LINE
  8
0
  6
CONTINUOUS
 62
     7
 10
101.72498
 20
15.949997
 11
103.22498
 21
15.949997
  0
LINE
  8
0
  6
CONTINUOUS
 62
     7
 10
101.72498
 20
23.449997
 11
103.22498
 21
23.449997
  0
LINE
  8
0
  6
CENTER
 62
     7
 10
96.224976
 20
19.699997
 11
104.07323
 21
19.699997
  0
LINE
  8
0
  6
CENTER
 62
     7
 10
-4.75
 20
19.699997
 11
4.75
 21
19.699997
  0
LINE
  8
0
  6
CONTINUOUS
 62
     7
 10
-13.380002
 20
24.00001
 11
-13.010005
 21
23.630013
  0
LINE
  8
0
  6
CONTINUOUS
 62
     7
 10
-5.0100069
 20
23.630001
 11
-4.6400051
 21
24.000004
  0
LINE
  8
0
  6
CONTINUOUS
 62
     7
 10
4.9899855
 20
23.630011
 11
4.6199889
 21
24.000008
  0
LINE
  8
0
  6
CONTINUOUS
 62
     7
 10
12.989986
 20
23.630018
 11
13.359983
 21
24.000013
  0
LINE
  8
0
  6
CONTINUOUS
 62
     7
 10
-22.98999
 20
16.48999
 11
-22.98999
 21
14
  0
LINE
  8
0
  6
CONTINUOUS
 62
     7
 10
22.990011
 20
16.48999
 11
23.500008
 21
16.999987
  0
LINE
  8
0
  6
CONTINUOUS
 62
     7
 10
211.52498
 20
15
 11
211.52498
 21
0
  0
LINE
  8
0
  6
CENTER
 62
     7
 10
191.52499
 20
17.822556
 11
191.52499
 21
-2.3465576
  0
LINE
  8
0
  6
CONTINUOUS
 62
     7
 10
100.72498
 20
92.9319
 11
101.72498
 21
92.9319
  0
LINE
  8
0
  6
CONTINUOUS
 62
     7
 10
100.72498
 20
86.9319
 11
101.72498
 21
86.9319
  0
LINE
  8
0
  6
CONTINUOUS
 62
     7
 10
100.72498
 20
92.9319
 11
100.72498
 21
86.9319
  0
LINE
  8
0
  6
CONTINUOUS
 62
     7
 10
101.72498
 20
93.6819
 11
103.22498
 21
93.6819
  0
LINE
  8
0
  6
CONTINUOUS
 62
     7
 10
101.72498
 20
86.1819
 11
103.22498
 21
86.1819
  0
LINE
  8
0
  6
CONTINUOUS
 62
     7
 10
101.72498
 20
93.6819
 11
101.72498
 21
86.1819
  0
LINE
  8
0
  6
CENTER
 62
     7
 10
146.52498
 20
26.489914
 11
146.52498
 21
2.9848328
  0
LINE
  8
0
  6
DASHED
 62
     7
 10
118.77498
 20
23.869507
 11
118.77498
 21
17
  0
LINE
  8
0
  6
DASHED
 62
     7
 10
114.27498
 20
23.869507
 11
114.27498
 21
17
  0
LINE
  8
0
  6
CONTINUOUS
 62
     7
 10
-16.709991
 20
17
 11
-16.709991
 21
11.676315
  0
LINE
  8
0
  6
DASHED
 62
     7
 10
-16.75
 20
24
 11
-16.75
 21
17
  0
LINE
  8
0
  6
CENTER
 62
     7
 10
116.52498
 20
26.489914
 11
116.52498
 21
2.9848328
  0
LINE
  8
0
  6
DASHED
 62
     7
 10
-21.25
 20
24
 11
-21.25
 21
17
  0
LINE
  8
0
  6
CONTINUOUS
 62
     7
 10
-16
 20
22
 11
-16
 21
6.1999969
  0
LINE
  8
0
  6
CONTINUOUS
 62
     7
 10
-23.5
 20
17
 11
-16.709991
 21
17
  0
LINE
  8
0
  6
DASHED
 62
     7
 10
-15
 20
17
 11
-15
 21
5.2000122
  0
LINE
  8
0
  6
DASHED
 62
     7
 10
-16.709991
 20
17
 11
-15
 21
17
  0
LINE
  8
0
  6
CONTINUOUS
 62
     7
 10
23.5
 20
17
 11
16.709991
 21
17
  0
LINE
  8
0
  6
CONTINUOUS
 62
     7
 10
16.709991
 20
17
 11
16.709991
 21
11.679153
  0
LINE
  8
0
  6
CONTINUOUS
 62
     7
 10
120.77498
 20
13
 11
142.27498
 21
13
  0
LINE
  8
0
  6
CONTINUOUS
 62
     7
 10
113.52602
 20
7.7571621
 11
112.92324
 21
11.67916
  0
LINE
  8
0
  6
CONTINUOUS
 62
     7
 10
120.77498
 20
17
 11
120.77498
 21
13
  0
LINE
  8
0
  6
CONTINUOUS
 62
     7
 10
120.07574
 20
11.347303
 11
119.52397
 21
7.7571635
  0
LINE
  8
0
  6
CONTINUOUS
 62
     7
 10
142.97423
 20
11.347303
 11
143.526
 21
7.7571635
  0
LINE
  8
0
  6
CONTINUOUS
 62
     7
 10
112.92352
 20
17
 11
112.92352
 21
11.679153
  0
LINE
  8
0
  6
CONTINUOUS
 62
     7
 10
149.52396
 20
7.7571621
 11
150.12672
 21
11.679154
  0
LINE
  8
0
  6
CONTINUOUS
 62
     7
 10
142.27498
 20
17
 11
142.27498
 21
13
  0
LINE
  8
0
  6
CONTINUOUS
 62
     7
 10
150.12643
 20
17
 11
150.12643
 21
11.679153
  0
LINE
  8
0
  6
CONTINUOUS
 62
     7
 10
112.12498
 20
17
 11
150.92499
 21
17
  0
LINE
  8
0
  6
CONTINUOUS
 62
     7
 10
120.77498
 20
16.48999
 11
142.27498
 21
16.48999
  0
LINE
  8
0
  6
CONTINUOUS
 62
     7
 10
112.12498
 20
11.679153
 11
112.92352
 21
11.679153
  0
LINE
  8
0
  6
CONTINUOUS
 62
     7
 10
150.12643
 20
11.679153
 11
150.92499
 21
11.679153
  0
CIRCLE
  8
0
  6
CONTINUOUS
 62
     7
 10
71.524994
 20
89.9319
 40
3.75
  0
CIRCLE
  8
0
  6
CONTINUOUS
 62
     7
 10
71.524994
 20
89.9319
 40
2.25
  0
ARC
  8
0
  6
CONTINUOUS
 62
     7
 10
7.3005066
 20
9.5879974
 40
1.5599999
 50
97.595029
 51
172.40497
  0
ARC
  8
0
  6
CONTINUOUS
 62
     7
 10
-7.3004761
 20
9.5879974
 40
1.5599999
 50
7.5950286
 51
82.404969
  0
ARC
  8
0
  6
CONTINUOUS
 62
     7
 10
7.3005066
 20
14.813004
 40
1.5599999
 50
188.06788
 51
261.93212
  0
ARC
  8
0
  6
CONTINUOUS
 62
     7
 10
-7.3004761
 20
14.813004
 40
1.5599999
 50
278.06789
 51
351.93212
  0
ARC
  8
0
  6
CONTINUOUS
 62
     7
 10
-18.611145
 20
11
 40
2
 50
10.000001
 51
90.000003
  0
ARC
  8
0
  6
CONTINUOUS
 62
     7
 10
18.591156
 20
11
 40
2
 50
90.000003
 51
169.99999
  0
CIRCLE
  8
0
  6
PHANTOM
 62
     7
 10
-12.5
 20
21.5
 40
0.82499999
  0
ARC
  8
0
  6
CONTINUOUS
 62
     7
 10
21.98999
 20
14
 40
1
 50
270
 51
0
  0
ARC
  8
0
  6
CONTINUOUS
 62
     7
 10
100.72498
 20
19.699997
 40
3
 50
89.999982
 51
269.99995
  0
CIRCLE
  8
0
  6
CONTINUOUS
 62
     7
 10
0
 20
19.699997
 40
3
  0
CIRCLE
  8
0
  6
CONTINUOUS
 62
     7
 10
0
 20
19.699997
 40
3.75
  0
ARC
  8
0
  6
CONTINUOUS
 62
     7
 10
-21.98999
 20
14
 40
1
 50
179.99999
 51
270
  0
ARC
  8
0
  6
CONTINUOUS
 62
     7
 10
100.72498
 20
89.9319
 40
3
 50
89.999982
 51
269.99995
  0
CIRCLE
  8
0
  6
CONTINUOUS
 62
     7
 10
116.52498
 20
70.9319
 40
2.25
  0
ARC
  8
0
  6
CONTINUOUS
 62
     7
 10
139.35788
 20
10.791504
 40
3.6588223
 50
8.7374239
 51
37.128891
  0
ARC
  8
0
  6
CONTINUOUS
 62
     7
 10
146.52498
 20
8.2180634
 40
3.0341861
 50
188.73742
 51
351.26258
  0
ARC
  8
0
  6
CONTINUOUS
 62
     7
 10
123.69209
 20
10.791504
 40
3.6588223
 50
142.87111
 51
171.26258
  0
ARC
  8
0
  6
CONTINUOUS
 62
     7
 10
116.52498
 20
8.2180634
 40
3.0341861
 50
188.73742
 51
351.26258
  0
TEXT
  8
0
  6
CONTINUOUS
 62
     7
 10
-1.2855
 20
-11.8
 40
3.5999999
 41
0.84738018
  1
ＨＳＲ１５Ｂ
  0
ENDSEC
  0
EOF
