  0
SECTION
  2
HEADER
  0
ENDSEC
  0
SECTION
  2
TABLES
  0
TABLE
  2
LTYPE
 70
    22
  0
LTYPE
  2
CONTINUOUS
 70
    64
  3
Solid line
 72
    65
 73
     0
 40
0.000000
  0
LTYPE
  2
DASHED
 70
    64
  3
__ __ __ __ __ __ __ __ __ __ __ __ __ __ __
 72
    65
 73
     2
 40
3.500000
 49
2.000000
 49
-1.500000
  0
LTYPE
  2
CENTER
 70
    64
  3
____ _ ____ _ ____ _ ____ _ ____ _ ____ _ ____
 72
    65
 73
     4
 40
17.500000
 49
13.000000
 49
-1.500000
 49
1.500000
 49
-1.500000
  0
LTYPE
  2
PHANTOM
 70
    64
  3
_____ _ _ _____ _ _ _____ _ _ _____ _ _ ____  
 72
    65
 73
     6
 40
15.500000
 49
8.000000
 49
-1.500000
 49
1.500000
 49
-1.500000
 49
1.500000
 49
-1.500000
  0
LTYPE
  2
DOT
 70
    64
  3
. . . . . . . . . . . . . . . . . . . . . . . .
 72
    65
 73
     2
 40
0.25
 49
0.0
 49
-0.25
  0
ENDTAB
  0
TABLE
  2
LAYER
 70
     1
  0
LAYER
  2
0
 70
     0
 62
     7
  6
CONTINUOUS
  0
ENDTAB
  0
TABLE
  2
STYLE
 70
     1
  0
STYLE
  2
STANDARD
 70
     0
 40
0.000000
 41
1.000000
 50
0.000000
 71
     0
 42
0.200000
  3
txt
  0
ENDTAB
  0
TABLE
  2
VIEW
 70
     0
  0
ENDTAB
  0
ENDSEC
  0
SECTION
  2
BLOCKS
  0
ENDSEC
  0
SECTION
  2
ENTITIES
  0
LINE
  8
0
  6
CONTINUOUS
 62
     7
 10
51.524994
 20
97.4319
 11
101.72498
 21
97.4319
  0
LINE
  8
0
  6
CONTINUOUS
 62
     7
 10
51.524994
 20
82.4319
 11
101.72498
 21
82.4319
  0
LINE
  8
0
  6
CONTINUOUS
 62
     7
 10
51.524994
 20
97.4319
 11
51.524994
 21
82.4319
  0
LINE
  8
0
  6
CONTINUOUS
 62
     7
 10
211.52498
 20
97.4319
 11
211.52498
 21
82.4319
  0
LINE
  8
0
  6
CENTER
 62
     7
 10
46.080292
 20
89.9319
 11
217.42342
 21
89.9319
  0
LINE
  8
0
  6
CONTINUOUS
 62
     7
 10
112.12498
 20
113.4319
 11
112.12498
 21
66.4319
  0
LINE
  8
0
  6
CONTINUOUS
 62
     7
 10
150.92499
 20
113.4319
 11
150.92499
 21
66.4319
  0
LINE
  8
0
  6
CONTINUOUS
 62
     7
 10
112.12498
 20
113.4319
 11
150.92499
 21
113.4319
  0
LINE
  8
0
  6
CONTINUOUS
 62
     7
 10
112.12498
 20
66.4319
 11
150.92499
 21
66.4319
  0
LINE
  8
0
  6
CENTER
 62
     7
 10
116.52498
 20
74.4319
 11
116.52498
 21
67.4319
  0
LINE
  8
0
  6
CENTER
 62
     7
 10
113.02498
 20
70.9319
 11
120.02498
 21
70.9319
  0
LINE
  8
0
  6
CENTER
 62
     7
 10
113.02498
 20
108.9319
 11
120.02498
 21
108.9319
  0
LINE
  8
0
  6
CENTER
 62
     7
 10
116.52498
 20
112.4319
 11
116.52498
 21
105.4319
  0
LINE
  8
0
  6
CENTER
 62
     7
 10
143.02498
 20
108.9319
 11
150.02498
 21
108.9319
  0
LINE
  8
0
  6
CENTER
 62
     7
 10
146.52498
 20
112.4319
 11
146.52498
 21
105.4319
  0
LINE
  8
0
  6
CENTER
 62
     7
 10
143.02498
 20
70.9319
 11
150.02498
 21
70.9319
  0
LINE
  8
0
  6
CENTER
 62
     7
 10
146.52498
 20
74.4319
 11
146.52498
 21
67.4319
  0
LINE
  8
0
  6
CONTINUOUS
 62
     7
 10
101.72498
 20
105.9319
 11
112.12498
 21
105.9319
  0
LINE
  8
0
  6
CONTINUOUS
 62
     7
 10
101.72498
 20
73.9319
 11
112.12498
 21
73.9319
  0
LINE
  8
0
  6
CONTINUOUS
 62
     7
 10
150.92499
 20
105.9319
 11
161.325
 21
105.9319
  0
LINE
  8
0
  6
CONTINUOUS
 62
     7
 10
150.92499
 20
73.9319
 11
161.325
 21
73.9319
  0
LINE
  8
0
  6
CONTINUOUS
 62
     7
 10
161.325
 20
97.4319
 11
211.52498
 21
97.4319
  0
LINE
  8
0
  6
CONTINUOUS
 62
     7
 10
161.325
 20
82.4319
 11
211.52498
 21
82.4319
  0
LINE
  8
0
  6
CENTER
 62
     7
 10
71.524994
 20
94.6819
 11
71.524994
 21
85.1819
  0
LINE
  8
0
  6
CENTER
 62
     7
 10
131.52498
 20
94.6819
 11
131.52498
 21
85.1819
  0
LINE
  8
0
  6
CENTER
 62
     7
 10
191.52498
 20
94.6819
 11
191.52498
 21
85.1819
  0
LINE
  8
0
  6
CONTINUOUS
 62
     7
 10
51.524994
 20
95.281906
 11
101.72498
 21
95.281906
  0
LINE
  8
0
  6
CONTINUOUS
 62
     7
 10
51.524994
 20
84.581909
 11
101.72498
 21
84.581909
  0
LINE
  8
0
  6
CONTINUOUS
 62
     7
 10
161.325
 20
95.281906
 11
211.52498
 21
95.281906
  0
LINE
  8
0
  6
CONTINUOUS
 62
     7
 10
161.325
 20
84.581909
 11
211.52498
 21
84.581909
  0
LINE
  8
0
  6
CONTINUOUS
 62
     7
 10
112.12498
 20
102.94191
 11
150.92499
 21
102.94191
  0
LINE
  8
0
  6
CONTINUOUS
 62
     7
 10
112.12498
 20
94.94191
 11
150.92499
 21
94.94191
  0
LINE
  8
0
  6
CONTINUOUS
 62
     7
 10
112.12498
 20
84.94191
 11
150.92499
 21
84.94191
  0
LINE
  8
0
  6
CONTINUOUS
 62
     7
 10
112.12498
 20
76.94191
 11
150.92499
 21
76.94191
  0
LINE
  8
0
  6
CONTINUOUS
 62
     7
 10
161.325
 20
15
 11
211.52498
 21
15
  0
LINE
  8
0
  6
CONTINUOUS
 62
     7
 10
161.325
 20
12.849991
 11
211.52498
 21
12.849991
  0
LINE
  8
0
  6
CONTINUOUS
 62
     7
 10
161.325
 20
11.539993
 11
211.52498
 21
11.539993
  0
LINE
  8
0
  6
CONTINUOUS
 62
     7
 10
161.325
 20
8.8399963
 11
211.52498
 21
8.8399963
  0
LINE
  8
0
  6
CONTINUOUS
 62
     7
 10
161.325
 20
6.8999939
 11
211.52498
 21
6.8999939
  0
LINE
  8
0
  6
CENTER
 62
     7
 10
131.52498
 20
9.9185944
 11
131.52498
 21
-2.4767609
  0
LINE
  8
0
  6
CENTER
 62
     7
 10
71.524994
 20
17.822556
 11
71.524994
 21
-2.3465576
  0
LINE
  8
0
  6
CONTINUOUS
 62
     7
 10
51.524994
 20
15
 11
51.524994
 21
0
  0
LINE
  8
0
  6
CONTINUOUS
 62
     7
 10
51.524994
 20
4.1999969
 11
211.52498
 21
4.1999969
  0
LINE
  8
0
  6
CONTINUOUS
 62
     7
 10
51.524994
 20
8.8399963
 11
101.72498
 21
8.8399963
  0
LINE
  8
0
  6
CONTINUOUS
 62
     7
 10
51.524994
 20
6.8999939
 11
101.72498
 21
6.8999939
  0
LINE
  8
0
  6
CONTINUOUS
 62
     7
 10
51.524994
 20
11.539993
 11
101.72498
 21
11.539993
  0
LINE
  8
0
  6
CONTINUOUS
 62
     7
 10
51.524994
 20
12.849991
 11
101.72498
 21
12.849991
  0
LINE
  8
0
  6
CONTINUOUS
 62
     7
 10
51.524994
 20
15
 11
101.72498
 21
15
  0
LINE
  8
0
  6
CONTINUOUS
 62
     7
 10
51.524994
 20
0.69999695
 11
211.52498
 21
0.69999695
  0
LINE
  8
0
  6
CONTINUOUS
 62
     7
 10
51.524994
 20
0
 11
211.52498
 21
0
  0
LINE
  8
0
  6
CONTINUOUS
 62
     7
 10
211.52498
 20
15
 11
211.52498
 21
0
  0
LINE
  8
0
  6
CENTER
 62
     7
 10
191.52499
 20
17.822556
 11
191.52499
 21
-2.3465576
  0
LINE
  8
0
  6
CONTINUOUS
 62
     7
 10
99.224983
 20
92.9319
 11
100.22498
 21
92.9319
  0
LINE
  8
0
  6
CONTINUOUS
 62
     7
 10
99.224983
 20
86.9319
 11
100.22498
 21
86.9319
  0
LINE
  8
0
  6
CONTINUOUS
 62
     7
 10
99.224983
 20
92.9319
 11
99.224983
 21
86.9319
  0
LINE
  8
0
  6
CONTINUOUS
 62
     7
 10
100.22498
 20
93.6819
 11
101.72498
 21
93.6819
  0
LINE
  8
0
  6
CONTINUOUS
 62
     7
 10
100.22498
 20
86.1819
 11
101.72498
 21
86.1819
  0
LINE
  8
0
  6
CONTINUOUS
 62
     7
 10
101.72498
 20
105.9319
 11
101.72498
 21
73.9319
  0
LINE
  8
0
  6
CONTINUOUS
 62
     7
 10
23.49999
 20
17.510464
 11
22.990011
 21
17.000483
  0
LINE
  8
0
  6
CONTINUOUS
 62
     7
 10
22.98999
 20
17.000498
 11
22.98999
 21
14.000498
  0
LINE
  8
0
  6
CONTINUOUS
 62
     7
 10
16
 20
7.8032765
 11
16.573919
 21
11.347799
  0
LINE
  8
0
  6
CONTINUOUS
 62
     7
 10
22.624987
 20
24.000498
 11
23.49999
 21
23.125494
  0
LINE
  8
0
  6
CONTINUOUS
 62
     7
 10
12.98999
 20
23.635498
 11
4.9899902
 21
23.635498
  0
LINE
  8
0
  6
CONTINUOUS
 62
     7
 10
13.355019
 20
24.000498
 11
12.99001
 21
23.63549
  0
LINE
  8
0
  6
CONTINUOUS
 62
     7
 10
7.5000186
 20
4.1999922
 11
4.8000093
 21
6.9000015
  0
LINE
  8
0
  6
CONTINUOUS
 62
     7
 10
4.9900022
 20
23.63549
 11
4.6249943
 21
24.000498
  0
LINE
  8
0
  6
CONTINUOUS
 62
     7
 10
112.12499
 20
23.505493
 11
101.72498
 21
23.505493
  0
LINE
  8
0
  6
CONTINUOUS
 62
     7
 10
112.12499
 20
4.7054901
 11
101.72498
 21
4.7054901
  0
LINE
  8
0
  6
CONTINUOUS
 62
     7
 10
5.7542071
 20
9.7941685
 11
4.8000202
 21
8.8399811
  0
LINE
  8
0
  6
CONTINUOUS
 62
     7
 10
5.7559552
 20
14.594049
 11
5.3500037
 21
15
  0
LINE
  8
0
  6
CONTINUOUS
 62
     7
 10
7.5000172
 20
11.539979
 11
7.0943289
 21
11.13429
  0
LINE
  8
0
  6
CONTINUOUS
 62
     7
 10
7.5
 20
12.849991
 11
7.5
 21
11.539993
  0
LINE
  8
0
  6
CONTINUOUS
 62
     7
 10
4.7999878
 20
8.8399963
 11
4.7999878
 21
6.8999939
  0
LINE
  8
0
  6
CONTINUOUS
 62
     7
 10
-13.01001
 20
23.635498
 11
-5.0100098
 21
23.635498
  0
LINE
  8
0
  6
CONTINUOUS
 62
     7
 10
7.4999876
 20
0.99999505
 11
6.4999866
 21
-6.0059251E-006
  0
LINE
  8
0
  6
DASHED
 62
     7
 10
73.774994
 20
9.6499939
 11
73.774994
 21
0
  0
LINE
  8
0
  6
DASHED
 62
     7
 10
75.274994
 20
15
 11
75.274994
 21
9.6999998
  0
LINE
  8
0
  6
CONTINUOUS
 62
     7
 10
14.999996
 20
5.2055087
 11
14.494978
 21
4.7004905
  0
LINE
  8
0
  6
CONTINUOUS
 62
     7
 10
14.500007
 20
23.505478
 11
16
 21
22.005486
  0
LINE
  8
0
  6
CONTINUOUS
 62
     7
 10
16
 20
22.005486
 11
16
 21
6.2054901
  0
LINE
  8
0
  6
CONTINUOUS
 62
     7
 10
7.5
 20
12.854984
 11
7.5
 21
11.544987
  0
LINE
  8
0
  6
CONTINUOUS
 62
     7
 10
158.825
 20
23.505493
 11
158.825
 21
4.7054901
  0
LINE
  8
0
  6
CONTINUOUS
 62
     7
 10
150.92499
 20
23.505493
 11
161.325
 21
23.505493
  0
LINE
  8
0
  6
CONTINUOUS
 62
     7
 10
21.98999
 20
13.000498
 11
18.543549
 21
13.000498
  0
LINE
  8
0
  6
CONTINUOUS
 62
     7
 10
104.22498
 20
23.505493
 11
104.22498
 21
4.7054901
  0
LINE
  8
0
  6
CONTINUOUS
 62
     7
 10
105.72498
 20
23.505493
 11
105.72498
 21
4.7054901
  0
LINE
  8
0
  6
CONTINUOUS
 62
     7
 10
11.600006
 20
5.2055054
 11
11.600006
 21
4.70049
  0
LINE
  8
0
  6
CONTINUOUS
 62
     7
 10
150.92499
 20
4.7054901
 11
161.325
 21
4.7054901
  0
LINE
  8
0
  6
CONTINUOUS
 62
     7
 10
101.72498
 20
23.505493
 11
101.72498
 21
4.7054901
  0
LINE
  8
0
  6
CONTINUOUS
 62
     7
 10
7.5000067
 20
12.849997
 11
7.0815649
 21
13.268439
  0
LINE
  8
0
  6
CONTINUOUS
 62
     7
 10
157.32498
 20
23.505493
 11
157.32498
 21
4.7054901
  0
LINE
  8
0
  6
CONTINUOUS
 62
     7
 10
161.325
 20
23.505493
 11
161.325
 21
4.7054901
  0
LINE
  8
0
  6
DASHED
 62
     7
 10
69.274994
 20
9.6499939
 11
69.274994
 21
0
  0
LINE
  8
0
  6
DASHED
 62
     7
 10
67.774994
 20
15
 11
67.774994
 21
9.6999998
  0
LINE
  8
0
  6
CONTINUOUS
 62
     7
 10
-7.4999866
 20
4.1999812
 11
-4.7999883
 21
6.8999796
  0
LINE
  8
0
  6
CONTINUOUS
 62
     7
 10
-7.50001
 20
1.0000085
 11
-6.5000086
 21
7.481065E-006
  0
LINE
  8
0
  6
CONTINUOUS
 62
     7
 10
-5.3499846
 20
15
 11
-5.7559352
 21
14.594049
  0
LINE
  8
0
  6
CONTINUOUS
 62
     7
 10
-7.0943089
 20
11.134313
 11
-7.4999976
 21
11.540001
  0
LINE
  8
0
  6
CONTINUOUS
 62
     7
 10
-4.7999883
 20
8.8399916
 11
-5.7541766
 21
9.7941799
  0
LINE
  8
0
  6
CONTINUOUS
 62
     7
 10
-7.0815558
 20
13.268429
 11
-7.4999976
 21
12.849987
  0
LINE
  8
0
  6
CONTINUOUS
 62
     7
 10
-7.5
 20
12.849991
 11
-7.5
 21
11.539993
  0
LINE
  8
0
  6
CONTINUOUS
 62
     7
 10
-4.8000183
 20
8.8399963
 11
-4.8000183
 21
6.8999939
  0
LINE
  8
0
  6
CONTINUOUS
 62
     7
 10
-7.5
 20
4.1999969
 11
-7.5
 21
1
  0
LINE
  8
0
  6
CONTINUOUS
 62
     7
 10
-13.375001
 20
24.000498
 11
-13.010006
 21
23.635502
  0
LINE
  8
0
  6
CONTINUOUS
 62
     7
 10
-5.0099874
 20
23.635468
 11
-4.6449575
 21
24.000498
  0
LINE
  8
0
  6
CONTINUOUS
 62
     7
 10
-22.645006
 20
24.000498
 11
-23.499989
 21
23.145515
  0
LINE
  8
0
  6
CONTINUOUS
 62
     7
 10
-22.01001
 20
13.000498
 11
-18.634094
 21
13.000498
  0
LINE
  8
0
  6
CONTINUOUS
 62
     7
 10
-23.01001
 20
17.0005
 11
-23.01001
 21
14.000498
  0
LINE
  8
0
  6
CENTER
 62
     7
 10
0
 20
25.950607
 11
0
 21
-2.2039032
  0
LINE
  8
0
  6
CONTINUOUS
 62
     7
 10
-23.49999
 20
17.490479
 11
-23.009995
 21
17.000484
  0
LINE
  8
0
  6
CENTER
 62
     7
 10
-19
 20
25.950607
 11
-19
 21
10.476883
  0
LINE
  8
0
  6
CONTINUOUS
 62
     7
 10
6.4995117
 20
5.2054901
 11
15
 21
5.2054901
  0
LINE
  8
0
  6
CONTINUOUS
 62
     7
 10
16.000008
 20
6.2054772
 11
15.000007
 21
5.2054763
  0
LINE
  8
0
  6
CENTER
 62
     7
 10
19
 20
25.950607
 11
19
 21
10.476883
  0
LINE
  8
0
  6
CONTINUOUS
 62
     7
 10
-6.5
 20
0
 11
6.5
 21
0
  0
LINE
  8
0
  6
CONTINUOUS
 62
     7
 10
7.5
 20
4.1999969
 11
7.5
 21
0.99998474
  0
LINE
  8
0
  6
CONTINUOUS
 62
     7
 10
-5.3499846
 20
15
 11
5.3500037
 21
15
  0
LINE
  8
0
  6
CENTER
 62
     7
 10
10.299988
 20
21.50099
 11
14.700012
 21
21.50099
  0
LINE
  8
0
  6
CENTER
 62
     7
 10
12.5
 20
23.700987
 11
12.5
 21
18.819715
  0
LINE
  8
0
  6
CONTINUOUS
 62
     7
 10
6.7999992
 20
7.7334208
 11
9.3279362
 21
5.2054839
  0
LINE
  8
0
  6
CONTINUOUS
 62
     7
 10
6.7999878
 20
8.0165596
 11
6.7999878
 21
7.7334137
  0
LINE
  8
0
  6
CONTINUOUS
 62
     7
 10
6.8000102
 20
8.016551
 11
9.5000086
 21
10.716549
  0
LINE
  8
0
  6
CONTINUOUS
 62
     7
 10
9.5
 20
13.683414
 11
9.5
 21
10.716564
  0
LINE
  8
0
  6
CONTINUOUS
 62
     7
 10
6.178422
 20
17.004993
 11
9.4999981
 21
13.683417
  0
LINE
  8
0
  6
CONTINUOUS
 62
     7
 10
2.6070628
 20
17.00499
 11
6.1784363
 21
17.00499
  0
LINE
  8
0
  6
CONTINUOUS
 62
     7
 10
-16
 20
7.5792952
 11
-16.665546
 21
11.353802
  0
LINE
  8
0
  6
CONTINUOUS
 62
     7
 10
-2.6070628
 20
17.00499
 11
-6.1784363
 21
17.00499
  0
LINE
  8
0
  6
CONTINUOUS
 62
     7
 10
-6.1784234
 20
17.004995
 11
-9.5
 21
13.683418
  0
LINE
  8
0
  6
CONTINUOUS
 62
     7
 10
-9.5
 20
13.683414
 11
-9.5
 21
10.716564
  0
LINE
  8
0
  6
CONTINUOUS
 62
     7
 10
-6.8000116
 20
8.016552
 11
-9.5000105
 21
10.71655
  0
LINE
  8
0
  6
CONTINUOUS
 62
     7
 10
-6.7999878
 20
8.0165596
 11
-6.7999878
 21
7.7334137
  0
LINE
  8
0
  6
CONTINUOUS
 62
     7
 10
-6.8000011
 20
7.7334218
 11
-9.3279381
 21
5.2054849
  0
LINE
  8
0
  6
CONTINUOUS
 62
     7
 10
-6.4995117
 20
5.2054901
 11
-15
 21
5.2054901
  0
LINE
  8
0
  6
CONTINUOUS
 62
     7
 10
14.499991
 20
23.505493
 11
-14.5
 21
23.505493
  0
LINE
  8
0
  6
CONTINUOUS
 62
     7
 10
-16
 20
22.005489
 11
-16
 21
6.2054901
  0
LINE
  8
0
  6
CONTINUOUS
 62
     7
 10
-14.499991
 20
23.505493
 11
-16
 21
22.005486
  0
LINE
  8
0
  6
CONTINUOUS
 62
     7
 10
-16.000008
 20
6.2054758
 11
-15.000006
 21
5.2054749
  0
LINE
  8
0
  6
CONTINUOUS
 62
     7
 10
-11.600006
 20
5.2055054
 11
-11.600006
 21
4.70049
  0
LINE
  8
0
  6
CONTINUOUS
 62
     7
 10
-14.999995
 20
5.2055073
 11
-14.494978
 21
4.70049
  0
LINE
  8
0
  6
CENTER
 62
     7
 10
-12.5
 20
23.700987
 11
-12.5
 21
18.819715
  0
LINE
  8
0
  6
CENTER
 62
     7
 10
-10.299988
 20
21.50099
 11
-14.700012
 21
21.50099
  0
LINE
  8
0
  6
CENTER
 62
     7
 10
94.724983
 20
19.700499
 11
102.57323
 21
19.700499
  0
LINE
  8
0
  6
CONTINUOUS
 62
     7
 10
100.22498
 20
23.450499
 11
101.72498
 21
23.450499
  0
LINE
  8
0
  6
CONTINUOUS
 62
     7
 10
100.22498
 20
15.950498
 11
101.72498
 21
15.950498
  0
LINE
  8
0
  6
CONTINUOUS
 62
     7
 10
100.22498
 20
23.450499
 11
100.22498
 21
15.950498
  0
LINE
  8
0
  6
CONTINUOUS
 62
     7
 10
99.224983
 20
22.700499
 11
99.224983
 21
16.700499
  0
LINE
  8
0
  6
CONTINUOUS
 62
     7
 10
99.224983
 20
22.700499
 11
100.22498
 21
22.700499
  0
LINE
  8
0
  6
CONTINUOUS
 62
     7
 10
99.224983
 20
16.700499
 11
100.22498
 21
16.700499
  0
LINE
  8
0
  6
CONTINUOUS
 62
     7
 10
105.72498
 20
105.9319
 11
105.72498
 21
73.9319
  0
LINE
  8
0
  6
CONTINUOUS
 62
     7
 10
104.22498
 20
105.9319
 11
104.22498
 21
73.9319
  0
LINE
  8
0
  6
CONTINUOUS
 62
     7
 10
100.22499
 20
93.6819
 11
100.22499
 21
86.1819
  0
LINE
  8
0
  6
CONTINUOUS
 62
     7
 10
157.32498
 20
105.9319
 11
157.32498
 21
73.9319
  0
LINE
  8
0
  6
CONTINUOUS
 62
     7
 10
158.825
 20
105.9319
 11
158.825
 21
73.9319
  0
LINE
  8
0
  6
CONTINUOUS
 62
     7
 10
161.325
 20
105.9319
 11
161.325
 21
73.9319
  0
LINE
  8
0
  6
CONTINUOUS
 62
     7
 10
6.2999878
 20
8.2236671
 11
6.2999878
 21
7.5263062
  0
LINE
  8
0
  6
CONTINUOUS
 62
     7
 10
6.3000107
 20
8.2236576
 11
9.0000095
 21
10.923656
  0
LINE
  8
0
  6
CONTINUOUS
 62
     7
 10
1.962467
 20
16.50499
 11
5.9713135
 21
16.50499
  0
LINE
  8
0
  6
CONTINUOUS
 62
     7
 10
5.9713273
 20
16.504982
 11
9.0000095
 21
13.476301
  0
LINE
  8
0
  6
CONTINUOUS
 62
     7
 10
9
 20
13.476307
 11
9
 21
10.923664
  0
LINE
  8
0
  6
CONTINUOUS
 62
     7
 10
6.3000107
 20
7.5263042
 11
8.6208305
 21
5.2054844
  0
LINE
  8
0
  6
CENTER
 62
     7
 10
6.29
 20
19.700491
 11
-6.29
 21
19.700491
  0
LINE
  8
0
  6
CONTINUOUS
 62
     7
 10
-6.3000107
 20
7.5263042
 11
-8.6208305
 21
5.2054844
  0
LINE
  8
0
  6
CONTINUOUS
 62
     7
 10
-9
 20
13.476307
 11
-9
 21
10.923664
  0
LINE
  8
0
  6
CONTINUOUS
 62
     7
 10
-5.9713273
 20
16.504982
 11
-9.0000095
 21
13.476301
  0
LINE
  8
0
  6
CONTINUOUS
 62
     7
 10
-1.962467
 20
16.50499
 11
-5.9713135
 21
16.50499
  0
LINE
  8
0
  6
CONTINUOUS
 62
     7
 10
-6.3000107
 20
8.2236576
 11
-9.0000095
 21
10.923656
  0
LINE
  8
0
  6
CONTINUOUS
 62
     7
 10
-6.2999878
 20
8.2236671
 11
-6.2999878
 21
7.5263062
  0
LINE
  8
0
  6
CONTINUOUS
 62
     7
 10
22.98999
 20
17.000502
 11
16.48999
 21
17.000502
  0
LINE
  8
0
  6
CONTINUOUS
 62
     7
 10
16.48999
 20
17.000502
 11
16.48999
 21
10.829416
  0
LINE
  8
0
  6
DASHED
 62
     7
 10
-15
 20
17.000502
 11
-15
 21
5.2054901
  0
LINE
  8
0
  6
DASHED
 62
     7
 10
-21.25
 20
24.000498
 11
-21.25
 21
17.000502
  0
LINE
  8
0
  6
CONTINUOUS
 62
     7
 10
150.60526
 20
10.949429
 11
150.92499
 21
10.949429
  0
LINE
  8
0
  6
DASHED
 62
     7
 10
114.275
 20
24.010498
 11
114.275
 21
17.000498
  0
LINE
  8
0
  6
DASHED
 62
     7
 10
118.775
 20
24.010498
 11
118.775
 21
17.000498
  0
LINE
  8
0
  6
CONTINUOUS
 62
     7
 10
112.12498
 20
10.949429
 11
112.46586
 21
10.949429
  0
LINE
  8
0
  6
CENTER
 62
     7
 10
116.525
 20
25.950607
 11
116.525
 21
11.803982
  0
LINE
  8
0
  6
CONTINUOUS
 62
     7
 10
150.15999
 20
24.0005
 11
150.92499
 21
23.235502
  0
LINE
  8
0
  6
CONTINUOUS
 62
     7
 10
142.19998
 20
17.000498
 11
142.19998
 21
13.000498
  0
LINE
  8
0
  6
CENTER
 62
     7
 10
146.52499
 20
25.950607
 11
146.52499
 21
11.803982
  0
LINE
  8
0
  6
CONTINUOUS
 62
     7
 10
120.84998
 20
17.000498
 11
120.84998
 21
13.000498
  0
LINE
  8
0
  6
CONTINUOUS
 62
     7
 10
150.92499
 20
23.505493
 11
150.92499
 21
4.7054901
  0
LINE
  8
0
  6
CONTINUOUS
 62
     7
 10
112.12498
 20
4.9355011
 11
150.92499
 21
4.9355011
  0
LINE
  8
0
  6
CONTINUOUS
 62
     7
 10
112.12499
 20
23.505493
 11
112.12499
 21
4.7054901
  0
LINE
  8
0
  6
CONTINUOUS
 62
     7
 10
112.89002
 20
24.0005
 11
112.12501
 21
23.235485
  0
LINE
  8
0
  6
DASHED
 62
     7
 10
-16.75
 20
24.000498
 11
-16.75
 21
17.000502
  0
LINE
  8
0
  6
CONTINUOUS
 62
     7
 10
-16.48999
 20
17.000502
 11
-16.48999
 21
10.358168
  0
LINE
  8
0
  6
CONTINUOUS
 62
     7
 10
-23.01001
 20
17.000502
 11
-16.48999
 21
17.000502
  0
LINE
  8
0
  6
DASHED
 62
     7
 10
-16.48999
 20
17.000502
 11
-15
 21
17.000502
  0
LINE
  8
0
  6
CONTINUOUS
 62
     7
 10
112.89001
 20
24.000498
 11
150.16
 21
24.000498
  0
LINE
  8
0
  6
CONTINUOUS
 62
     7
 10
-23.499989
 20
23.145515
 11
-23.499989
 21
17.490479
  0
LINE
  8
0
  6
CONTINUOUS
 62
     7
 10
23.49999
 20
23.125494
 11
23.49999
 21
17.510462
  0
LINE
  8
0
  6
CONTINUOUS
 62
     7
 10
13.355019
 20
24.000498
 11
22.624987
 21
24.000498
  0
LINE
  8
0
  6
CONTINUOUS
 62
     7
 10
-4.6449575
 20
24.000498
 11
4.6249943
 21
24.000498
  0
LINE
  8
0
  6
CONTINUOUS
 62
     7
 10
-22.645006
 20
24.000498
 11
-13.375002
 21
24.000498
  0
LINE
  8
0
  6
CONTINUOUS
 62
     7
 10
14.494978
 20
4.70049
 11
11.600006
 21
4.70049
  0
LINE
  8
0
  6
CONTINUOUS
 62
     7
 10
-14.494978
 20
4.70049
 11
-11.600006
 21
4.70049
  0
LINE
  8
0
  6
CONTINUOUS
 62
     7
 10
120.77482
 20
13.000498
 11
142.27513
 21
13.000498
  0
LINE
  8
0
  6
CONTINUOUS
 62
     7
 10
112.12499
 20
17.000498
 11
150.92499
 21
17.000498
  0
LINE
  8
0
  6
CONTINUOUS
 62
     7
 10
112.12499
 20
17.510464
 11
150.92499
 21
17.510464
  0
LINE
  8
0
  6
DASHED
 62
     7
 10
67.774994
 20
9.6999998
 11
75.274994
 21
9.6999998
  0
LINE
  8
0
  6
DASHED
 62
     7
 10
-3.75
 20
15
 11
-3.75
 21
9.6999998
  0
LINE
  8
0
  6
DASHED
 62
     7
 10
-2.25
 20
9.6499939
 11
-2.25
 21
0
  0
LINE
  8
0
  6
DASHED
 62
     7
 10
3.75
 20
15
 11
3.75
 21
9.6999998
  0
LINE
  8
0
  6
DASHED
 62
     7
 10
-3.75
 20
9.6999998
 11
3.75
 21
9.6999998
  0
LINE
  8
0
  6
DASHED
 62
     7
 10
2.25
 20
9.6499939
 11
2.25
 21
0
  0
CIRCLE
  8
0
  6
CONTINUOUS
 62
     7
 10
71.524994
 20
89.9319
 40
3.75
  0
CIRCLE
  8
0
  6
CONTINUOUS
 62
     7
 10
71.524994
 20
89.9319
 40
2.25
  0
ARC
  8
0
  6
CONTINUOUS
 62
     7
 10
99.224983
 20
89.9319
 40
3
 50
89.999982
 51
269.99995
  0
CIRCLE
  8
0
  6
CONTINUOUS
 62
     7
 10
0
 20
19.700491
 40
3.75
  0
ARC
  8
0
  6
CONTINUOUS
 62
     7
 10
-18.634094
 20
11.000498
 40
2
 50
10.000001
 51
90.000003
  0
ARC
  8
0
  6
CONTINUOUS
 62
     7
 10
-22.01001
 20
14.000498
 40
1
 50
179.99999
 51
270
  0
ARC
  8
0
  6
CONTINUOUS
 62
     7
 10
-7.3005066
 20
9.5879974
 40
1.5599999
 50
7.5950286
 51
82.404969
  0
ARC
  8
0
  6
CONTINUOUS
 62
     7
 10
-7.3005066
 20
14.813004
 40
1.5599999
 50
278.06778
 51
351.93223
  0
CIRCLE
  8
0
  6
CONTINUOUS
 62
     7
 10
0
 20
19.700491
 40
3
  0
ARC
  8
0
  6
CONTINUOUS
 62
     7
 10
18.543549
 20
11.000498
 40
2
 50
90.000003
 51
169.99999
  0
ARC
  8
0
  6
CONTINUOUS
 62
     7
 10
21.98999
 20
14.000498
 40
1
 50
270
 51
1.0177775E-013
  0
ARC
  8
0
  6
CONTINUOUS
 62
     7
 10
7.3005066
 20
14.813004
 40
1.5599999
 50
188.06777
 51
261.93223
  0
ARC
  8
0
  6
CONTINUOUS
 62
     7
 10
7.3005066
 20
9.5879974
 40
1.5599999
 50
97.595029
 51
172.40497
  0
CIRCLE
  8
0
  6
CONTINUOUS
 62
     7
 10
-12.5
 20
21.50099
 40
0.82499999
  0
ARC
  8
0
  6
CONTINUOUS
 62
     7
 10
99.224983
 20
19.700499
 40
3
 50
89.999982
 51
269.99995
  0
CIRCLE
  8
0
  6
CONTINUOUS
 62
     7
 10
116.52498
 20
70.9319
 40
2.25
  0
POLYLINE
  8
0
  6
CONTINUOUS
 62
     7
 66
     1
 10
0
 20
0
  0
VERTEX
  8
0
  6
CONTINUOUS
 62
     7
 10
150.60214
 20
10.948587
 42
-0.023590549
  0
VERTEX
  8
0
  6
CONTINUOUS
 62
     7
 10
150.26005
 20
9.5622043
 42
-0.030140128
  0
VERTEX
  8
0
  6
CONTINUOUS
 62
     7
 10
149.77712
 20
8.2198254
 42
-0.039585549
  0
VERTEX
  8
0
  6
CONTINUOUS
 62
     7
 10
149.11135
 20
6.9587037
 42
-0.067578289
  0
VERTEX
  8
0
  6
CONTINUOUS
 62
     7
 10
148.21744
 20
5.8509298
 42
-0.18065737
  0
VERTEX
  8
0
  6
CONTINUOUS
 62
     7
 10
146.92116
 20
5.3251916
 42
-0.091113548
  0
VERTEX
  8
0
  6
CONTINUOUS
 62
     7
 10
145.50694
 20
5.4435536
 42
-0.13947075
  0
VERTEX
  8
0
  6
CONTINUOUS
 62
     7
 10
144.3982
 20
6.3121235
 42
-0.043273403
  0
VERTEX
  8
0
  6
CONTINUOUS
 62
     7
 10
143.61596
 20
7.5044377
 42
-0.036985158
  0
VERTEX
  8
0
  6
CONTINUOUS
 62
     7
 10
143.03385
 20
8.8066537
 42
-0.028372815
  0
VERTEX
  8
0
  6
CONTINUOUS
 62
     7
 10
142.62691
 20
10.17384
 42
-0.027274005
  0
VERTEX
  8
0
  6
CONTINUOUS
 62
     7
 10
142.37072
 20
11.578318
 42
-0.029614205
  0
VERTEX
  8
0
  6
CONTINUOUS
 62
     7
 10
142.27512
 20
13.003127
 42
0
  0
SEQEND
  8
0
  0
POLYLINE
  8
0
  6
CONTINUOUS
 62
     7
 66
     1
 10
0
 20
0
  0
VERTEX
  8
0
  6
CONTINUOUS
 62
     7
 10
112.44781
 20
10.948587
 42
0.023590549
  0
VERTEX
  8
0
  6
CONTINUOUS
 62
     7
 10
112.78991
 20
9.5622043
 42
0.030140128
  0
VERTEX
  8
0
  6
CONTINUOUS
 62
     7
 10
113.27284
 20
8.2198254
 42
0.039585549
  0
VERTEX
  8
0
  6
CONTINUOUS
 62
     7
 10
113.93861
 20
6.9587037
 42
0.067578289
  0
VERTEX
  8
0
  6
CONTINUOUS
 62
     7
 10
114.83251
 20
5.8509298
 42
0.18065737
  0
VERTEX
  8
0
  6
CONTINUOUS
 62
     7
 10
116.1288
 20
5.3251916
 42
0.091113548
  0
VERTEX
  8
0
  6
CONTINUOUS
 62
     7
 10
117.54302
 20
5.4435536
 42
0.13947075
  0
VERTEX
  8
0
  6
CONTINUOUS
 62
     7
 10
118.65175
 20
6.3121235
 42
0.043273403
  0
VERTEX
  8
0
  6
CONTINUOUS
 62
     7
 10
119.434
 20
7.5044377
 42
0.036985158
  0
VERTEX
  8
0
  6
CONTINUOUS
 62
     7
 10
120.01611
 20
8.8066537
 42
0.028372815
  0
VERTEX
  8
0
  6
CONTINUOUS
 62
     7
 10
120.42304
 20
10.17384
 42
0.027274005
  0
VERTEX
  8
0
  6
CONTINUOUS
 62
     7
 10
120.67924
 20
11.578318
 42
0.029614205
  0
VERTEX
  8
0
  6
CONTINUOUS
 62
     7
 10
120.77484
 20
13.003127
 42
0
  0
SEQEND
  8
0
  0
TEXT
  8
0
  6
CONTINUOUS
 62
     7
 10
-1.2855
 20
-21.8
 40
3.5999999
 41
0.84554262
  1
ＨＳＲ１５Ｍ１Ｂ
  0
ENDSEC
  0
EOF
