  0
SECTION
  2
HEADER
  0
ENDSEC
  0
SECTION
  2
TABLES
  0
TABLE
  2
LTYPE
 70
    22
  0
LTYPE
  2
CONTINUOUS
 70
    64
  3
Solid line
 72
    65
 73
     0
 40
0.000000
  0
LTYPE
  2
DASHED
 70
    64
  3
__ __ __ __ __ __ __ __ __ __ __ __ __ __ __
 72
    65
 73
     2
 40
3.500000
 49
2.000000
 49
-1.500000
  0
LTYPE
  2
CENTER
 70
    64
  3
____ _ ____ _ ____ _ ____ _ ____ _ ____ _ ____
 72
    65
 73
     4
 40
17.500000
 49
13.000000
 49
-1.500000
 49
1.500000
 49
-1.500000
  0
LTYPE
  2
PHANTOM
 70
    64
  3
_____ _ _ _____ _ _ _____ _ _ _____ _ _ ____  
 72
    65
 73
     6
 40
15.500000
 49
8.000000
 49
-1.500000
 49
1.500000
 49
-1.500000
 49
1.500000
 49
-1.500000
  0
LTYPE
  2
DOT
 70
    64
  3
. . . . . . . . . . . . . . . . . . . . . . . .
 72
    65
 73
     2
 40
0.25
 49
0.0
 49
-0.25
  0
ENDTAB
  0
TABLE
  2
LAYER
 70
     1
  0
LAYER
  2
0
 70
     0
 62
     7
  6
CONTINUOUS
  0
ENDTAB
  0
TABLE
  2
STYLE
 70
     1
  0
STYLE
  2
STANDARD
 70
     0
 40
0.000000
 41
1.000000
 50
0.000000
 71
     0
 42
0.200000
  3
txt
  0
ENDTAB
  0
TABLE
  2
VIEW
 70
     0
  0
ENDTAB
  0
ENDSEC
  0
SECTION
  2
BLOCKS
  0
ENDSEC
  0
SECTION
  2
ENTITIES
  0
LINE
  8
0
  6
CONTINUOUS
 62
     7
 10
51.524994
 20
97.4319
 11
103.22498
 21
97.4319
  0
LINE
  8
0
  6
CONTINUOUS
 62
     7
 10
51.524994
 20
82.4319
 11
103.22498
 21
82.4319
  0
LINE
  8
0
  6
CONTINUOUS
 62
     7
 10
51.524994
 20
97.4319
 11
51.524994
 21
82.4319
  0
LINE
  8
0
  6
CONTINUOUS
 62
     7
 10
211.52498
 20
97.4319
 11
211.52498
 21
82.4319
  0
LINE
  8
0
  6
CENTER
 62
     7
 10
46.080292
 20
89.9319
 11
217.42342
 21
89.9319
  0
LINE
  8
0
  6
CONTINUOUS
 62
     7
 10
112.12498
 20
106.9319
 11
112.12498
 21
72.9319
  0
LINE
  8
0
  6
CONTINUOUS
 62
     7
 10
150.92499
 20
106.9319
 11
150.92499
 21
72.9319
  0
LINE
  8
0
  6
CONTINUOUS
 62
     7
 10
103.22498
 20
105.9319
 11
103.22498
 21
73.9319
  0
LINE
  8
0
  6
CONTINUOUS
 62
     7
 10
159.82498
 20
105.9319
 11
159.82498
 21
73.9319
  0
LINE
  8
0
  6
CONTINUOUS
 62
     7
 10
103.22498
 20
105.9319
 11
112.12498
 21
105.9319
  0
LINE
  8
0
  6
CONTINUOUS
 62
     7
 10
103.22498
 20
73.9319
 11
112.12498
 21
73.9319
  0
LINE
  8
0
  6
CONTINUOUS
 62
     7
 10
150.92499
 20
105.9319
 11
159.82498
 21
105.9319
  0
LINE
  8
0
  6
CONTINUOUS
 62
     7
 10
150.92499
 20
73.9319
 11
159.82498
 21
73.9319
  0
LINE
  8
0
  6
CONTINUOUS
 62
     7
 10
159.82498
 20
97.4319
 11
211.52498
 21
97.4319
  0
LINE
  8
0
  6
CONTINUOUS
 62
     7
 10
159.82498
 20
82.4319
 11
211.52498
 21
82.4319
  0
LINE
  8
0
  6
CENTER
 62
     7
 10
71.524994
 20
94.6819
 11
71.524994
 21
85.1819
  0
LINE
  8
0
  6
CENTER
 62
     7
 10
131.52498
 20
94.6819
 11
131.52498
 21
85.1819
  0
LINE
  8
0
  6
CENTER
 62
     7
 10
191.52498
 20
94.6819
 11
191.52498
 21
85.1819
  0
LINE
  8
0
  6
CONTINUOUS
 62
     7
 10
51.524994
 20
95.281906
 11
103.22498
 21
95.281906
  0
LINE
  8
0
  6
CONTINUOUS
 62
     7
 10
51.524994
 20
84.581909
 11
103.22498
 21
84.581909
  0
LINE
  8
0
  6
CONTINUOUS
 62
     7
 10
159.82498
 20
95.281906
 11
211.52498
 21
95.281906
  0
LINE
  8
0
  6
CONTINUOUS
 62
     7
 10
159.82498
 20
84.581909
 11
211.52498
 21
84.581909
  0
LINE
  8
0
  6
CONTINUOUS
 62
     7
 10
159.82498
 20
15
 11
211.52498
 21
15
  0
LINE
  8
0
  6
DASHED
 62
     7
 10
69.274994
 20
9.6999969
 11
69.274994
 21
0
  0
LINE
  8
0
  6
DASHED
 62
     7
 10
67.774994
 20
15
 11
67.774994
 21
9.6999969
  0
LINE
  8
0
  6
DASHED
 62
     7
 10
73.774994
 20
9.6999969
 11
73.774994
 21
0
  0
LINE
  8
0
  6
DASHED
 62
     7
 10
67.774994
 20
9.6999969
 11
75.274994
 21
9.6999969
  0
LINE
  8
0
  6
DASHED
 62
     7
 10
75.274994
 20
15
 11
75.274994
 21
9.6999969
  0
LINE
  8
0
  6
CONTINUOUS
 62
     7
 10
159.82498
 20
12.849991
 11
211.52498
 21
12.849991
  0
LINE
  8
0
  6
CONTINUOUS
 62
     7
 10
159.82498
 20
11.539993
 11
211.52498
 21
11.539993
  0
LINE
  8
0
  6
CONTINUOUS
 62
     7
 10
159.82498
 20
8.8399963
 11
211.52498
 21
8.8399963
  0
LINE
  8
0
  6
CONTINUOUS
 62
     7
 10
159.82498
 20
6.8999939
 11
211.52498
 21
6.8999939
  0
LINE
  8
0
  6
CENTER
 62
     7
 10
131.52498
 20
9.9185944
 11
131.52498
 21
-2.4767609
  0
LINE
  8
0
  6
CENTER
 62
     7
 10
71.524994
 20
17.822556
 11
71.524994
 21
-2.3465576
  0
LINE
  8
0
  6
CONTINUOUS
 62
     7
 10
51.524994
 20
15
 11
51.524994
 21
0
  0
LINE
  8
0
  6
CONTINUOUS
 62
     7
 10
51.524994
 20
4.1999969
 11
211.52498
 21
4.1999969
  0
LINE
  8
0
  6
CONTINUOUS
 62
     7
 10
51.524994
 20
8.8399963
 11
103.22498
 21
8.8399963
  0
LINE
  8
0
  6
CONTINUOUS
 62
     7
 10
51.524994
 20
6.8999939
 11
103.22498
 21
6.8999939
  0
LINE
  8
0
  6
CONTINUOUS
 62
     7
 10
51.524994
 20
11.539993
 11
103.22498
 21
11.539993
  0
LINE
  8
0
  6
CONTINUOUS
 62
     7
 10
51.524994
 20
12.849991
 11
103.22498
 21
12.849991
  0
LINE
  8
0
  6
CONTINUOUS
 62
     7
 10
51.524994
 20
15
 11
103.22498
 21
15
  0
LINE
  8
0
  6
CONTINUOUS
 62
     7
 10
51.524994
 20
0.69999695
 11
211.52498
 21
0.69999695
  0
LINE
  8
0
  6
CONTINUOUS
 62
     7
 10
51.524994
 20
0
 11
211.52498
 21
0
  0
LINE
  8
0
  6
CONTINUOUS
 62
     7
 10
112.12498
 20
4.6999969
 11
103.22498
 21
4.6999969
  0
LINE
  8
0
  6
CONTINUOUS
 62
     7
 10
112.12498
 20
23.5
 11
103.22498
 21
23.5
  0
LINE
  8
0
  6
CONTINUOUS
 62
     7
 10
100.72498
 20
16.699997
 11
101.72498
 21
16.699997
  0
LINE
  8
0
  6
CONTINUOUS
 62
     7
 10
100.72498
 20
22.699997
 11
101.72498
 21
22.699997
  0
LINE
  8
0
  6
CONTINUOUS
 62
     7
 10
100.72498
 20
22.699997
 11
100.72498
 21
16.699997
  0
LINE
  8
0
  6
CONTINUOUS
 62
     7
 10
150.92499
 20
23.5
 11
159.82498
 21
23.5
  0
LINE
  8
0
  6
CONTINUOUS
 62
     7
 10
150.92499
 20
27.229996
 11
150.92499
 21
4.6999969
  0
LINE
  8
0
  6
CONTINUOUS
 62
     7
 10
150.92499
 20
4.6999969
 11
159.82498
 21
4.6999969
  0
LINE
  8
0
  6
CONTINUOUS
 62
     7
 10
103.22498
 20
23.5
 11
103.22498
 21
4.6999969
  0
LINE
  8
0
  6
CONTINUOUS
 62
     7
 10
159.82498
 20
23.5
 11
159.82498
 21
4.6999969
  0
LINE
  8
0
  6
CONTINUOUS
 62
     7
 10
112.12498
 20
4.9299927
 11
150.92499
 21
4.9299927
  0
LINE
  8
0
  6
CONTINUOUS
 62
     7
 10
112.12498
 20
27.230011
 11
112.12498
 21
4.6999969
  0
LINE
  8
0
  6
CONTINUOUS
 62
     7
 10
101.72498
 20
23.449997
 11
101.72498
 21
15.949997
  0
LINE
  8
0
  6
CONTINUOUS
 62
     7
 10
101.72498
 20
15.949997
 11
103.22498
 21
15.949997
  0
LINE
  8
0
  6
CONTINUOUS
 62
     7
 10
101.72498
 20
23.449997
 11
103.22498
 21
23.449997
  0
LINE
  8
0
  6
CENTER
 62
     7
 10
96.224976
 20
19.699997
 11
104.07323
 21
19.699997
  0
LINE
  8
0
  6
CENTER
 62
     7
 10
-4.75
 20
19.699997
 11
4.75
 21
19.699997
  0
LINE
  8
0
  6
CONTINUOUS
 62
     7
 10
211.52498
 20
15
 11
211.52498
 21
0
  0
LINE
  8
0
  6
CENTER
 62
     7
 10
191.52499
 20
17.822556
 11
191.52499
 21
-2.3465576
  0
LINE
  8
0
  6
CONTINUOUS
 62
     7
 10
100.72498
 20
92.9319
 11
101.72498
 21
92.9319
  0
LINE
  8
0
  6
CONTINUOUS
 62
     7
 10
100.72498
 20
86.9319
 11
101.72498
 21
86.9319
  0
LINE
  8
0
  6
CONTINUOUS
 62
     7
 10
100.72498
 20
92.9319
 11
100.72498
 21
86.9319
  0
LINE
  8
0
  6
CONTINUOUS
 62
     7
 10
101.72498
 20
93.6819
 11
103.22498
 21
93.6819
  0
LINE
  8
0
  6
CONTINUOUS
 62
     7
 10
101.72498
 20
86.1819
 11
103.22498
 21
86.1819
  0
LINE
  8
0
  6
CONTINUOUS
 62
     7
 10
101.72498
 20
93.6819
 11
101.72498
 21
86.1819
  0
LINE
  8
0
  6
CONTINUOUS
 62
     7
 10
-9.4999838
 20
10.988738
 11
-6.6999764
 21
8.1887302
  0
LINE
  8
0
  6
CONTINUOUS
 62
     7
 10
15.000006
 20
5.200016
 11
14.500005
 21
4.7000155
  0
LINE
  8
0
  6
CONTINUOUS
 62
     7
 10
5.7542024
 20
9.7941895
 11
4.800014
 21
8.8400011
  0
LINE
  8
0
  6
CONTINUOUS
 62
     7
 10
-9.3112516
 20
5.1999917
 11
-6.6999764
 21
7.8112674
  0
LINE
  8
0
  6
CONTINUOUS
 62
     7
 10
9.5000095
 20
10.988732
 11
6.7000074
 21
8.1887302
  0
LINE
  8
0
  6
CONTINUOUS
 62
     7
 10
2.602417
 20
17
 11
6.0362854
 21
17
  0
LINE
  8
0
  6
CONTINUOUS
 62
     7
 10
-5.3499756
 20
15
 11
5.3500061
 21
15
  0
LINE
  8
0
  6
CONTINUOUS
 62
     7
 10
-14.5
 20
4.6999969
 11
-11.599976
 21
4.6999969
  0
LINE
  8
0
  6
CONTINUOUS
 62
     7
 10
9.3112936
 20
5.2000022
 11
6.7000184
 21
7.8112779
  0
LINE
  8
0
  6
CENTER
 62
     7
 10
13.972778
 20
21.5
 11
10.817017
 21
21.5
  0
LINE
  8
0
  6
DASHED
 62
     7
 10
-2.25
 20
9.6500092
 11
-2.25
 21
0
  0
LINE
  8
0
  6
CONTINUOUS
 62
     7
 10
-15.999986
 20
6.1999998
 11
-14.999985
 21
5.1999989
  0
LINE
  8
0
  6
CENTER
 62
     7
 10
12.500031
 20
22.923813
 11
12.500031
 21
19.716309
  0
LINE
  8
0
  6
CONTINUOUS
 62
     7
 10
-14.5
 20
23.5
 11
14.5
 21
23.5
  0
LINE
  8
0
  6
CONTINUOUS
 62
     7
 10
-15
 20
5.1999969
 11
-6.4999695
 21
5.1999969
  0
LINE
  8
0
  6
CONTINUOUS
 62
     7
 10
-14.999985
 20
5.1999989
 11
-14.499973
 21
4.6999874
  0
LINE
  8
0
  6
CONTINUOUS
 62
     7
 10
-6.7999878
 20
0
 11
6.8000183
 21
0
  0
LINE
  8
0
  6
CONTINUOUS
 62
     7
 10
-6.0362549
 20
17
 11
-2.6023865
 21
17
  0
LINE
  8
0
  6
CONTINUOUS
 62
     7
 10
9.5000038
 20
13.53628
 11
6.0362859
 21
16.999998
  0
LINE
  8
0
  6
CONTINUOUS
 62
     7
 10
-9.4999952
 20
13.53628
 11
-6.0362659
 21
17.00001
  0
LINE
  8
0
  6
CENTER
 62
     7
 10
-13.972748
 20
21.5
 11
-10.816986
 21
21.5
  0
LINE
  8
0
  6
CENTER
 62
     7
 10
-12.5
 20
22.923813
 11
-12.5
 21
19.716309
  0
LINE
  8
0
  6
CONTINUOUS
 62
     7
 10
9.5
 20
13.53627
 11
9.5
 21
10.988739
  0
LINE
  8
0
  6
CONTINUOUS
 62
     7
 10
-9.5
 20
13.53627
 11
-9.5
 21
10.988739
  0
LINE
  8
0
  6
CONTINUOUS
 62
     7
 10
6.7000122
 20
8.188736
 11
6.7000122
 21
7.8112793
  0
LINE
  8
0
  6
CONTINUOUS
 62
     7
 10
16
 20
22
 11
16
 21
6.1999969
  0
LINE
  8
0
  6
CONTINUOUS
 62
     7
 10
15
 20
5.1999969
 11
6.5
 21
5.1999969
  0
LINE
  8
0
  6
CONTINUOUS
 62
     7
 10
-14.499973
 20
23.49999
 11
-15.999975
 21
21.999989
  0
LINE
  8
0
  6
CONTINUOUS
 62
     7
 10
7.5
 20
12.850006
 11
7.5
 21
11.540009
  0
LINE
  8
0
  6
CONTINUOUS
 62
     7
 10
16.000006
 20
6.200017
 11
15.000006
 21
5.200016
  0
LINE
  8
0
  6
CONTINUOUS
 62
     7
 10
14.500028
 20
23.499998
 11
16.000019
 21
22.000006
  0
LINE
  8
0
  6
DASHED
 62
     7
 10
-3.75
 20
15
 11
-3.75
 21
9.6500092
  0
LINE
  8
0
  6
DASHED
 62
     7
 10
2.25
 20
9.6500092
 11
2.25
 21
0
  0
LINE
  8
0
  6
CONTINUOUS
 62
     7
 10
7.5000401
 20
0.69998974
 11
6.8000436
 21
-6.6929215E-006
  0
LINE
  8
0
  6
CONTINUOUS
 62
     7
 10
-7.4999981
 20
0.70001566
 11
-6.7999907
 21
8.4799467E-006
  0
LINE
  8
0
  6
CONTINUOUS
 62
     7
 10
4.8000183
 20
8.8400116
 11
4.8000183
 21
6.9000092
  0
LINE
  8
0
  6
CONTINUOUS
 62
     7
 10
5.3500028
 20
15.000017
 11
5.7559505
 21
14.594069
  0
LINE
  8
0
  6
CONTINUOUS
 62
     7
 10
-7.5
 20
4.1999969
 11
-7.5
 21
0.69999695
  0
LINE
  8
0
  6
CONTINUOUS
 62
     7
 10
-7.0815611
 20
13.26845
 11
-7.4999924
 21
12.850019
  0
LINE
  8
0
  6
CONTINUOUS
 62
     7
 10
-7.5000029
 20
11.540021
 11
-7.0943141
 21
11.134333
  0
LINE
  8
0
  6
CONTINUOUS
 62
     7
 10
7.5000019
 20
4.2000012
 11
4.7999926
 21
6.9000106
  0
LINE
  8
0
  6
CONTINUOUS
 62
     7
 10
-4.7999878
 20
8.8400116
 11
-4.7999878
 21
6.9000092
  0
LINE
  8
0
  6
CONTINUOUS
 62
     7
 10
-5.3499932
 20
15.000017
 11
-5.7559409
 21
14.594069
  0
LINE
  8
0
  6
CONTINUOUS
 62
     7
 10
-5.7541823
 20
9.7941999
 11
-4.7999935
 21
8.8400116
  0
LINE
  8
0
  6
CONTINUOUS
 62
     7
 10
-7.4999814
 20
4.2000122
 11
-4.799983
 21
6.9000106
  0
LINE
  8
0
  6
CONTINUOUS
 62
     7
 10
7.5
 20
4.1999969
 11
7.5
 21
0.69999695
  0
LINE
  8
0
  6
CONTINUOUS
 62
     7
 10
-7.5
 20
12.850006
 11
-7.5
 21
11.540009
  0
LINE
  8
0
  6
CENTER
 62
     7
 10
0
 20
29.371506
 11
0
 21
-1.3004913
  0
LINE
  8
0
  6
CONTINUOUS
 62
     7
 10
7.5000181
 20
11.540005
 11
7.0943346
 21
11.134321
  0
LINE
  8
0
  6
CONTINUOUS
 62
     7
 10
7.0815601
 20
13.268459
 11
7.5000019
 21
12.850018
  0
LINE
  8
0
  6
CONTINUOUS
 62
     7
 10
-6.6999817
 20
8.188736
 11
-6.6999817
 21
7.8112793
  0
LINE
  8
0
  6
CONTINUOUS
 62
     7
 10
14.500031
 20
4.6999969
 11
11.600006
 21
4.6999969
  0
LINE
  8
0
  6
CONTINUOUS
 62
     7
 10
-16
 20
22
 11
-16
 21
6.1999969
  0
LINE
  8
0
  6
CONTINUOUS
 62
     7
 10
11.600006
 20
5.1999969
 11
11.600006
 21
4.6999969
  0
LINE
  8
0
  6
CONTINUOUS
 62
     7
 10
-11.599976
 20
5.1999969
 11
-11.599976
 21
4.6999969
  0
LINE
  8
0
  6
DASHED
 62
     7
 10
-3.75
 20
9.6500092
 11
3.75
 21
9.6500092
  0
LINE
  8
0
  6
DASHED
 62
     7
 10
3.75
 20
15
 11
3.75
 21
9.6500092
  0
LINE
  8
0
  6
CONTINUOUS
 62
     7
 10
-17
 20
27.139938
 11
-17
 21
22
  0
LINE
  8
0
  6
CONTINUOUS
 62
     7
 10
14.72998
 20
4.9299774
 11
15.175781
 21
4.9299774
  0
LINE
  8
0
  6
CONTINUOUS
 62
     7
 10
15.882895
 20
5.2228737
 11
16.297108
 21
5.6370864
  0
LINE
  8
0
  6
CONTINUOUS
 62
     7
 10
-16.517088
 20
5.6370635
 11
-16.102875
 21
5.2228508
  0
LINE
  8
0
  6
CONTINUOUS
 62
     7
 10
-16.809998
 20
15.029984
 11
-16.809998
 21
6.3441925
  0
LINE
  8
0
  6
CONTINUOUS
 62
     7
 10
-16.809998
 20
21.809998
 11
-16.809998
 21
16.229996
  0
LINE
  8
0
  6
CONTINUOUS
 62
     7
 10
-16.139938
 20
27.999994
 11
-16.999998
 21
27.139935
  0
LINE
  8
0
  6
CONTINUOUS
 62
     7
 10
16.119989
 20
28.000002
 11
17.00001
 21
27.119982
  0
LINE
  8
0
  6
CONTINUOUS
 62
     7
 10
-5.0100098
 20
27.62999
 11
4.9899902
 21
27.62999
  0
LINE
  8
0
  6
CONTINUOUS
 62
     7
 10
16.589996
 20
21.589996
 11
16.589996
 21
6.3441925
  0
LINE
  8
0
  6
CONTINUOUS
 62
     7
 10
-15.395782
 20
4.9299774
 11
-14.730011
 21
4.9299774
  0
LINE
  8
0
  6
CENTER
 62
     7
 10
-13
 20
29.767166
 11
-13
 21
18.648712
  0
LINE
  8
0
  6
DASHED
 62
     7
 10
-15
 20
28
 11
-15
 21
23
  0
LINE
  8
0
  6
DASHED
 62
     7
 10
-11
 20
28
 11
-11
 21
23
  0
LINE
  8
0
  6
DASHED
 62
     7
 10
-15
 20
23
 11
-11
 21
23
  0
LINE
  8
0
  6
DASHED
 62
     7
 10
-14.700012
 20
20.5
 11
-11.299988
 21
20.5
  0
LINE
  8
0
  6
DASHED
 62
     7
 10
-14.700012
 20
28
 11
-14.700012
 21
20.5
  0
LINE
  8
0
  6
DASHED
 62
     7
 10
-11.299988
 20
28
 11
-11.299988
 21
20.5
  0
LINE
  8
0
  6
DASHED
 62
     7
 10
-11.300004
 20
22.48037
 11
-11.000005
 21
22.999983
  0
LINE
  8
0
  6
DASHED
 62
     7
 10
-13.000018
 20
19.518518
 11
-11.300025
 21
20.50001
  0
LINE
  8
0
  6
DASHED
 62
     7
 10
-14.700006
 20
22.480377
 11
-15.000009
 21
22.999998
  0
LINE
  8
0
  6
DASHED
 62
     7
 10
-13.000003
 20
19.51849
 11
-14.700022
 21
20.499996
  0
LINE
  8
0
  6
CENTER
 62
     7
 10
13
 20
29.767166
 11
13
 21
18.878708
  0
LINE
  8
0
  6
CONTINUOUS
 62
     7
 10
-16.139923
 20
28
 11
-5.3800049
 21
28
  0
LINE
  8
0
  6
CONTINUOUS
 62
     7
 10
5.3599854
 20
28
 11
16.119995
 21
28
  0
LINE
  8
0
  6
CONTINUOUS
 62
     7
 10
4.9899912
 20
27.629986
 11
5.3599987
 21
27.999994
  0
LINE
  8
0
  6
CONTINUOUS
 62
     7
 10
-5.3800106
 20
27.999989
 11
-5.0100141
 21
27.629992
  0
LINE
  8
0
  6
CONTINUOUS
 62
     7
 10
-17.000004
 20
21.999992
 11
-16.809998
 21
21.809988
  0
LINE
  8
0
  6
CONTINUOUS
 62
     7
 10
17
 20
27.11998
 11
17
 21
22
  0
LINE
  8
0
  6
CONTINUOUS
 62
     7
 10
16.589996
 20
21.589998
 11
17.000002
 21
22.000004
  0
LINE
  8
0
  6
CONTINUOUS
 62
     7
 10
112.12498
 20
4.9300079
 11
150.92499
 21
4.9300079
  0
LINE
  8
0
  6
CONTINUOUS
 62
     7
 10
112.89497
 20
28.000002
 11
112.12498
 21
27.230019
  0
LINE
  8
0
  6
CONTINUOUS
 62
     7
 10
150.15498
 20
27.999996
 11
150.92499
 21
27.229998
  0
LINE
  8
0
  6
DASHED
 62
     7
 10
118.525
 20
19.51849
 11
116.825
 21
20.499981
  0
LINE
  8
0
  6
DASHED
 62
     7
 10
116.82497
 20
22.480389
 11
116.52497
 21
23.000008
  0
LINE
  8
0
  6
DASHED
 62
     7
 10
120.22499
 20
22.480362
 11
120.52499
 21
22.999983
  0
LINE
  8
0
  6
DASHED
 62
     7
 10
118.52496
 20
19.518528
 11
120.22496
 21
20.500023
  0
LINE
  8
0
  6
DASHED
 62
     7
 10
120.22498
 20
28
 11
120.22498
 21
20.5
  0
LINE
  8
0
  6
DASHED
 62
     7
 10
116.82498
 20
28
 11
116.82498
 21
20.5
  0
LINE
  8
0
  6
DASHED
 62
     7
 10
116.82498
 20
20.5
 11
120.22498
 21
20.5
  0
LINE
  8
0
  6
DASHED
 62
     7
 10
116.52498
 20
23
 11
120.52498
 21
23
  0
LINE
  8
0
  6
DASHED
 62
     7
 10
120.52498
 20
28
 11
120.52498
 21
23
  0
LINE
  8
0
  6
DASHED
 62
     7
 10
116.52498
 20
28
 11
116.52498
 21
23
  0
LINE
  8
0
  6
CENTER
 62
     7
 10
118.52498
 20
29.767197
 11
118.52498
 21
18.648712
  0
LINE
  8
0
  6
CENTER
 62
     7
 10
144.52498
 20
29.767197
 11
144.52498
 21
18.878738
  0
LINE
  8
0
  6
CONTINUOUS
 62
     7
 10
112.89497
 20
28
 11
150.15498
 21
28
  0
LINE
  8
0
  6
CONTINUOUS
 62
     7
 10
112.12498
 20
22
 11
150.92499
 21
22
  0
LINE
  8
0
  6
CONTINUOUS
 62
     7
 10
112.12498
 20
21.589996
 11
150.92499
 21
21.589996
  0
LINE
  8
0
  6
CONTINUOUS
 62
     7
 10
112.12498
 20
72.9319
 11
150.92499
 21
72.9319
  0
LINE
  8
0
  6
CONTINUOUS
 62
     7
 10
112.12498
 20
106.9319
 11
150.92499
 21
106.9319
  0
LINE
  8
0
  6
CONTINUOUS
 62
     7
 10
112.12498
 20
94.94191
 11
150.92499
 21
94.94191
  0
LINE
  8
0
  6
CONTINUOUS
 62
     7
 10
112.12498
 20
84.94191
 11
150.92499
 21
84.94191
  0
LINE
  8
0
  6
CENTER
 62
     7
 10
122.02498
 20
76.9319
 11
115.02498
 21
76.9319
  0
LINE
  8
0
  6
CENTER
 62
     7
 10
118.52498
 20
80.4319
 11
118.52498
 21
73.4319
  0
LINE
  8
0
  6
CENTER
 62
     7
 10
122.02498
 20
102.9319
 11
115.02498
 21
102.9319
  0
LINE
  8
0
  6
CENTER
 62
     7
 10
118.52498
 20
106.4319
 11
118.52498
 21
99.4319
  0
LINE
  8
0
  6
CENTER
 62
     7
 10
144.52498
 20
106.4319
 11
144.52498
 21
99.4319
  0
LINE
  8
0
  6
CENTER
 62
     7
 10
148.02498
 20
102.9319
 11
141.02498
 21
102.9319
  0
LINE
  8
0
  6
CENTER
 62
     7
 10
148.02498
 20
76.9319
 11
141.02498
 21
76.9319
  0
LINE
  8
0
  6
CENTER
 62
     7
 10
144.52498
 20
80.4319
 11
144.52498
 21
73.4319
  0
CIRCLE
  8
0
  6
CONTINUOUS
 62
     7
 10
71.524994
 20
89.9319
 40
3.75
  0
CIRCLE
  8
0
  6
CONTINUOUS
 62
     7
 10
71.524994
 20
89.9319
 40
2.25
  0
ARC
  8
0
  6
CONTINUOUS
 62
     7
 10
100.72498
 20
19.699997
 40
3
 50
89.999982
 51
269.99995
  0
CIRCLE
  8
0
  6
CONTINUOUS
 62
     7
 10
0
 20
19.699997
 40
3
  0
CIRCLE
  8
0
  6
CONTINUOUS
 62
     7
 10
0
 20
19.699997
 40
3.75
  0
ARC
  8
0
  6
CONTINUOUS
 62
     7
 10
100.72498
 20
89.9319
 40
3
 50
89.999982
 51
269.99995
  0
ARC
  8
0
  6
CONTINUOUS
 62
     7
 10
7.3005066
 20
9.5879974
 40
1.5599999
 50
97.595029
 51
172.40497
  0
ARC
  8
0
  6
CONTINUOUS
 62
     7
 10
-7.3004761
 20
9.5879974
 40
1.5599999
 50
7.5950286
 51
82.404969
  0
ARC
  8
0
  6
CONTINUOUS
 62
     7
 10
7.3005066
 20
14.813004
 40
1.5599999
 50
188.06788
 51
261.93212
  0
CIRCLE
  8
0
  6
PHANTOM
 62
     7
 10
-12.5
 20
21.5
 40
0.82499999
  0
ARC
  8
0
  6
CONTINUOUS
 62
     7
 10
-7.3004761
 20
14.813004
 40
1.5599999
 50
278.06789
 51
351.93212
  0
ARC
  8
0
  6
CONTINUOUS
 62
     7
 10
-15.809998
 20
6.3441925
 40
1
 50
179.99999
 51
225
  0
ARC
  8
0
  6
CONTINUOUS
 62
     7
 10
15.175781
 20
5.9299774
 40
1
 50
270
 51
315
  0
ARC
  8
0
  6
CONTINUOUS
 62
     7
 10
-17.610016
 20
15.62999
 40
1
 50
323.1301
 51
36.869897
  0
ARC
  8
0
  6
CONTINUOUS
 62
     7
 10
15.589996
 20
6.3441925
 40
1
 50
315
 51
0
  0
ARC
  8
0
  6
CONTINUOUS
 62
     7
 10
-15.395782
 20
5.9299774
 40
1
 50
225
 51
270
  0
CIRCLE
  8
0
  6
CONTINUOUS
 62
     7
 10
118.52498
 20
76.9319
 40
2
  0
CIRCLE
  8
0
  6
CONTINUOUS
 62
     7
 10
118.52498
 20
76.9319
 40
1.7
  0
TEXT
  8
0
  6
CONTINUOUS
 62
     7
 10
-1.2855
 20
-11.8
 40
3.5999999
 41
0.84738018
  1
ＨＳＲ１５Ｒ
  0
ENDSEC
  0
EOF
