  0
SECTION
  2
HEADER
  0
ENDSEC
  0
SECTION
  2
TABLES
  0
TABLE
  2
LTYPE
 70
    22
  0
LTYPE
  2
CONTINUOUS
 70
    64
  3
Solid line
 72
    65
 73
     0
 40
0.000000
  0
LTYPE
  2
DASHED
 70
    64
  3
__ __ __ __ __ __ __ __ __ __ __ __ __ __ __
 72
    65
 73
     2
 40
3.500000
 49
2.000000
 49
-1.500000
  0
LTYPE
  2
CENTER
 70
    64
  3
____ _ ____ _ ____ _ ____ _ ____ _ ____ _ ____
 72
    65
 73
     4
 40
17.500000
 49
13.000000
 49
-1.500000
 49
1.500000
 49
-1.500000
  0
LTYPE
  2
PHANTOM
 70
    64
  3
_____ _ _ _____ _ _ _____ _ _ _____ _ _ ____  
 72
    65
 73
     6
 40
15.500000
 49
8.000000
 49
-1.500000
 49
1.500000
 49
-1.500000
 49
1.500000
 49
-1.500000
  0
LTYPE
  2
DOT
 70
    64
  3
. . . . . . . . . . . . . . . . . . . . . . . .
 72
    65
 73
     2
 40
0.25
 49
0.0
 49
-0.25
  0
ENDTAB
  0
TABLE
  2
LAYER
 70
     1
  0
LAYER
  2
0
 70
     0
 62
     7
  6
CONTINUOUS
  0
ENDTAB
  0
TABLE
  2
STYLE
 70
     1
  0
STYLE
  2
STANDARD
 70
     0
 40
0.000000
 41
1.000000
 50
0.000000
 71
     0
 42
0.200000
  3
txt
  0
ENDTAB
  0
TABLE
  2
VIEW
 70
     0
  0
ENDTAB
  0
ENDSEC
  0
SECTION
  2
BLOCKS
  0
ENDSEC
  0
SECTION
  2
ENTITIES
  0
LINE
  8
0
  6
CONTINUOUS
 62
     7
 10
9
 20
0
 11
3
 21
0
  0
LINE
  8
0
  6
CONTINUOUS
 62
     7
 10
6.550048828125
 20
10.3798828125
 11
6.550048828125
 21
7.449951171875
  0
LINE
  8
0
  6
CONTINUOUS
 62
     7
 10
-6.5498046875
 20
10.3798828125
 11
-6.5498046875
 21
7.449951171875
  0
LINE
  8
0
  6
CONTINUOUS
 62
     7
 10
6.550413131713867
 20
7.449664115905762
 11
10.00032043457031
 21
3.999756813049316
  0
LINE
  8
0
  6
CONTINUOUS
 62
     7
 10
-9.999625205993652
 20
3.999702215194702
 11
-6.549631118774414
 21
7.449696063995361
  0
LINE
  8
0
  6
CONTINUOUS
 62
     7
 10
-9.999544143676758
 20
0.999715268611908
 11
-8.999477386474609
 21
-0.0003501136379782111
  0
LINE
  8
0
  6
CONTINUOUS
 62
     7
 10
10.00046539306641
 20
0.9996093511581421
 11
9.00046443939209
 21
-0.0003912493993993849
  0
LINE
  8
0
  6
CONTINUOUS
 62
     7
 10
-10
 20
3.999755859375
 11
-10
 21
1
  0
LINE
  8
0
  6
CONTINUOUS
 62
     7
 10
10
 20
3.999755859375
 11
10
 21
1
  0
LINE
  8
0
  6
CONTINUOUS
 62
     7
 10
-2.5
 20
0.5
 11
2.5
 21
0.5
  0
LINE
  8
0
  6
CONTINUOUS
 62
     7
 10
-2.999552726745606
 20
-0.0003884253674186766
 11
-2.499552249908447
 21
0.4996121227741242
  0
LINE
  8
0
  6
CONTINUOUS
 62
     7
 10
2.500323057174683
 20
0.4997206926345825
 11
3.000442266464233
 21
-0.0003985406074207276
  0
LINE
  8
0
  6
CONTINUOUS
 62
     7
 10
-2.999755859375
 20
0
 11
-8.999828338623047
 21
0
  0
LINE
  8
0
  6
CONTINUOUS
 62
     7
 10
-20.232421875
 20
5.5
 11
-16
 21
5.5
  0
LINE
  8
0
  6
CONTINUOUS
 62
     7
 10
16
 20
5.5
 11
20.232666015625
 21
5.5
  0
LINE
  8
0
  6
CONTINUOUS
 62
     7
 10
-16
 20
5.699951171875
 11
-16
 21
5.5
  0
LINE
  8
0
  6
CONTINUOUS
 62
     7
 10
16
 20
5.5
 11
16
 21
5.699951171875
  0
LINE
  8
0
  6
CONTINUOUS
 62
     7
 10
21.00040435791016
 20
7.699630260467529
 11
19.00039672851563
 21
5.699632167816162
  0
LINE
  8
0
  6
CONTINUOUS
 62
     7
 10
8.300048828125
 20
5.699951171875
 11
19
 21
5.699951171875
  0
LINE
  8
0
  6
CONTINUOUS
 62
     7
 10
8.800048828125
 20
9.431396484375
 11
8.800048828125
 21
8.568359375
  0
LINE
  8
0
  6
CONTINUOUS
 62
     7
 10
8.800291061401367
 20
8.568145751953125
 11
11.66876888275147
 21
5.699667930603027
  0
LINE
  8
0
  6
CONTINUOUS
 62
     7
 10
-11.70142555236816
 20
4.706090450286865
 11
-11.66697692871094
 21
5.699703693389893
  0
LINE
  8
0
  6
CONTINUOUS
 62
     7
 10
-15.13190460205078
 20
5.699771404266357
 11
-15.09745502471924
 21
4.706158638000488
  0
LINE
  8
0
  6
CONTINUOUS
 62
     7
 10
-18.99958801269531
 20
5.699751377105713
 11
-20.99954986572266
 21
7.699706554412842
  0
LINE
  8
0
  6
CONTINUOUS
 62
     7
 10
-18.999755859375
 20
5.699951171875
 11
-8.2998046875
 21
5.699951171875
  0
LINE
  8
0
  6
CONTINUOUS
 62
     7
 10
-8.7998046875
 20
8.568359375
 11
-8.7998046875
 21
9.431396484375
  0
LINE
  8
0
  6
CONTINUOUS
 62
     7
 10
-11.66805267333984
 20
5.699742794036865
 11
-8.799681663513184
 21
8.568113327026367
  0
LINE
  8
0
  6
CENTER
 62
     7
 10
-13.39999389648438
 20
7.199951171875
 11
-13.39999389648438
 21
3.10009765625
  0
LINE
  8
0
  6
CENTER
 62
     7
 10
13.39999389648438
 20
7.199951171875
 11
13.39999389648438
 21
3.10009765625
  0
LINE
  8
0
  6
CONTINUOUS
 62
     7
 10
70
 20
18
 11
113.000244140625
 21
18
  0
LINE
  8
0
  6
CONTINUOUS
 62
     7
 10
70
 20
4
 11
230
 21
4
  0
LINE
  8
0
  6
CONTINUOUS
 62
     7
 10
70
 20
0
 11
230
 21
0
  0
LINE
  8
0
  6
CONTINUOUS
 62
     7
 10
187
 20
18
 11
230
 21
18
  0
LINE
  8
0
  6
CONTINUOUS
 62
     7
 10
124.60009765625
 20
30
 11
124.60009765625
 21
5.5
  0
LINE
  8
0
  6
CONTINUOUS
 62
     7
 10
175.400146484375
 20
30
 11
175.400146484375
 21
5.5
  0
LINE
  8
0
  6
CONTINUOUS
 62
     7
 10
131.6983795166016
 20
4.706218719482422
 11
131.71533203125
 21
5.499911785125732
  0
LINE
  8
0
  6
CONTINUOUS
 62
     7
 10
128.2850952148438
 20
5.499940395355225
 11
128.3020629882813
 21
4.706247329711914
  0
LINE
  8
0
  6
CENTER
 62
     7
 10
170
 20
31.5
 11
170
 21
17.52099609375
  0
LINE
  8
0
  6
CONTINUOUS
 62
     7
 10
124.60009765625
 20
30
 11
175.400146484375
 21
30
  0
LINE
  8
0
  6
CONTINUOUS
 62
     7
 10
124.60009765625
 20
20
 11
175.400146484375
 21
20
  0
LINE
  8
0
  6
CENTER
 62
     7
 10
130
 20
31.5
 11
130
 21
17.52099609375
  0
LINE
  8
0
  6
CONTINUOUS
 62
     7
 10
116.000244140625
 20
29.199951171875
 11
116.000244140625
 21
5.499755859375
  0
LINE
  8
0
  6
CONTINUOUS
 62
     7
 10
115.000244140625
 20
29.619873046875
 11
115.000244140625
 21
5.499755859375
  0
LINE
  8
0
  6
CONTINUOUS
 62
     7
 10
113.000244140625
 20
18.39990234375
 11
113.000244140625
 21
5.499755859375
  0
LINE
  8
0
  6
CONTINUOUS
 62
     7
 10
113.000244140625
 20
18.39971923828125
 11
115.0002288818359
 21
20.39971160888672
  0
LINE
  8
0
  6
CONTINUOUS
 62
     7
 10
113.000244140625
 20
5.499755859375
 11
187
 21
5.499755859375
  0
LINE
  8
0
  6
CENTER
 62
     7
 10
101.80029296875
 20
24.99949645996094
 11
117.72900390625
 21
24.99949645996094
  0
LINE
  8
0
  6
CONTINUOUS
 62
     7
 10
113.00048828125
 20
20.87962341308594
 11
113.00048828125
 21
29.11961364746094
  0
LINE
  8
0
  6
CONTINUOUS
 62
     7
 10
110.00048828125
 20
28.99949645996094
 11
113.00048828125
 21
28.99949645996094
  0
LINE
  8
0
  6
CONTINUOUS
 62
     7
 10
115.000244140625
 20
29.61961364746094
 11
113.500244140625
 21
29.61961364746094
  0
LINE
  8
0
  6
CONTINUOUS
 62
     7
 10
115.000244140625
 20
27.30955505371094
 11
113.00048828125
 21
27.30955505371094
  0
LINE
  8
0
  6
CONTINUOUS
 62
     7
 10
115.000244140625
 20
20.37962341308594
 11
113.500244140625
 21
20.37962341308594
  0
LINE
  8
0
  6
CONTINUOUS
 62
     7
 10
115.000244140625
 20
22.68968200683594
 11
113.00048828125
 21
22.68968200683594
  0
LINE
  8
0
  6
CONTINUOUS
 62
     7
 10
113.5002975463867
 20
20.37971878051758
 11
113.0003509521484
 21
20.87966537475586
  0
LINE
  8
0
  6
CONTINUOUS
 62
     7
 10
113.0003051757813
 20
29.11965560913086
 11
113.5002975463867
 21
29.6196460723877
  0
LINE
  8
0
  6
CONTINUOUS
 62
     7
 10
111.100341796875
 20
21.49949645996094
 11
105.900390625
 21
21.49949645996094
  0
LINE
  8
0
  6
CONTINUOUS
 62
     7
 10
111.100341796875
 20
21.45970153808594
 11
111.100341796875
 21
21.49949645996094
  0
LINE
  8
0
  6
CONTINUOUS
 62
     7
 10
112.6004028320313
 20
24.99973678588867
 11
111.1004104614258
 21
21.49975967407227
  0
LINE
  8
0
  6
CONTINUOUS
 62
     7
 10
111.700553894043
 20
24.99954795837402
 11
110.1005401611328
 21
21.49953842163086
  0
LINE
  8
0
  6
CONTINUOUS
 62
     7
 10
105.9003448486328
 20
21.49952697753906
 11
105.5003280639648
 21
22.07955932617188
  0
LINE
  8
0
  6
CONTINUOUS
 62
     7
 10
105.9000473022461
 20
28.49969673156738
 11
105.5000381469727
 21
27.9196662902832
  0
LINE
  8
0
  6
CONTINUOUS
 62
     7
 10
111.100341796875
 20
28.49949645996094
 11
105.900390625
 21
28.49949645996094
  0
LINE
  8
0
  6
CONTINUOUS
 62
     7
 10
111.700325012207
 20
24.99964141845703
 11
110.1003112792969
 21
28.4996509552002
  0
LINE
  8
0
  6
CONTINUOUS
 62
     7
 10
112.6001510620117
 20
24.99978256225586
 11
111.1001586914063
 21
28.49975967407227
  0
LINE
  8
0
  6
CONTINUOUS
 62
     7
 10
110.00048828125
 20
20.99949645996094
 11
113.00048828125
 21
20.99949645996094
  0
LINE
  8
0
  6
CONTINUOUS
 62
     7
 10
111.100341796875
 20
21.45970153808594
 11
111.100341796875
 21
21.49949645996094
  0
LINE
  8
0
  6
CONTINUOUS
 62
     7
 10
114.6186828613281
 20
22.81822776794434
 11
115.0002822875977
 21
22.78484344482422
  0
LINE
  8
0
  6
CONTINUOUS
 62
     7
 10
114.6184997558594
 20
27.18110084533691
 11
115.0003433227539
 21
27.21450805664063
  0
LINE
  8
0
  6
CONTINUOUS
 62
     7
 10
184
 20
5.499755859375
 11
184
 21
29.199951171875
  0
LINE
  8
0
  6
CONTINUOUS
 62
     7
 10
185
 20
5.499755859375
 11
185
 21
29.199951171875
  0
LINE
  8
0
  6
CONTINUOUS
 62
     7
 10
187
 20
5.499755859375
 11
187
 21
18.39990234375
  0
LINE
  8
0
  6
CONTINUOUS
 62
     7
 10
185.0001525878906
 20
20.39963531494141
 11
187.0001068115234
 21
18.39967727661133
  0
LINE
  8
0
  6
CONTINUOUS
 62
     7
 10
175.400146484375
 20
29.199951171875
 11
185
 21
29.199951171875
  0
LINE
  8
0
  6
CENTER
 62
     7
 10
182.271240234375
 20
24.99951171875
 11
187.24560546875
 21
24.99951171875
  0
LINE
  8
0
  6
CONTINUOUS
 62
     7
 10
115.000244140625
 20
29.199951171875
 11
124.60009765625
 21
29.199951171875
  0
LINE
  8
0
  6
CENTER
 62
     7
 10
130.0002746582031
 20
6.772369384765625
 11
130.0002746582031
 21
2.746444702148438
  0
LINE
  8
0
  6
CENTER
 62
     7
 10
170.0000457763672
 20
6.772293090820313
 11
170.0000457763672
 21
2.746368408203125
  0
LINE
  8
0
  6
CENTER
 62
     7
 10
210
 20
20
 11
210
 21
-2.228851318359375
  0
LINE
  8
0
  6
CONTINUOUS
 62
     7
 10
70
 20
18
 11
70
 21
0
  0
LINE
  8
0
  6
CONTINUOUS
 62
     7
 10
230
 20
18
 11
230
 21
0
  0
LINE
  8
0
  6
DASHED
 62
     7
 10
-4.75
 20
9.5
 11
4.75
 21
9.5
  0
LINE
  8
0
  6
DASHED
 62
     7
 10
3
 20
9.5
 11
3
 21
0
  0
LINE
  8
0
  6
DASHED
 62
     7
 10
-3
 20
9.5
 11
-3
 21
0
  0
LINE
  8
0
  6
DASHED
 62
     7
 10
94.75
 20
18
 11
94.75
 21
9.5
  0
LINE
  8
0
  6
DASHED
 62
     7
 10
85.25
 20
9.5
 11
94.75
 21
9.5
  0
LINE
  8
0
  6
DASHED
 62
     7
 10
93
 20
9.5
 11
93
 21
0
  0
LINE
  8
0
  6
DASHED
 62
     7
 10
87
 20
9.5
 11
87
 21
0
  0
LINE
  8
0
  6
DASHED
 62
     7
 10
85.25
 20
18
 11
85.25
 21
9.5
  0
LINE
  8
0
  6
CENTER
 62
     7
 10
90
 20
20
 11
90
 21
-2.228851318359375
  0
LINE
  8
0
  6
CENTER
 62
     7
 10
150
 20
20
 11
150
 21
-2.228851318359375
  0
LINE
  8
0
  6
CONTINUOUS
 62
     7
 10
70
 20
15.159912109375
 11
113.000244140625
 21
15.159912109375
  0
LINE
  8
0
  6
CONTINUOUS
 62
     7
 10
70
 20
13.829833984375
 11
113.000244140625
 21
13.829833984375
  0
LINE
  8
0
  6
CONTINUOUS
 62
     7
 10
187
 20
15.159912109375
 11
230
 21
15.159912109375
  0
LINE
  8
0
  6
CONTINUOUS
 62
     7
 10
187
 20
13.829833984375
 11
230
 21
13.829833984375
  0
LINE
  8
0
  6
CENTER
 62
     7
 10
67
 20
118
 11
233
 21
118
  0
LINE
  8
0
  6
CONTINUOUS
 62
     7
 10
-17.5
 20
29.5
 11
-7.5
 21
29.5
  0
LINE
  8
0
  6
CENTER
 62
     7
 10
0
 20
31.5
 11
0
 21
-2
  0
LINE
  8
0
  6
CONTINUOUS
 62
     7
 10
10
 20
15.159912109375
 11
10
 21
13.829833984375
  0
LINE
  8
0
  6
CONTINUOUS
 62
     7
 10
7.160425662994385
 20
17.99961090087891
 11
7.768268585205078
 21
17.39176750183106
  0
LINE
  8
0
  6
CONTINUOUS
 62
     7
 10
-10
 20
15.159912109375
 11
-10
 21
13.829833984375
  0
LINE
  8
0
  6
CONTINUOUS
 62
     7
 10
6.550435066223145
 20
10.37962150573731
 11
7.766476154327393
 21
11.5956621170044
  0
LINE
  8
0
  6
CONTINUOUS
 62
     7
 10
-7.159912109375
 20
18
 11
7.16015625
 21
18
  0
LINE
  8
0
  6
CONTINUOUS
 62
     7
 10
-9.99955940246582
 20
13.82960319519043
 11
-9.484075546264648
 21
13.31411933898926
  0
LINE
  8
0
  6
CONTINUOUS
 62
     7
 10
-9.999494552612305
 20
15.15954971313477
 11
-9.472066879272461
 21
15.68697738647461
  0
LINE
  8
0
  6
CONTINUOUS
 62
     7
 10
-7.76570463180542
 20
11.59574890136719
 11
-6.549674034118652
 21
10.37971782684326
  0
LINE
  8
0
  6
CONTINUOUS
 62
     7
 10
0.725341796875
 20
29.199951171875
 11
19.00010681152344
 21
29.199951171875
  0
LINE
  8
0
  6
CONTINUOUS
 62
     7
 10
-7.767429351806641
 20
17.39161491394043
 11
-7.15949010848999
 21
17.99955368041992
  0
LINE
  8
0
  6
CONTINUOUS
 62
     7
 10
9.472851753234863
 20
15.68718528747559
 11
10.00041961669922
 21
15.15961742401123
  0
LINE
  8
0
  6
CONTINUOUS
 62
     7
 10
9.484860420227051
 20
13.31404685974121
 11
10.00039768218994
 21
13.8295841217041
  0
LINE
  8
0
  6
CONTINUOUS
 62
     7
 10
-30.49954223632813
 20
29.99958038330078
 11
-31.49953651428223
 21
28.99957275390625
  0
LINE
  8
0
  6
CONTINUOUS
 62
     7
 10
31.50032615661621
 20
29.19970703125
 11
30.7003345489502
 21
29.99968147277832
  0
LINE
  8
0
  6
CONTINUOUS
 62
     7
 10
-30.999755859375
 20
20
 11
-27.18701171875
 21
20
  0
LINE
  8
0
  6
CENTER
 62
     7
 10
-5
 20
25
 11
14.13454914093018
 21
25
  0
LINE
  8
0
  6
CONTINUOUS
 62
     7
 10
31.5
 20
29.199951171875
 11
31.5
 21
20.5
  0
LINE
  8
0
  6
CONTINUOUS
 62
     7
 10
-31.5
 20
28.999755859375
 11
-31.5
 21
20.5
  0
LINE
  8
0
  6
CONTINUOUS
 62
     7
 10
-30.5
 20
30
 11
-18
 21
30
  0
LINE
  8
0
  6
CONTINUOUS
 62
     7
 10
-0.0003245892003178597
 20
29.61893463134766
 11
1.937872529029846
 21
28.49991607666016
  0
LINE
  8
0
  6
DASHED
 62
     7
 10
-4.75
 20
18
 11
-4.75
 21
9.5
  0
LINE
  8
0
  6
DASHED
 62
     7
 10
4.75
 20
18
 11
4.75
 21
9.5
  0
LINE
  8
0
  6
CENTER
 62
     7
 10
11
 20
27.999755859375
 11
11
 21
21.999755859375
  0
LINE
  8
0
  6
CENTER
 62
     7
 10
-14
 20
24.999755859375
 11
-8
 21
24.999755859375
  0
LINE
  8
0
  6
CONTINUOUS
 62
     7
 10
-8.1533203125
 20
20.39990234375
 11
8.153564453125
 21
20.39990234375
  0
LINE
  8
0
  6
CONTINUOUS
 62
     7
 10
8.153823852539063
 20
20.39958381652832
 11
12.40043544769287
 21
16.1529712677002
  0
LINE
  8
0
  6
DASHED
 62
     7
 10
-27.18701171875
 20
20
 11
-23
 21
20
  0
LINE
  8
0
  6
CONTINUOUS
 62
     7
 10
-19.00010681152344
 20
29.199951171875
 11
-0.72509765625
 21
29.199951171875
  0
LINE
  8
0
  6
CENTER
 62
     7
 10
26.5
 20
31.5
 11
26.5
 21
17.52099609375
  0
LINE
  8
0
  6
CONTINUOUS
 62
     7
 10
-4
 20
27.309814453125
 11
-4
 21
22.6904296875
  0
LINE
  8
0
  6
CONTINUOUS
 62
     7
 10
-3.999319076538086
 20
27.3100757598877
 11
0.0001284245372517034
 21
29.61915588378906
  0
LINE
  8
0
  6
DASHED
 62
     7
 10
2.60009765625
 20
30
 11
2.60009765625
 21
20
  0
LINE
  8
0
  6
DASHED
 62
     7
 10
-2.599853515625
 20
30
 11
-2.599853515625
 21
20
  0
LINE
  8
0
  6
CONTINUOUS
 62
     7
 10
21
 20
27.199951171875
 11
21
 21
7.699951171875
  0
LINE
  8
0
  6
CONTINUOUS
 62
     7
 10
19.00031280517578
 20
29.19973373413086
 11
21.00027275085449
 21
27.19977569580078
  0
LINE
  8
0
  6
CONTINUOUS
 62
     7
 10
-3.999916553497315
 20
22.69046020507813
 11
0.0005882532568648458
 21
20.38076972961426
  0
LINE
  8
0
  6
CONTINUOUS
 62
     7
 10
12.400146484375
 20
16.1533203125
 11
12.400146484375
 21
13.031494140625
  0
LINE
  8
0
  6
CONTINUOUS
 62
     7
 10
8.800345420837402
 20
9.431324005126953
 11
12.40031623840332
 21
13.03129482269287
  0
LINE
  8
0
  6
DASHED
 62
     7
 10
-3
 20
30
 11
-3
 21
20
  0
LINE
  8
0
  6
DASHED
 62
     7
 10
3
 20
30
 11
3
 21
20
  0
LINE
  8
0
  6
CONTINUOUS
 62
     7
 10
-21
 20
7.699951171875
 11
-21
 21
27.20005798339844
  0
LINE
  8
0
  6
CONTINUOUS
 62
     7
 10
-12.39990234375
 20
13.031494140625
 11
-12.39990234375
 21
16.1533203125
  0
LINE
  8
0
  6
CONTINUOUS
 62
     7
 10
-12.39959621429443
 20
13.03125953674316
 11
-8.799693107604981
 21
9.431356430053711
  0
LINE
  8
0
  6
CONTINUOUS
 62
     7
 10
-19.00031280517578
 20
29.19973373413086
 11
-21.00027275085449
 21
27.19977569580078
  0
LINE
  8
0
  6
CONTINUOUS
 62
     7
 10
-21.19776916503906
 20
6.241156101226807
 11
-24.28861045837402
 21
17.7763786315918
  0
LINE
  8
0
  6
CENTER
 62
     7
 10
-11
 20
21.999755859375
 11
-11
 21
27.999755859375
  0
LINE
  8
0
  6
DASHED
 62
     7
 10
-29.099853515625
 20
30
 11
-29.099853515625
 21
20
  0
LINE
  8
0
  6
DASHED
 62
     7
 10
-23.89990234375
 20
30
 11
-23.89990234375
 21
20
  0
LINE
  8
0
  6
DASHED
 62
     7
 10
-29.5
 20
30
 11
-29.5
 21
20
  0
LINE
  8
0
  6
DASHED
 62
     7
 10
-23.5
 20
30
 11
-23.5
 21
20
  0
LINE
  8
0
  6
DASHED
 62
     7
 10
-4
 20
20
 11
4
 21
20
  0
LINE
  8
0
  6
CONTINUOUS
 62
     7
 10
-12.39963912963867
 20
16.153076171875
 11
-8.153006553649902
 21
20.39970970153809
  0
LINE
  8
0
  6
DASHED
 62
     7
 10
-23
 20
20
 11
-23
 21
12.964111328125
  0
LINE
  8
0
  6
CENTER
 62
     7
 10
-26.5
 20
31.5
 11
-26.5
 21
17.52099609375
  0
LINE
  8
0
  6
CONTINUOUS
 62
     7
 10
0.0008005396812222898
 20
20.38085174560547
 11
1.94818902015686
 21
21.50005531311035
  0
LINE
  8
0
  6
CONTINUOUS
 62
     7
 10
7.766775608062744
 20
21.75388908386231
 11
10.52087783813477
 21
22.49958419799805
  0
LINE
  8
0
  6
CONTINUOUS
 62
     7
 10
5.950326919555664
 20
21.96972274780273
 11
5.860320568084717
 21
21.49974822998047
  0
LINE
  8
0
  6
CONTINUOUS
 62
     7
 10
3.440544128417969
 20
24.99983978271484
 11
4.09054708480835
 21
21.4998722076416
  0
LINE
  8
0
  6
CONTINUOUS
 62
     7
 10
1.130316376686096
 20
24.99949836730957
 11
1.780349254608154
 21
21.49928855895996
  0
LINE
  8
0
  6
CONTINUOUS
 62
     7
 10
1.780029296875
 20
21.499755859375
 11
5.860107421875
 21
21.499755859375
  0
LINE
  8
0
  6
CONTINUOUS
 62
     7
 10
7.7501540184021
 20
28.24981689453125
 11
10.52028369903565
 21
27.49978446960449
  0
LINE
  8
0
  6
CONTINUOUS
 62
     7
 10
5.950588703155518
 20
28.01962089538574
 11
5.860594749450684
 21
28.49953842163086
  0
LINE
  8
0
  6
CONTINUOUS
 62
     7
 10
3.440577507019043
 20
24.99968338012695
 11
4.090580463409424
 21
28.4996509552002
  0
LINE
  8
0
  6
CONTINUOUS
 62
     7
 10
1.130185842514038
 20
24.99978256225586
 11
1.780174136161804
 21
28.49975204467773
  0
LINE
  8
0
  6
CONTINUOUS
 62
     7
 10
1.780029296875
 20
28.499755859375
 11
5.860107421875
 21
28.499755859375
  0
LINE
  8
0
  6
CONTINUOUS
 62
     7
 10
27.187255859375
 20
20
 11
31
 21
20
  0
LINE
  8
0
  6
CONTINUOUS
 62
     7
 10
21.19893074035645
 20
6.241067409515381
 11
24.28977584838867
 21
17.77630233764648
  0
LINE
  8
0
  6
CONTINUOUS
 62
     7
 10
-17.49953269958496
 20
29.49969863891602
 11
-17.99947929382324
 21
29.9996452331543
  0
LINE
  8
0
  6
CONTINUOUS
 62
     7
 10
7.500365257263184
 20
29.49970436096191
 11
7.000429153442383
 21
29.99964141845703
  0
LINE
  8
0
  6
CONTINUOUS
 62
     7
 10
-7.499543190002441
 20
29.49959945678711
 11
-6.999565601348877
 21
29.99957656860352
  0
LINE
  8
0
  6
CONTINUOUS
 62
     7
 10
17.50042343139648
 20
29.49954223632813
 11
18.00042343139648
 21
29.99954223632813
  0
LINE
  8
0
  6
CONTINUOUS
 62
     7
 10
18
 20
30
 11
30.7001953125
 21
30
  0
LINE
  8
0
  6
CONTINUOUS
 62
     7
 10
-7
 20
30
 11
7
 21
30
  0
LINE
  8
0
  6
CONTINUOUS
 62
     7
 10
7.5
 20
29.5
 11
17.5
 21
29.5
  0
LINE
  8
0
  6
CONTINUOUS
 62
     7
 10
-31.49962615966797
 20
20.49981880187988
 11
-30.9995059967041
 21
19.99970245361328
  0
LINE
  8
0
  6
CONTINUOUS
 62
     7
 10
31.50054550170898
 20
20.49946212768555
 11
31.00054359436035
 21
19.99946212768555
  0
LINE
  8
0
  6
CONTINUOUS
 62
     7
 10
124.60009765625
 20
149.5
 11
124.60009765625
 21
86.5
  0
LINE
  8
0
  6
CONTINUOUS
 62
     7
 10
175.400146484375
 20
149.5
 11
175.400146484375
 21
86.5
  0
LINE
  8
0
  6
CONTINUOUS
 62
     7
 10
70
 20
128
 11
70
 21
108
  0
LINE
  8
0
  6
CONTINUOUS
 62
     7
 10
124.60009765625
 20
149.5
 11
175.400146484375
 21
149.5
  0
LINE
  8
0
  6
CONTINUOUS
 62
     7
 10
124.60009765625
 20
135.5
 11
175.400146484375
 21
135.5
  0
LINE
  8
0
  6
CONTINUOUS
 62
     7
 10
124.60009765625
 20
125.5
 11
175.400146484375
 21
125.5
  0
LINE
  8
0
  6
CONTINUOUS
 62
     7
 10
116.000244140625
 20
139
 11
116.000244140625
 21
97
  0
LINE
  8
0
  6
CONTINUOUS
 62
     7
 10
115.000244140625
 20
139
 11
115.000244140625
 21
97
  0
LINE
  8
0
  6
CONTINUOUS
 62
     7
 10
113.000244140625
 20
128.39990234375
 11
113.000244140625
 21
107.60009765625
  0
LINE
  8
0
  6
CONTINUOUS
 62
     7
 10
115.000244140625
 20
139
 11
124.60009765625
 21
139
  0
LINE
  8
0
  6
CONTINUOUS
 62
     7
 10
113.0002517700195
 20
128.3999176025391
 11
115.000244140625
 21
130.39990234375
  0
LINE
  8
0
  6
CONTINUOUS
 62
     7
 10
70
 20
128
 11
113.000244140625
 21
128
  0
LINE
  8
0
  6
CONTINUOUS
 62
     7
 10
70
 20
125.159912109375
 11
113.000244140625
 21
125.159912109375
  0
LINE
  8
0
  6
CONTINUOUS
 62
     7
 10
113.0002517700195
 20
107.6001052856445
 11
115.0002517700195
 21
105.6001052856445
  0
LINE
  8
0
  6
CONTINUOUS
 62
     7
 10
115.000244140625
 20
97
 11
124.60009765625
 21
97
  0
LINE
  8
0
  6
CONTINUOUS
 62
     7
 10
70
 20
110.840087890625
 11
103.6508636474609
 21
110.840087890625
  0
LINE
  8
0
  6
CONTINUOUS
 62
     7
 10
70
 20
108
 11
104.6380920410156
 21
108
  0
LINE
  8
0
  6
CONTINUOUS
 62
     7
 10
230
 20
128
 11
230
 21
108
  0
LINE
  8
0
  6
CONTINUOUS
 62
     7
 10
124.60009765625
 20
110.5
 11
175.400146484375
 21
110.5
  0
LINE
  8
0
  6
CONTINUOUS
 62
     7
 10
124.60009765625
 20
100.5
 11
175.400146484375
 21
100.5
  0
LINE
  8
0
  6
CONTINUOUS
 62
     7
 10
124.60009765625
 20
86.5
 11
175.400146484375
 21
86.5
  0
LINE
  8
0
  6
CONTINUOUS
 62
     7
 10
230.000244140625
 20
108
 11
187
 21
108
  0
LINE
  8
0
  6
CONTINUOUS
 62
     7
 10
184
 20
139
 11
184
 21
97
  0
LINE
  8
0
  6
CONTINUOUS
 62
     7
 10
185
 20
139
 11
185
 21
97
  0
LINE
  8
0
  6
CONTINUOUS
 62
     7
 10
187
 20
128.39990234375
 11
187
 21
107.60009765625
  0
LINE
  8
0
  6
CONTINUOUS
 62
     7
 10
185
 20
139
 11
175.400146484375
 21
139
  0
LINE
  8
0
  6
CONTINUOUS
 62
     7
 10
187
 20
128.39990234375
 11
185
 21
130.39990234375
  0
LINE
  8
0
  6
CONTINUOUS
 62
     7
 10
230.000244140625
 20
128
 11
187
 21
128
  0
LINE
  8
0
  6
CONTINUOUS
 62
     7
 10
230.000244140625
 20
125.159912109375
 11
187
 21
125.159912109375
  0
LINE
  8
0
  6
CONTINUOUS
 62
     7
 10
187
 20
107.6000900268555
 11
185
 21
105.6000900268555
  0
LINE
  8
0
  6
CONTINUOUS
 62
     7
 10
185
 20
97
 11
175.400146484375
 21
97
  0
LINE
  8
0
  6
CONTINUOUS
 62
     7
 10
230.000244140625
 20
110.840087890625
 11
187
 21
110.840087890625
  0
LINE
  8
0
  6
CENTER
 62
     7
 10
210
 20
124
 11
210
 21
112
  0
LINE
  8
0
  6
CENTER
 62
     7
 10
90
 20
124
 11
90
 21
112
  0
LINE
  8
0
  6
CENTER
 62
     7
 10
150
 20
124
 11
150
 21
112
  0
LINE
  8
0
  6
CENTER
 62
     7
 10
182.271240234375
 20
129
 11
187.24560546875
 21
129
  0
LINE
  8
0
  6
CENTER
 62
     7
 10
182.271240234375
 20
107
 11
187.24560546875
 21
107
  0
LINE
  8
0
  6
CENTER
 62
     7
 10
117.728759765625
 20
129
 11
112.75439453125
 21
129
  0
LINE
  8
0
  6
CENTER
 62
     7
 10
117.728759765625
 20
107
 11
112.75439453125
 21
107
  0
LINE
  8
0
  6
CENTER
 62
     7
 10
134
 20
91.5
 11
126
 21
91.5
  0
LINE
  8
0
  6
CENTER
 62
     7
 10
130
 20
95.5
 11
130
 21
87.5
  0
LINE
  8
0
  6
CENTER
 62
     7
 10
130
 20
140.5
 11
130
 21
148.5
  0
LINE
  8
0
  6
CENTER
 62
     7
 10
134
 20
144.5
 11
126
 21
144.5
  0
LINE
  8
0
  6
CENTER
 62
     7
 10
166
 20
144.5
 11
174
 21
144.5
  0
LINE
  8
0
  6
CENTER
 62
     7
 10
170
 20
140.5
 11
170
 21
148.5
  0
LINE
  8
0
  6
CENTER
 62
     7
 10
170
 20
95.5
 11
170
 21
87.5
  0
LINE
  8
0
  6
CENTER
 62
     7
 10
166
 20
91.5
 11
174
 21
91.5
  0
LINE
  8
0
  6
CENTER
 62
     7
 10
130
 20
122
 11
130
 21
114
  0
LINE
  8
0
  6
CENTER
 62
     7
 10
170
 20
122
 11
170
 21
114
  0
LINE
  8
0
  6
CONTINUOUS
 62
     7
 10
113.0002593994141
 20
113.9999847412109
 11
113.0002593994141
 21
121.9999847412109
  0
LINE
  8
0
  6
CONTINUOUS
 62
     7
 10
109.7003479003906
 20
122
 11
113.0002593994141
 21
122
  0
LINE
  8
0
  6
CONTINUOUS
 62
     7
 10
111.3203735351563
 20
114
 11
113.0002593994141
 21
114
  0
LINE
  8
0
  6
CONTINUOUS
 62
     7
 10
105.7003479003906
 20
118
 11
105.7003479003906
 21
116.327880859375
  0
LINE
  8
0
  6
CONTINUOUS
 62
     7
 10
113.000244140625
 20
122
 11
115.000244140625
 21
122
  0
LINE
  8
0
  6
CONTINUOUS
 62
     7
 10
113.000244140625
 20
114
 11
115.000244140625
 21
114
  0
LINE
  8
0
  6
CONTINUOUS
 62
     7
 10
103.4830169677734
 20
108.4784469604492
 11
107.9176406860352
 21
106.6415634155273
  0
LINE
  8
0
  6
CONTINUOUS
 62
     7
 10
103.6847763061523
 20
111.3173446655273
 11
109.7823791503906
 21
108.7916412353516
  0
LINE
  8
0
  6
CONTINUOUS
 62
     7
 10
103.483024597168
 20
108.4784469604492
 11
103.6847915649414
 21
111.3173370361328
  0
LINE
  8
0
  6
CONTINUOUS
 62
     7
 10
107.9176635742188
 20
106.6415634155273
 11
109.7824096679688
 21
108.7916412353516
  0
LINE
  8
0
  6
CONTINUOUS
 62
     7
 10
104.4235076904297
 20
115.0381927490234
 11
104.8381729125977
 21
116.0392608642578
  0
LINE
  8
0
  6
CONTINUOUS
 62
     7
 10
111.8910980224609
 20
111.9450225830078
 11
112.3057479858398
 21
112.9460830688477
  0
LINE
  8
0
  6
CONTINUOUS
 62
     7
 10
105.6176147460938
 20
116.3620834350586
 11
104.8381805419922
 21
116.0392303466797
  0
LINE
  8
0
  6
CONTINUOUS
 62
     7
 10
106.0607833862305
 20
113.7106094360352
 11
106.9333648681641
 21
115.8171768188477
  0
LINE
  8
0
  6
CONTINUOUS
 62
     7
 10
109.7945709228516
 20
112.1640090942383
 11
110.6671447753906
 21
114.2705764770508
  0
LINE
  8
0
  6
CONTINUOUS
 62
     7
 10
105.6176071166992
 20
116.3621673583984
 11
111.98291015625
 21
113.7255706787109
  0
LINE
  8
0
  6
CONTINUOUS
 62
     7
 10
112.3057556152344
 20
112.946044921875
 11
111.9828948974609
 21
113.7255020141602
  0
LINE
  8
0
  6
CONTINUOUS
 62
     7
 10
104.6532897949219
 20
114.2935943603516
 11
111.2020874023438
 21
111.5809936523438
  0
LINE
  8
0
  6
CONTINUOUS
 62
     7
 10
110.2333068847656
 20
110.840087890625
 11
113.000244140625
 21
110.840087890625
  0
LINE
  8
0
  6
CONTINUOUS
 62
     7
 10
109.0958251953125
 20
108
 11
113.000244140625
 21
108
  0
LINE
  8
0
  6
CONTINUOUS
 62
     7
 10
70
 20
11.5956621170044
 11
113.000244140625
 21
11.5956621170044
  0
LINE
  8
0
  6
CONTINUOUS
 62
     7
 10
187
 20
11.5956621170044
 11
230
 21
11.5956621170044
  0
LINE
  8
0
  6
CENTER
 62
     7
 10
104.3592147827148
 20
104.3217239379883
 11
110.025016784668
 21
118
  0
ARC
  8
0
  6
CONTINUOUS
 62
     7
 10
20.232666015625
 20
6.5
 40
0.9999999999999998
 50
269.9994169294423
 51
344.9998937146548
  0
ARC
  8
0
  6
CONTINUOUS
 62
     7
 10
-20.232421875
 20
6.5
 40
0.9999999999999998
 50
195.0001149367672
 51
270.0006190427362
  0
ARC
  8
0
  6
CONTINUOUS
 62
     7
 10
-13.39999389648438
 20
8.5
 40
4.5
 50
253.6123724312344
 51
286.3877181824576
  0
ARC
  8
0
  6
CONTINUOUS
 62
     7
 10
-14.50009155273438
 20
4.758544921875
 40
0.5999999642372131
 50
185.0000076521949
 51
253.6124270727479
  0
ARC
  8
0
  6
CONTINUOUS
 62
     7
 10
-12.29965209960938
 20
4.758544921875
 40
0.5999999642372133
 50
286.3876635409443
 51
355.0000009992271
  0
ARC
  8
0
  6
CONTINUOUS
 62
     7
 10
130
 20
8.5
 40
4.500000000000002
 50
253.6123724312343
 51
286.3877181824577
  0
ARC
  8
0
  6
CONTINUOUS
 62
     7
 10
128.89990234375
 20
4.758544921875
 40
0.5999999642371989
 50
185.0000076521949
 51
253.6124270727472
  0
ARC
  8
0
  6
CONTINUOUS
 62
     7
 10
131.100341796875
 20
4.758544921875
 40
0.5999999642372117
 50
286.3876635409438
 51
355.0000009992272
  0
ARC
  8
0
  6
CONTINUOUS
 62
     7
 10
110.00048828125
 20
25
 40
3.999999999999998
 50
89.99998201391055
 51
118.4958044387706
  0
ARC
  8
0
  6
CONTINUOUS
 62
     7
 10
110.00048828125
 20
25
 40
3.982465744018556
 50
241.5040862782025
 51
269.9999087030625
  0
ARC
  8
0
  6
CONTINUOUS
 62
     7
 10
119.700439453125
 20
24.999755859375
 40
6.000000000000003
 50
164.5573980880427
 51
195.4430217412202
  0
ARC
  8
0
  6
CONTINUOUS
 62
     7
 10
114.688232421875
 20
26.384521484375
 40
0.7999999523162835
 50
94.99902478819979
 51
164.5576166540961
  0
ARC
  8
0
  6
CONTINUOUS
 62
     7
 10
114.688232421875
 20
23.615234375
 40
0.799999952316291
 50
195.4435308176843
 51
265.0003741551529
  0
ARC
  8
0
  6
CONTINUOUS
 62
     7
 10
-9.80126953125
 20
17.720947265625
 40
2.059999465942382
 50
279.1880430991038
 51
350.8119987926476
  0
ARC
  8
0
  6
CONTINUOUS
 62
     7
 10
9.801513671875
 20
11.27880859375
 40
2.059999465942382
 50
98.85327321608121
 51
171.1466728256508
  0
ARC
  8
0
  6
CONTINUOUS
 62
     7
 10
-9.80126953125
 20
11.27880859375
 40
2.059999465942383
 50
8.853274126697615
 51
81.14669081174013
  0
ARC
  8
0
  6
CONTINUOUS
 62
     7
 10
9.801513671875
 20
17.720947265625
 40
2.059999465942383
 50
189.1880064436799
 51
260.8120475145882
  0
ARC
  8
0
  6
CONTINUOUS
 62
     7
 10
0
 20
24.999755859375
 40
3.998106002807619
 50
61.09402038976974
 51
298.9059076658729
  0
ARC
  8
0
  6
CONTINUOUS
 62
     7
 10
7.610107421875
 20
27.289794921875
 40
0.9701611399650563
 50
81.7028867762326
 51
144.668542923126
  0
ARC
  8
0
  6
CONTINUOUS
 62
     7
 10
0
 20
24.999755859375
 40
4
 50
240.0000239814524
 51
241.0449882829511
  0
ARC
  8
0
  6
CONTINUOUS
 62
     7
 10
6.6201171875
 20
20.919921875
 40
1.246148109436035
 50
80.76452806729958
 51
142.1250351177266
  0
ARC
  8
0
  6
CONTINUOUS
 62
     7
 10
7.610107421875
 20
22.7099609375
 40
0.9683421850204466
 50
215.3314570768741
 51
278.2972225067941
  0
ARC
  8
0
  6
CONTINUOUS
 62
     7
 10
-9.80126953125
 20
11.27880859375
 40
2.059999465942383
 50
359.9999826971572
 51
0.3487052762346356
  0
ARC
  8
0
  6
CONTINUOUS
 62
     7
 10
11
 20
24.999755859375
 40
2.250000000000002
 50
268.3411016404767
 51
91.65939013314355
  0
ARC
  8
0
  6
CONTINUOUS
 62
     7
 10
27.187255859375
 20
17
 40
3.000000000000001
 50
90.00020057996406
 51
165.0001036292863
  0
ARC
  8
0
  6
CONTINUOUS
 62
     7
 10
-27.18701171875
 20
17
 40
2.999999999999999
 50
14.99988771929171
 51
89.99976344785719
  0
CIRCLE
  8
0
  6
CONTINUOUS
 62
     7
 10
-11
 20
24.999755859375
 40
2.25
  0
ARC
  8
0
  6
CONTINUOUS
 62
     7
 10
6.6201171875
 20
29.079833984375
 40
1.254199028015136
 50
217.8749648822735
 51
279.2353626496737
  0
CIRCLE
  8
0
  6
CONTINUOUS
 62
     7
 10
210
 20
118
 40
4.75
  0
CIRCLE
  8
0
  6
CONTINUOUS
 62
     7
 10
210
 20
118
 40
3
  0
CIRCLE
  8
0
  6
CONTINUOUS
 62
     7
 10
90
 20
118
 40
4.75
  0
CIRCLE
  8
0
  6
CONTINUOUS
 62
     7
 10
90
 20
118
 40
3
  0
CIRCLE
  8
0
  6
CONTINUOUS
 62
     7
 10
130
 20
91.5
 40
2.599853515625
  0
CIRCLE
  8
0
  6
CONTINUOUS
 62
     7
 10
130
 20
91.5
 40
3
  0
ARC
  8
0
  6
CONTINUOUS
 62
     7
 10
106.7335968017578
 20
110.0544738769531
 40
3.299999237060547
 50
131.5803705110074
 51
157.4999548639652
  0
ARC
  8
0
  6
CONTINUOUS
 62
     7
 10
106.7335968017578
 20
110.0544738769531
 40
3.29999923706055
 50
337.5000181569006
 51
3.419602296415172
  0
ARC
  8
0
  6
CONTINUOUS
 62
     7
 10
98.81724548339844
 20
112.9005737304688
 40
5.999999999999996
 50
2.433650829345525
 51
20.87173987704918
  0
ARC
  8
0
  6
CONTINUOUS
 62
     7
 10
114.3437805175781
 20
106.4692687988281
 40
6.000000000000004
 50
114.1278165022774
 51
132.5663219780771
  0
ARC
  8
0
  6
CONTINUOUS
 62
     7
 10
104.0125427246094
 20
113.1213684082031
 40
0.7999999523162822
 50
311.5798327472963
 51
2.433049772698627
  0
ARC
  8
0
  6
CONTINUOUS
 62
     7
 10
110.8262786865234
 20
110.2990264892578
 40
0.7999999523162843
 50
132.566977676238
 51
183.4201402735703
  0
ARC
  8
0
  6
CONTINUOUS
 62
     7
 10
109.7003479003906
 20
118
 40
3.999999999999998
 50
89.99998201391055
 51
180.0000186693347
  0
POLYLINE
  8
0
  6
CONTINUOUS
 62
     7
 66
     1
 10
0
 20
0
  0
VERTEX
  8
0
  6
CONTINUOUS
 62
     7
 10
105.7008231891786
 20
27.49999962888407
 42
0.110365009580662
  0
VERTEX
  8
0
  6
CONTINUOUS
 62
     7
 10
104.7886631144367
 20
27.2949693869273
 42
0.1024789600563691
  0
VERTEX
  8
0
  6
CONTINUOUS
 62
     7
 10
104.0412853567958
 20
26.73101197285829
 42
0.09326814393500675
  0
VERTEX
  8
0
  6
CONTINUOUS
 62
     7
 10
103.5635392212266
 20
25.92419799661215
 42
0.0877977075218225
  0
VERTEX
  8
0
  6
CONTINUOUS
 62
     7
 10
103.4004345453873
 20
25.00030061731621
 42
0.08778026578632014
  0
VERTEX
  8
0
  6
CONTINUOUS
 62
     7
 10
103.5628935433365
 20
24.07663281041236
 42
0.09328141683471466
  0
VERTEX
  8
0
  6
CONTINUOUS
 62
     7
 10
104.0400033036263
 20
23.26971530956053
 42
0.1026565764394175
  0
VERTEX
  8
0
  6
CONTINUOUS
 62
     7
 10
104.788130926044
 20
22.70488182024227
 42
0.1104388347674512
  0
VERTEX
  8
0
  6
CONTINUOUS
 62
     7
 10
105.7006968183468
 20
22.50000049213408
 42
0.110361858621414
  0
VERTEX
  8
0
  6
CONTINUOUS
 62
     7
 10
106.6127969671073
 20
22.70530361751432
 42
0.102472335814275
  0
VERTEX
  8
0
  6
CONTINUOUS
 62
     7
 10
107.3600186586902
 20
23.26946955154244
 42
0.09326283688215632
  0
VERTEX
  8
0
  6
CONTINUOUS
 62
     7
 10
107.8375606630931
 20
24.07640563226616
 42
0.08779207073301956
  0
VERTEX
  8
0
  6
CONTINUOUS
 62
     7
 10
108.0004444722046
 20
25.00030216722754
 42
0.08778216447557383
  0
VERTEX
  8
0
  6
CONTINUOUS
 62
     7
 10
107.8377781104372
 20
25.92393407248891
 42
0.09328653280507629
  0
VERTEX
  8
0
  6
CONTINUOUS
 62
     7
 10
107.3604758259301
 20
26.73073784103322
 42
0.1026628815580018
  0
VERTEX
  8
0
  6
CONTINUOUS
 62
     7
 10
106.612200574398
 20
27.29537507118396
 42
0.1104319467564695
  0
VERTEX
  8
0
  6
CONTINUOUS
 62
     7
 10
105.6996605968783
 20
27.49999926616538
 42
0
  0
SEQEND
  8
0
  0
POLYLINE
  8
0
  6
CONTINUOUS
 62
     7
 66
     1
 10
0
 20
0
  0
VERTEX
  8
0
  6
CONTINUOUS
 62
     7
 10
104.5764686965265
 20
22.81888789175595
 42
0.07630190708974703
  0
VERTEX
  8
0
  6
CONTINUOUS
 62
     7
 10
105.2726898281301
 20
22.20305345788776
 42
0.08143622803162352
  0
VERTEX
  8
0
  6
CONTINUOUS
 62
     7
 10
106.1252078991893
 20
21.83341826083161
 42
0.08415273517637231
  0
VERTEX
  8
0
  6
CONTINUOUS
 62
     7
 10
107.0501959618571
 20
21.76127539946253
 42
0.08297894318145373
  0
VERTEX
  8
0
  6
CONTINUOUS
 62
     7
 10
107.9467560881185
 20
21.99657229390004
 42
0.07874694083709873
  0
VERTEX
  8
0
  6
CONTINUOUS
 62
     7
 10
108.7233921574108
 20
22.50536250390945
 42
0.07339791825862806
  0
VERTEX
  8
0
  6
CONTINUOUS
 62
     7
 10
109.3127066749818
 20
23.22353124511751
 42
0.0690485000528831
  0
VERTEX
  8
0
  6
CONTINUOUS
 62
     7
 10
109.6774956542267
 20
24.07877888602606
 42
0.06663764420351791
  0
VERTEX
  8
0
  6
CONTINUOUS
 62
     7
 10
109.800537109375
 20
25
 42
0.06668426207805445
  0
VERTEX
  8
0
  6
CONTINUOUS
 62
     7
 10
109.6773259006385
 20
25.92184306039911
 42
0.06900222368816203
  0
VERTEX
  8
0
  6
CONTINUOUS
 62
     7
 10
109.3127029384574
 20
26.77647495616916
 42
0.07342842442257769
  0
VERTEX
  8
0
  6
CONTINUOUS
 62
     7
 10
108.7231082643494
 20
27.49489427725981
 42
0.07883889033829475
  0
VERTEX
  8
0
  6
CONTINUOUS
 62
     7
 10
107.9454697688899
 20
28.00400346082576
 42
0.08315207019168446
  0
VERTEX
  8
0
  6
CONTINUOUS
 62
     7
 10
107.0469528343567
 20
28.23901608215666
 42
0.08411269074637465
  0
VERTEX
  8
0
  6
CONTINUOUS
 62
     7
 10
106.1224436034445
 20
28.1658883635805
 42
0.08133241929168604
  0
VERTEX
  8
0
  6
CONTINUOUS
 62
     7
 10
105.2711838120574
 20
27.79598040646748
 42
0.07622880143590693
  0
VERTEX
  8
0
  6
CONTINUOUS
 62
     7
 10
104.5758298492465
 20
27.18034734075437
 42
0
  0
SEQEND
  8
0
  0
POLYLINE
  8
0
  6
CONTINUOUS
 62
     7
 66
     1
 10
0
 20
0
  0
VERTEX
  8
0
  6
CONTINUOUS
 62
     7
 10
7.75
 20
28.24975395202637
 42
0.188653879077587
  0
VERTEX
  8
0
  6
CONTINUOUS
 62
     7
 10
7.335175390286182
 20
28.06557224224116
 42
0.07588972356922946
  0
VERTEX
  8
0
  6
CONTINUOUS
 62
     7
 10
7.053714365917503
 20
27.69885682043819
 42
0.03946222109016827
  0
VERTEX
  8
0
  6
CONTINUOUS
 62
     7
 10
6.858295407475517
 20
27.27733332403972
 42
0.02589539331202534
  0
VERTEX
  8
0
  6
CONTINUOUS
 62
     7
 10
6.71812965265258
 20
26.83407637756526
 42
0.01963290689452269
  0
VERTEX
  8
0
  6
CONTINUOUS
 62
     7
 10
6.618197587512095
 20
26.37927827364985
 42
0.01635593363660339
  0
VERTEX
  8
0
  6
CONTINUOUS
 62
     7
 10
6.550968866635267
 20
25.91833995778438
 42
0.01463209101589745
  0
VERTEX
  8
0
  6
CONTINUOUS
 62
     7
 10
6.512274108170516
 20
25.45406629269596
 42
0.0138837505171675
  0
VERTEX
  8
0
  6
CONTINUOUS
 62
     7
 10
6.500008646533127
 20
24.98835371640857
 42
0.01386094835505463
  0
VERTEX
  8
0
  6
CONTINUOUS
 62
     7
 10
6.513465480102913
 20
24.52401973007272
 42
0.01467184224713936
  0
VERTEX
  8
0
  6
CONTINUOUS
 62
     7
 10
6.553361348981017
 20
24.06031860204681
 42
0.0165063076357382
  0
VERTEX
  8
0
  6
CONTINUOUS
 62
     7
 10
6.622158521134042
 20
23.59847568111078
 42
0.01985511850623389
  0
VERTEX
  8
0
  6
CONTINUOUS
 62
     7
 10
6.723849102198176
 20
23.14387276684302
 42
0.026391242657857
  0
VERTEX
  8
0
  6
CONTINUOUS
 62
     7
 10
6.866594799244363
 20
22.70041906273344
 42
0.04065092082719515
  0
VERTEX
  8
0
  6
CONTINUOUS
 62
     7
 10
7.066024058445705
 20
22.27946130475417
 42
0.07989316283475619
  0
VERTEX
  8
0
  6
CONTINUOUS
 62
     7
 10
7.355351921681699
 20
21.91598595491222
 42
0.1977479474316519
  0
VERTEX
  8
0
  6
CONTINUOUS
 62
     7
 10
7.777835862301849
 20
21.75056369601612
 42
0
  0
SEQEND
  8
0
  0
POLYLINE
  8
0
  6
CONTINUOUS
 62
     7
 66
     1
 10
0
 20
0
 70
     1
  0
VERTEX
  8
0
  6
CONTINUOUS
 62
     7
 10
10.52001953125
 20
27.499755859375
 42
0.2551593881785776
  0
VERTEX
  8
0
  6
CONTINUOUS
 62
     7
 10
9.990209813806334
 20
27.07486778808099
 42
0.06319140867237323
  0
VERTEX
  8
0
  6
CONTINUOUS
 62
     7
 10
9.736114987413737
 20
26.41198115231343
 42
0.03518639123877099
  0
VERTEX
  8
0
  6
CONTINUOUS
 62
     7
 10
9.609385579031445
 20
25.71193144229168
 42
0.02798531179730644
  0
VERTEX
  8
0
  6
CONTINUOUS
 62
     7
 10
9.570023536682131
 20
24.999755859375
 42
0.02789941699417897
  0
VERTEX
  8
0
  6
CONTINUOUS
 62
     7
 10
9.609156900927276
 20
24.28960838509159
 42
0.0351601721127326
  0
VERTEX
  8
0
  6
CONTINUOUS
 62
     7
 10
9.735650462153698
 20
23.5893179122792
 42
0.06315573297802309
  0
VERTEX
  8
0
  6
CONTINUOUS
 62
     7
 10
9.989682114029796
 20
22.92557764860351
 42
0.2552846668092579
  0
VERTEX
  8
0
  6
CONTINUOUS
 62
     7
 10
10.52001953125
 20
22.499755859375
 42
0.25515938817852
  0
VERTEX
  8
0
  6
CONTINUOUS
 62
     7
 10
11.04982924869367
 20
22.92464393066901
 42
0.06319140867236821
  0
VERTEX
  8
0
  6
CONTINUOUS
 62
     7
 10
11.30392407508626
 20
23.58753056643658
 42
0.03518639123876276
  0
VERTEX
  8
0
  6
CONTINUOUS
 62
     7
 10
11.43065348346856
 20
24.28758027645832
 42
0.02798531179730977
  0
VERTEX
  8
0
  6
CONTINUOUS
 62
     7
 10
11.47001552581787
 20
24.999755859375
 42
0.02789941699418513
  0
VERTEX
  8
0
  6
CONTINUOUS
 62
     7
 10
11.43088216157272
 20
25.70990333365841
 42
0.03516017211274189
  0
VERTEX
  8
0
  6
CONTINUOUS
 62
     7
 10
11.3043886003463
 20
26.4101938064708
 42
0.06315573297804027
  0
VERTEX
  8
0
  6
CONTINUOUS
 62
     7
 10
11.0503569484702
 20
27.0739340701465
 42
0.255284666809156
  0
SEQEND
  8
0
  0
TEXT
  8
0
  6
CONTINUOUS
 62
     7
 10
-1.284999847412109
 20
-11.79999971389771
 40
3.59999942779541
 41
1.006159424033143
  1
HSR20CAM
  0
ENDSEC
  0
EOF
