  0
SECTION
  2
HEADER
  0
ENDSEC
  0
SECTION
  2
TABLES
  0
TABLE
  2
LTYPE
 70
    22
  0
LTYPE
  2
CONTINUOUS
 70
    64
  3
Solid line
 72
    65
 73
     0
 40
0.000000
  0
LTYPE
  2
DASHED
 70
    64
  3
__ __ __ __ __ __ __ __ __ __ __ __ __ __ __
 72
    65
 73
     2
 40
3.500000
 49
2.000000
 49
-1.500000
  0
LTYPE
  2
CENTER
 70
    64
  3
____ _ ____ _ ____ _ ____ _ ____ _ ____ _ ____
 72
    65
 73
     4
 40
17.500000
 49
13.000000
 49
-1.500000
 49
1.500000
 49
-1.500000
  0
LTYPE
  2
PHANTOM
 70
    64
  3
_____ _ _ _____ _ _ _____ _ _ _____ _ _ ____  
 72
    65
 73
     6
 40
15.500000
 49
8.000000
 49
-1.500000
 49
1.500000
 49
-1.500000
 49
1.500000
 49
-1.500000
  0
LTYPE
  2
DOT
 70
    64
  3
. . . . . . . . . . . . . . . . . . . . . . . .
 72
    65
 73
     2
 40
0.25
 49
0.0
 49
-0.25
  0
ENDTAB
  0
TABLE
  2
LAYER
 70
     1
  0
LAYER
  2
0
 70
     0
 62
     7
  6
CONTINUOUS
  0
ENDTAB
  0
TABLE
  2
STYLE
 70
     1
  0
STYLE
  2
STANDARD
 70
     0
 40
0.000000
 41
1.000000
 50
0.000000
 71
     0
 42
0.200000
  3
txt
  4
BIGFONT
  0
ENDTAB
  0
TABLE
  2
VIEW
 70
     0
  0
ENDTAB
  0
ENDSEC
  0
SECTION
  2
BLOCKS
  0
ENDSEC
  0
SECTION
  2
ENTITIES
  0
LINE
  8
0
  6
CENTER
 62
     7
 10
-15.599853515625
 20
8.5
 11
-15.599853515625
 21
4.5
  0
LINE
  8
0
  6
CENTER
 62
     7
 10
15.60009765625
 20
8.5
 11
15.60009765625
 21
4.5
  0
LINE
  8
0
  6
CONTINUOUS
 62
     7
 10
10
 20
0
 11
2.25
 21
0
  0
LINE
  8
0
  6
CONTINUOUS
 62
     7
 10
-8.409912109375
 20
22
 11
8.41015625
 21
22
  0
LINE
  8
0
  6
CONTINUOUS
 62
     7
 10
-11.5
 20
18.909912109375
 11
-11.5
 21
17.079833984375
  0
LINE
  8
0
  6
CONTINUOUS
 62
     7
 10
11.5
 20
18.909912109375
 11
11.5
 21
17.079833984375
  0
LINE
  8
0
  6
CONTINUOUS
 62
     7
 10
7.800048828125
 20
13.3798828125
 11
7.800048828125
 21
9.7998046875
  0
LINE
  8
0
  6
CONTINUOUS
 62
     7
 10
-7.7998046875
 20
13.3798828125
 11
-7.7998046875
 21
9.7998046875
  0
LINE
  8
0
  6
CONTINUOUS
 62
     7
 10
-11.49924945831299
 20
18.90958213806152
 11
-11.07819557189941
 21
19.33063507080078
  0
LINE
  8
0
  6
CONTINUOUS
 62
     7
 10
-11.49925994873047
 20
6.099475860595703
 11
-7.799206256866455
 21
9.799529075622559
  0
LINE
  8
0
  6
CONTINUOUS
 62
     7
 10
7.800484657287598
 20
13.37978649139404
 11
9.034123420715332
 21
14.61342525482178
  0
LINE
  8
0
  6
CONTINUOUS
 62
     7
 10
8.410712242126465
 20
21.99955940246582
 11
9.036163330078125
 21
21.37410926818848
  0
LINE
  8
0
  6
CONTINUOUS
 62
     7
 10
7.800473690032959
 20
9.799745559692383
 11
11.5003547668457
 21
6.099864482879639
  0
LINE
  8
0
  6
CONTINUOUS
 62
     7
 10
-11.49942207336426
 20
17.07949447631836
 11
-11.09028053283691
 21
16.67035293579102
  0
LINE
  8
0
  6
CONTINUOUS
 62
     7
 10
-11.5
 20
6.099853515625
 11
-11.5
 21
1.5
  0
LINE
  8
0
  6
CONTINUOUS
 62
     7
 10
11.5
 20
6.099853515625
 11
11.5
 21
1.5
  0
LINE
  8
0
  6
CONTINUOUS
 62
     7
 10
-11.49907398223877
 20
1.499379634857178
 11
-9.999061584472656
 21
-0.0006327928276732564
  0
LINE
  8
0
  6
CONTINUOUS
 62
     7
 10
11.50039577484131
 20
1.499772787094116
 11
10.0003833770752
 21
-0.0002396469644736499
  0
LINE
  8
0
  6
CONTINUOUS
 62
     7
 10
-9.03300666809082
 20
14.61308002471924
 11
-7.799411296844482
 21
13.37948417663574
  0
LINE
  8
0
  6
CONTINUOUS
 62
     7
 10
-9.034906387329102
 20
21.37392616271973
 11
-8.409281730651856
 21
21.99954986572266
  0
LINE
  8
0
  6
CONTINUOUS
 62
     7
 10
11.07962512969971
 20
19.33064651489258
 11
11.50067806243897
 21
18.90959358215332
  0
LINE
  8
0
  6
CONTINUOUS
 62
     7
 10
11.09139728546143
 20
16.67069816589356
 11
11.50036525726318
 21
17.07966804504395
  0
LINE
  8
0
  6
CONTINUOUS
 62
     7
 10
-1.75
 20
0.5
 11
1.75
 21
0.5
  0
LINE
  8
0
  6
CONTINUOUS
 62
     7
 10
-2.249547004699707
 20
-0.0003450984077062458
 11
-1.749427676200867
 21
0.4997741281986237
  0
LINE
  8
0
  6
CONTINUOUS
 62
     7
 10
1.750349521636963
 20
0.4999682903289795
 11
2.250468730926514
 21
-0.0001508857239969075
  0
LINE
  8
0
  6
CONTINUOUS
 62
     7
 10
-2.249755859375
 20
0
 11
-9.99969482421875
 21
0
  0
LINE
  8
0
  6
CONTINUOUS
 62
     7
 10
35
 20
34.499755859375
 11
35
 21
26
  0
LINE
  8
0
  6
CONTINUOUS
 62
     7
 10
-35
 20
34.499755859375
 11
-35
 21
26
  0
LINE
  8
0
  6
CENTER
 62
     7
 10
-5
 20
30
 11
13.644287109375
 21
30
  0
LINE
  8
0
  6
CONTINUOUS
 62
     7
 10
-21.500244140625
 20
7.5
 11
-10.099853515625
 21
7.5
  0
LINE
  8
0
  6
CONTINUOUS
 62
     7
 10
10.10021877288818
 20
7.5
 11
21.50048828125
 21
7.5
  0
LINE
  8
0
  6
CONTINUOUS
 62
     7
 10
-33.5
 20
36
 11
-20.699951171875
 21
36
  0
LINE
  8
0
  6
CONTINUOUS
 62
     7
 10
-20
 20
35.2998046875
 11
-9
 21
35.2998046875
  0
LINE
  8
0
  6
CONTINUOUS
 62
     7
 10
33.50040054321289
 20
35.99965667724609
 11
35.0002326965332
 21
34.49980926513672
  0
LINE
  8
0
  6
CONTINUOUS
 62
     7
 10
-33.4992561340332
 20
35.99942398071289
 11
-34.9992561340332
 21
34.4994010925293
  0
LINE
  8
0
  6
CONTINUOUS
 62
     7
 10
34
 20
24.267822265625
 11
34
 21
21
  0
LINE
  8
0
  6
CONTINUOUS
 62
     7
 10
-34
 20
24.267822265625
 11
-34
 21
21
  0
LINE
  8
0
  6
CONTINUOUS
 62
     7
 10
9
 20
35.2998046875
 11
20
 21
35.2998046875
  0
LINE
  8
0
  6
CONTINUOUS
 62
     7
 10
-8.2998046875
 20
36
 11
8.300048828125
 21
36
  0
LINE
  8
0
  6
CONTINUOUS
 62
     7
 10
20.7001953125
 20
36
 11
33.5
 21
36
  0
LINE
  8
0
  6
CONTINUOUS
 62
     7
 10
20.00069236755371
 20
35.29951095581055
 11
20.70072174072266
 21
35.99953842163086
  0
LINE
  8
0
  6
CONTINUOUS
 62
     7
 10
-8.999364852905273
 20
35.29938888549805
 11
-8.299331665039063
 21
35.99941253662109
  0
LINE
  8
0
  6
CONTINUOUS
 62
     7
 10
9.000609397888184
 20
35.29966735839844
 11
8.300577163696289
 21
35.99969100952148
  0
LINE
  8
0
  6
CONTINUOUS
 62
     7
 10
-19.99916839599609
 20
35.29928207397461
 11
-20.69919776916504
 21
35.99930953979492
  0
LINE
  8
0
  6
CONTINUOUS
 62
     7
 10
24.45524787902832
 20
9.979028701782227
 11
25.7944278717041
 21
17.57394790649414
  0
LINE
  8
0
  6
CONTINUOUS
 62
     7
 10
-24.45414924621582
 20
9.979013442993164
 11
-25.78399848937988
 21
17.52100372314453
  0
LINE
  8
0
  6
CONTINUOUS
 62
     7
 10
28.739013671875
 20
20
 11
33
 21
20
  0
LINE
  8
0
  6
CONTINUOUS
 62
     7
 10
1.780029296875
 20
33.5
 11
5.860107421875
 21
33.5
  0
LINE
  8
0
  6
CONTINUOUS
 62
     7
 10
1.780029296875
 20
26.5
 11
5.860107421875
 21
26.5
  0
LINE
  8
0
  6
CONTINUOUS
 62
     7
 10
1.130476593971252
 20
29.9998722076416
 11
1.780464768409729
 21
26.49990081787109
  0
LINE
  8
0
  6
CONTINUOUS
 62
     7
 10
1.130568623542786
 20
29.99990272521973
 11
1.780557632446289
 21
33.4998779296875
  0
LINE
  8
0
  6
CONTINUOUS
 62
     7
 10
3.440183639526367
 20
29.99989318847656
 11
4.090183734893799
 21
26.49993896484375
  0
LINE
  8
0
  6
CONTINUOUS
 62
     7
 10
3.440591335296631
 20
29.9998779296875
 11
4.090593814849854
 21
33.49984359741211
  0
LINE
  8
0
  6
CONTINUOUS
 62
     7
 10
5.950414657592773
 20
26.96993637084961
 11
5.860408306121826
 21
26.49996185302734
  0
LINE
  8
0
  6
CONTINUOUS
 62
     7
 10
5.950682640075684
 20
33.01995849609375
 11
5.860689163208008
 21
33.49987411499023
  0
LINE
  8
0
  6
CONTINUOUS
 62
     7
 10
7.766578197479248
 20
26.75425720214844
 11
10.52044677734375
 21
27.49988746643066
  0
LINE
  8
0
  6
CONTINUOUS
 62
     7
 10
7.750794410705566
 20
33.24971008300781
 11
10.52045249938965
 21
32.49980163574219
  0
LINE
  8
0
  6
CONTINUOUS
 62
     7
 10
0.0008532368810847402
 20
25.3808765411377
 11
1.9480299949646
 21
26.49995803833008
  0
LINE
  8
0
  6
CONTINUOUS
 62
     7
 10
0.0001089733050321229
 20
34.61901092529297
 11
1.938517451286316
 21
33.49987030029297
  0
LINE
  8
0
  6
CONTINUOUS
 62
     7
 10
-17.7998046875
 20
7.39990234375
 11
-11.39990234375
 21
7.39990234375
  0
LINE
  8
0
  6
CONTINUOUS
 62
     7
 10
-17.7998046875
 20
7.5
 11
-17.7998046875
 21
7.39990234375
  0
LINE
  8
0
  6
CONTINUOUS
 62
     7
 10
11.400146484375
 20
7.39990234375
 11
17.800048828125
 21
7.39990234375
  0
LINE
  8
0
  6
CONTINUOUS
 62
     7
 10
17.800048828125
 20
7.39990234375
 11
17.800048828125
 21
7.5
  0
LINE
  8
0
  6
CONTINUOUS
 62
     7
 10
23
 20
33.499755859375
 11
23
 21
9
  0
LINE
  8
0
  6
CONTINUOUS
 62
     7
 10
-21.50018119812012
 20
35
 11
21.5
 21
35
  0
LINE
  8
0
  6
CONTINUOUS
 62
     7
 10
21.50075340270996
 20
34.99942398071289
 11
23.00058746337891
 21
33.49958038330078
  0
LINE
  8
0
  6
CONTINUOUS
 62
     7
 10
23.00042343139648
 20
8.999764442443848
 11
21.50040817260742
 21
7.499755859375
  0
LINE
  8
0
  6
CONTINUOUS
 62
     7
 10
-9.527587890625
 20
24.699951171875
 11
9.52783203125
 21
24.699951171875
  0
LINE
  8
0
  6
CONTINUOUS
 62
     7
 10
10.35060501098633
 20
11.04235076904297
 11
13.89304447174072
 21
7.499911308288574
  0
LINE
  8
0
  6
CONTINUOUS
 62
     7
 10
10.35009765625
 20
12.30712890625
 11
10.35009765625
 21
11.04248046875
  0
LINE
  8
0
  6
CONTINUOUS
 62
     7
 10
10.35062599182129
 20
12.30704212188721
 11
14.20052623748779
 21
16.15694046020508
  0
LINE
  8
0
  6
CONTINUOUS
 62
     7
 10
9.528351783752441
 20
24.69955825805664
 11
14.20050430297852
 21
20.02740669250488
  0
LINE
  8
0
  6
CONTINUOUS
 62
     7
 10
-33
 20
20
 11
-28.73876953125
 21
20
  0
LINE
  8
0
  6
CONTINUOUS
 62
     7
 10
-23
 20
9
 11
-23
 21
33.50016784667969
  0
LINE
  8
0
  6
CONTINUOUS
 62
     7
 10
-21.49932289123535
 20
7.499572277069092
 11
-22.99934005737305
 21
8.999580383300781
  0
LINE
  8
0
  6
CENTER
 62
     7
 10
-10
 20
33.75
 11
-10
 21
26.25
  0
LINE
  8
0
  6
CONTINUOUS
 62
     7
 10
-13.89194965362549
 20
7.499544143676758
 11
-10.34933757781982
 21
11.04215621948242
  0
LINE
  8
0
  6
CONTINUOUS
 62
     7
 10
-10.349853515625
 20
11.04248046875
 11
-10.349853515625
 21
12.30712890625
  0
LINE
  8
0
  6
CONTINUOUS
 62
     7
 10
-14.19962501525879
 20
16.15715599060059
 11
-10.34938049316406
 21
12.30691242218018
  0
LINE
  8
0
  6
CONTINUOUS
 62
     7
 10
-14.19908618927002
 20
20.02740478515625
 11
-9.526932716369629
 21
24.69955825805664
  0
LINE
  8
0
  6
CENTER
 62
     7
 10
-28.5
 20
16.161376953125
 11
-28.5
 21
37
  0
LINE
  8
0
  6
CONTINUOUS
 62
     7
 10
-3.997750997543335
 20
32.31089782714844
 11
-0.000206343422178179
 21
34.61888122558594
  0
LINE
  8
0
  6
CONTINUOUS
 62
     7
 10
-3.997475624084473
 20
27.68913269042969
 11
0.001126197748817504
 21
25.38053894042969
  0
LINE
  8
0
  6
CONTINUOUS
 62
     7
 10
-3.998046875
 20
32.31103515625
 11
-3.998046875
 21
27.689453125
  0
LINE
  8
0
  6
CONTINUOUS
 62
     7
 10
-13.90130043029785
 20
6.206419944763184
 11
-13.84936046600342
 21
7.39995288848877
  0
LINE
  8
0
  6
CONTINUOUS
 62
     7
 10
-17.34916305541992
 20
7.399990081787109
 11
-17.29720115661621
 21
6.20621395111084
  0
LINE
  8
0
  6
CENTER
 62
     7
 10
28.5
 20
37
 11
28.5
 21
16.161376953125
  0
LINE
  8
0
  6
CENTER
 62
     7
 10
-13.75
 20
30
 11
-6.25
 21
30
  0
LINE
  8
0
  6
DASHED
 62
     7
 10
-5.5
 20
22
 11
-5.5
 21
13
  0
LINE
  8
0
  6
DASHED
 62
     7
 10
5.5
 20
22
 11
5.5
 21
13
  0
LINE
  8
0
  6
DASHED
 62
     7
 10
3.5
 20
13
 11
3.5
 21
0
  0
LINE
  8
0
  6
DASHED
 62
     7
 10
-3.5
 20
13
 11
-3.5
 21
0
  0
LINE
  8
0
  6
DASHED
 62
     7
 10
-5.5
 20
13
 11
5.5
 21
13
  0
LINE
  8
0
  6
CENTER
 62
     7
 10
0
 20
37
 11
0
 21
-1
  0
LINE
  8
0
  6
CONTINUOUS
 62
     7
 10
-14.199951171875
 20
16.1572265625
 11
-14.199951171875
 21
20.027587890625
  0
LINE
  8
0
  6
CONTINUOUS
 62
     7
 10
14.2001953125
 20
20.02734375
 11
14.2001953125
 21
16.15673828125
  0
LINE
  8
0
  6
CENTER
 62
     7
 10
156.9999694824219
 20
8.5
 11
156.9999694824219
 21
4.5
  0
LINE
  8
0
  6
CONTINUOUS
 62
     7
 10
227.7500152587891
 20
7.5
 11
227.7500152587891
 21
35
  0
LINE
  8
0
  6
CONTINUOUS
 62
     7
 10
231.2500152587891
 20
7.5
 11
231.2500152587891
 21
22.699951171875
  0
LINE
  8
0
  6
CONTINUOUS
 62
     7
 10
229.2500152587891
 20
7.5
 11
229.2500152587891
 21
35
  0
LINE
  8
0
  6
CONTINUOUS
 62
     7
 10
227.7500152587891
 20
35
 11
229.2500152587891
 21
35
  0
LINE
  8
0
  6
CONTINUOUS
 62
     7
 10
227.7500152587891
 20
7.5
 11
231.2500152587891
 21
7.5
  0
LINE
  8
0
  6
CONTINUOUS
 62
     7
 10
229.2501068115234
 20
24.69990348815918
 11
231.2500610351563
 21
22.6999454498291
  0
LINE
  8
0
  6
CONTINUOUS
 62
     7
 10
219.2999725341797
 20
35
 11
226.7500152587891
 21
35
  0
LINE
  8
0
  6
CONTINUOUS
 62
     7
 10
219.2999725341797
 20
7.5
 11
227.7500152587891
 21
7.5
  0
LINE
  8
0
  6
CONTINUOUS
 62
     7
 10
227.7502593994141
 20
33.99981307983398
 11
226.7501831054688
 21
34.99987030029297
  0
LINE
  8
0
  6
CONTINUOUS
 62
     7
 10
158.6983184814453
 20
6.206201076507568
 11
158.759033203125
 21
7.5
  0
LINE
  8
0
  6
CONTINUOUS
 62
     7
 10
155.2415313720703
 20
7.500000476837158
 11
155.30224609375
 21
6.206148147583008
  0
LINE
  8
0
  6
CENTER
 62
     7
 10
117.55029296875
 20
29.999755859375
 11
133.478759765625
 21
29.999755859375
  0
LINE
  8
0
  6
CONTINUOUS
 62
     7
 10
128.750244140625
 20
25.8798828125
 11
128.750244140625
 21
34.119873046875
  0
LINE
  8
0
  6
CONTINUOUS
 62
     7
 10
125.750244140625
 20
33.999755859375
 11
128.750244140625
 21
33.999755859375
  0
LINE
  8
0
  6
CONTINUOUS
 62
     7
 10
130.750244140625
 20
34.619873046875
 11
129.250244140625
 21
34.619873046875
  0
LINE
  8
0
  6
CONTINUOUS
 62
     7
 10
130.48095703125
 20
32.309814453125
 11
129.250244140625
 21
32.309814453125
  0
LINE
  8
0
  6
CONTINUOUS
 62
     7
 10
130.750244140625
 20
25.3798828125
 11
129.250244140625
 21
25.3798828125
  0
LINE
  8
0
  6
CONTINUOUS
 62
     7
 10
130.48095703125
 20
27.68994140625
 11
129.250244140625
 21
27.68994140625
  0
LINE
  8
0
  6
CONTINUOUS
 62
     7
 10
129.2499694824219
 20
25.37990760803223
 11
128.7500305175781
 21
25.87985420227051
  0
LINE
  8
0
  6
CONTINUOUS
 62
     7
 10
128.7501983642578
 20
34.11981582641602
 11
129.2501373291016
 21
34.6197624206543
  0
LINE
  8
0
  6
CONTINUOUS
 62
     7
 10
126.85009765625
 20
26.499755859375
 11
121.650146484375
 21
26.499755859375
  0
LINE
  8
0
  6
CONTINUOUS
 62
     7
 10
126.85009765625
 20
26.4599609375
 11
126.85009765625
 21
26.499755859375
  0
LINE
  8
0
  6
CONTINUOUS
 62
     7
 10
128.3503570556641
 20
29.99998664855957
 11
126.8503723144531
 21
26.50000953674316
  0
LINE
  8
0
  6
CONTINUOUS
 62
     7
 10
127.4503631591797
 20
29.99978446960449
 11
125.850456237793
 21
26.49999809265137
  0
LINE
  8
0
  6
CONTINUOUS
 62
     7
 10
121.6501541137695
 20
26.4998722076416
 11
121.2501373291016
 21
27.07990264892578
  0
LINE
  8
0
  6
CONTINUOUS
 62
     7
 10
121.6504058837891
 20
33.49966049194336
 11
121.2503890991211
 21
32.91962814331055
  0
LINE
  8
0
  6
CONTINUOUS
 62
     7
 10
126.85009765625
 20
33.499755859375
 11
121.650146484375
 21
33.499755859375
  0
LINE
  8
0
  6
CONTINUOUS
 62
     7
 10
127.4501037597656
 20
29.99988746643066
 11
125.85009765625
 21
33.49989700317383
  0
LINE
  8
0
  6
CONTINUOUS
 62
     7
 10
128.35009765625
 20
29.99995613098145
 11
126.8501052856445
 21
33.49993515014648
  0
LINE
  8
0
  6
CONTINUOUS
 62
     7
 10
125.750244140625
 20
25.999755859375
 11
128.750244140625
 21
25.999755859375
  0
LINE
  8
0
  6
CENTER
 62
     7
 10
225.6313629150391
 20
30
 11
231.8421783447266
 21
30
  0
LINE
  8
0
  6
CONTINUOUS
 62
     7
 10
230.1999664306641
 20
28.5
 11
230.1999664306641
 21
31.499755859375
  0
LINE
  8
0
  6
CONTINUOUS
 62
     7
 10
132.2499694824219
 20
35
 11
132.2499694824219
 21
7.5
  0
LINE
  8
0
  6
CONTINUOUS
 62
     7
 10
128.7499694824219
 20
22.699951171875
 11
128.7499694824219
 21
7.5
  0
LINE
  8
0
  6
CONTINUOUS
 62
     7
 10
130.7499694824219
 20
35
 11
130.7499694824219
 21
7.5
  0
LINE
  8
0
  6
CONTINUOUS
 62
     7
 10
130.7499694824219
 20
35
 11
132.2499694824219
 21
35
  0
LINE
  8
0
  6
CONTINUOUS
 62
     7
 10
128.7499694824219
 20
7.5
 11
132.2499694824219
 21
7.5
  0
LINE
  8
0
  6
CONTINUOUS
 62
     7
 10
128.7500457763672
 20
22.69990158081055
 11
130.7500152587891
 21
24.69985961914063
  0
LINE
  8
0
  6
CONTINUOUS
 62
     7
 10
133.2499694824219
 20
35
 11
140.6999664306641
 21
35
  0
LINE
  8
0
  6
CONTINUOUS
 62
     7
 10
132.2499694824219
 20
7.5
 11
140.6999664306641
 21
7.5
  0
LINE
  8
0
  6
CONTINUOUS
 62
     7
 10
133.2499389648438
 20
34.99985504150391
 11
132.2498626708984
 21
33.99979782104492
  0
LINE
  8
0
  6
CONTINUOUS
 62
     7
 10
129.8000183105469
 20
31.499755859375
 11
129.8000183105469
 21
28.5
  0
LINE
  8
0
  6
CONTINUOUS
 62
     7
 10
142.2002105712891
 20
36
 11
217.7999725341797
 21
36
  0
LINE
  8
0
  6
CONTINUOUS
 62
     7
 10
140.6999664306641
 20
7.5
 11
219.2999725341797
 21
7.5
  0
LINE
  8
0
  6
CONTINUOUS
 62
     7
 10
219.2999725341797
 20
35
 11
219.2999725341797
 21
7.5
  0
LINE
  8
0
  6
CONTINUOUS
 62
     7
 10
217.800048828125
 20
35.99997329711914
 11
219.3002319335938
 21
34.49979019165039
  0
LINE
  8
0
  6
CENTER
 62
     7
 10
10
 20
26.25
 11
10
 21
33.75
  0
LINE
  8
0
  6
CONTINUOUS
 62
     7
 10
140.7000885009766
 20
34.49975204467773
 11
142.2002563476563
 21
35.99992370605469
  0
LINE
  8
0
  6
CONTINUOUS
 62
     7
 10
140.6999664306641
 20
7.5
 11
140.6999664306641
 21
35
  0
LINE
  8
0
  6
CENTER
 62
     7
 10
202.9999694824219
 20
8.5
 11
202.9999694824219
 21
4.5
  0
LINE
  8
0
  6
CONTINUOUS
 62
     7
 10
-21.50075340270996
 20
34.99942398071289
 11
-23.00058746337891
 21
33.49958038330078
  0
LINE
  8
0
  6
CONTINUOUS
 62
     7
 10
70
 20
0
 11
290
 21
0
  0
LINE
  8
0
  6
CONTINUOUS
 62
     7
 10
70
 20
22
 11
128.7499694824219
 21
22
  0
LINE
  8
0
  6
CONTINUOUS
 62
     7
 10
70
 20
6.099853515625
 11
155.3211669921875
 21
6.099853515625
  0
LINE
  8
0
  6
CONTINUOUS
 62
     7
 10
70
 20
9.7998046875
 11
128.7499694824219
 21
9.7998046875
  0
LINE
  8
0
  6
CONTINUOUS
 62
     7
 10
70
 20
13.3798828125
 11
128.7499694824219
 21
13.3798828125
  0
LINE
  8
0
  6
CONTINUOUS
 62
     7
 10
70
 20
19.29783248901367
 11
128.7499694824219
 21
19.29783248901367
  0
LINE
  8
0
  6
CONTINUOUS
 62
     7
 10
70
 20
21.37410926818848
 11
128.7499694824219
 21
21.37410926818848
  0
LINE
  8
0
  6
CONTINUOUS
 62
     7
 10
70
 20
16.70192337036133
 11
128.7499694824219
 21
16.70192337036133
  0
LINE
  8
0
  6
CENTER
 62
     7
 10
90
 20
23
 11
90
 21
-1
  0
LINE
  8
0
  6
CONTINUOUS
 62
     7
 10
70
 20
22
 11
70
 21
0
  0
LINE
  8
0
  6
CENTER
 62
     7
 10
150
 20
8.5
 11
150
 21
-1
  0
LINE
  8
0
  6
DASHED
 62
     7
 10
84.5
 20
22
 11
84.5
 21
13
  0
LINE
  8
0
  6
DASHED
 62
     7
 10
95.5
 20
22
 11
95.5
 21
13
  0
LINE
  8
0
  6
DASHED
 62
     7
 10
93.5
 20
13
 11
93.5
 21
0
  0
LINE
  8
0
  6
DASHED
 62
     7
 10
86.5
 20
13
 11
86.5
 21
0
  0
LINE
  8
0
  6
DASHED
 62
     7
 10
84.5
 20
13
 11
95.5
 21
13
  0
LINE
  8
0
  6
CONTINUOUS
 62
     7
 10
290
 20
21.37410926818848
 11
231.2500305175781
 21
21.37410926818848
  0
LINE
  8
0
  6
CONTINUOUS
 62
     7
 10
290
 20
22
 11
231.2500305175781
 21
22
  0
LINE
  8
0
  6
CENTER
 62
     7
 10
270
 20
23
 11
270
 21
-1
  0
LINE
  8
0
  6
CONTINUOUS
 62
     7
 10
290
 20
19.29783248901367
 11
231.2500305175781
 21
19.29783248901367
  0
LINE
  8
0
  6
CONTINUOUS
 62
     7
 10
290
 20
13.3798828125
 11
231.2500305175781
 21
13.3798828125
  0
LINE
  8
0
  6
CONTINUOUS
 62
     7
 10
290
 20
16.70192337036133
 11
231.2500305175781
 21
16.70192337036133
  0
LINE
  8
0
  6
CONTINUOUS
 62
     7
 10
290
 20
22
 11
290
 21
0
  0
LINE
  8
0
  6
CENTER
 62
     7
 10
210
 20
8.5
 11
210
 21
-1
  0
LINE
  8
0
  6
CONTINUOUS
 62
     7
 10
290
 20
9.7998046875
 11
231.2500305175781
 21
9.7998046875
  0
LINE
  8
0
  6
CONTINUOUS
 62
     7
 10
140.6999664306641
 20
96
 11
219.2999725341797
 21
96
  0
LINE
  8
0
  6
CONTINUOUS
 62
     7
 10
140.6999664306641
 20
166
 11
140.6999664306641
 21
96
  0
LINE
  8
0
  6
CONTINUOUS
 62
     7
 10
132.2499694824219
 20
154
 11
132.2499694824219
 21
108
  0
LINE
  8
0
  6
CONTINUOUS
 62
     7
 10
130.7499694824219
 20
154
 11
130.7499694824219
 21
108
  0
LINE
  8
0
  6
CONTINUOUS
 62
     7
 10
128.7499694824219
 20
143.2001953125
 11
128.7499694824219
 21
118.7998046875
  0
LINE
  8
0
  6
CONTINUOUS
 62
     7
 10
140.6999664306641
 20
122.699951171875
 11
219.2999725341797
 21
122.699951171875
  0
LINE
  8
0
  6
CONTINUOUS
 62
     7
 10
140.6999664306641
 20
139.2998046875
 11
219.2999725341797
 21
139.2998046875
  0
LINE
  8
0
  6
CONTINUOUS
 62
     7
 10
140.6999664306641
 20
166
 11
219.2999725341797
 21
166
  0
LINE
  8
0
  6
CONTINUOUS
 62
     7
 10
219.2999725341797
 20
166
 11
219.2999725341797
 21
96
  0
LINE
  8
0
  6
CENTER
 62
     7
 10
69
 20
131
 11
291
 21
131
  0
LINE
  8
0
  6
CONTINUOUS
 62
     7
 10
70
 20
142.5
 11
70
 21
119.5
  0
LINE
  8
0
  6
CONTINUOUS
 62
     7
 10
128.7499694824219
 20
118.7998123168945
 11
130.7499694824219
 21
116.7998123168945
  0
LINE
  8
0
  6
CONTINUOUS
 62
     7
 10
128.7499694824219
 20
143.2001953125
 11
130.7499694824219
 21
145.2001953125
  0
LINE
  8
0
  6
CONTINUOUS
 62
     7
 10
140.6999664306641
 20
110.2998046875
 11
219.2999725341797
 21
110.2998046875
  0
LINE
  8
0
  6
CONTINUOUS
 62
     7
 10
140.6999664306641
 20
151.699951171875
 11
219.2999725341797
 21
151.699951171875
  0
LINE
  8
0
  6
CONTINUOUS
 62
     7
 10
130.7499694824219
 20
108
 11
140.6999664306641
 21
108
  0
LINE
  8
0
  6
CONTINUOUS
 62
     7
 10
130.7499694824219
 20
154
 11
140.6999664306641
 21
154
  0
LINE
  8
0
  6
CONTINUOUS
 62
     7
 10
231.2499694824219
 20
143.2001953125
 11
229.2499694824219
 21
145.2001953125
  0
LINE
  8
0
  6
CONTINUOUS
 62
     7
 10
231.2499694824219
 20
118.7998046875
 11
229.2499694824219
 21
116.7998046875
  0
LINE
  8
0
  6
CONTINUOUS
 62
     7
 10
229.2499694824219
 20
108
 11
219.2999725341797
 21
108
  0
LINE
  8
0
  6
CONTINUOUS
 62
     7
 10
229.2499694824219
 20
154
 11
219.2999725341797
 21
154
  0
LINE
  8
0
  6
CONTINUOUS
 62
     7
 10
231.2499694824219
 20
143.2001953125
 11
231.2499694824219
 21
118.7998046875
  0
LINE
  8
0
  6
CONTINUOUS
 62
     7
 10
229.2499694824219
 20
154
 11
229.2499694824219
 21
108
  0
LINE
  8
0
  6
CONTINUOUS
 62
     7
 10
227.7499694824219
 20
154
 11
227.7499694824219
 21
108
  0
LINE
  8
0
  6
CONTINUOUS
 62
     7
 10
70
 20
119.5
 11
128.7499694824219
 21
119.5
  0
LINE
  8
0
  6
CONTINUOUS
 62
     7
 10
70
 20
122.58984375
 11
119.3117370605469
 21
122.58984375
  0
LINE
  8
0
  6
CONTINUOUS
 62
     7
 10
70
 20
139.409912109375
 11
128.7499694824219
 21
139.409912109375
  0
LINE
  8
0
  6
CONTINUOUS
 62
     7
 10
70
 20
142.5
 11
128.7499694824219
 21
142.5
  0
LINE
  8
0
  6
CENTER
 62
     7
 10
90
 20
137.5
 11
90
 21
124.5
  0
LINE
  8
0
  6
CONTINUOUS
 62
     7
 10
289.9999389648438
 20
142.5
 11
289.9999389648438
 21
119.5
  0
LINE
  8
0
  6
CONTINUOUS
 62
     7
 10
289.9999389648438
 20
142.5
 11
231.2499694824219
 21
142.5
  0
LINE
  8
0
  6
CONTINUOUS
 62
     7
 10
289.9999389648438
 20
139.409912109375
 11
231.2499694824219
 21
139.409912109375
  0
LINE
  8
0
  6
CONTINUOUS
 62
     7
 10
289.9999389648438
 20
122.58984375
 11
231.2499694824219
 21
122.58984375
  0
LINE
  8
0
  6
CONTINUOUS
 62
     7
 10
289.9999389648438
 20
119.5
 11
231.2499694824219
 21
119.5
  0
LINE
  8
0
  6
CENTER
 62
     7
 10
150
 20
137.5
 11
150
 21
124.5
  0
LINE
  8
0
  6
CENTER
 62
     7
 10
210
 20
137.5
 11
210
 21
124.5
  0
LINE
  8
0
  6
CENTER
 62
     7
 10
270
 20
137.5
 11
270
 21
124.5
  0
LINE
  8
0
  6
CONTINUOUS
 62
     7
 10
129.8000183105469
 20
142.5
 11
129.8000183105469
 21
139.500244140625
  0
LINE
  8
0
  6
CONTINUOUS
 62
     7
 10
129.8000183105469
 20
122.5
 11
129.8000183105469
 21
119.500244140625
  0
LINE
  8
0
  6
CENTER
 62
     7
 10
129.2499694824219
 20
121.0001220703125
 11
132.2499694824219
 21
121.0001220703125
  0
LINE
  8
0
  6
CENTER
 62
     7
 10
129.2499694824219
 20
141.0001220703125
 11
132.2499694824219
 21
141.0001220703125
  0
LINE
  8
0
  6
CENTER
 62
     7
 10
230.7499694824219
 20
141.0001220703125
 11
227.7499694824219
 21
141.0001220703125
  0
LINE
  8
0
  6
CENTER
 62
     7
 10
230.7499694824219
 20
121.0001220703125
 11
227.7499694824219
 21
121.0001220703125
  0
LINE
  8
0
  6
CONTINUOUS
 62
     7
 10
230.1999206542969
 20
122.5
 11
230.1999206542969
 21
119.500244140625
  0
LINE
  8
0
  6
CONTINUOUS
 62
     7
 10
230.1999206542969
 20
142.5
 11
230.1999206542969
 21
139.500244140625
  0
LINE
  8
0
  6
CENTER
 62
     7
 10
120.4473876953125
 20
131
 11
132.3861846923828
 21
131
  0
LINE
  8
0
  6
CONTINUOUS
 62
     7
 10
125.4500732421875
 20
135
 11
128.7499847412109
 21
135
  0
LINE
  8
0
  6
CONTINUOUS
 62
     7
 10
127.0700988769531
 20
127
 11
128.7499847412109
 21
127
  0
LINE
  8
0
  6
CONTINUOUS
 62
     7
 10
121.4500732421875
 20
131
 11
121.4500732421875
 21
129.327880859375
  0
LINE
  8
0
  6
CONTINUOUS
 62
     7
 10
128.7499694824219
 20
135
 11
130.7499694824219
 21
135
  0
LINE
  8
0
  6
CONTINUOUS
 62
     7
 10
128.7499694824219
 20
127
 11
130.7499694824219
 21
127
  0
LINE
  8
0
  6
CENTER
 62
     7
 10
121.0018310546875
 20
119.4778747558594
 11
125.8671340942383
 21
131.2237548828125
  0
LINE
  8
0
  6
CONTINUOUS
 62
     7
 10
119.2327499389648
 20
121.4784317016602
 11
123.6673736572266
 21
119.6415481567383
  0
LINE
  8
0
  6
CONTINUOUS
 62
     7
 10
119.4345169067383
 20
124.3173294067383
 11
125.532112121582
 21
121.7916259765625
  0
LINE
  8
0
  6
CONTINUOUS
 62
     7
 10
119.2327575683594
 20
121.4784545898438
 11
119.4345169067383
 21
124.3173446655273
  0
LINE
  8
0
  6
CONTINUOUS
 62
     7
 10
123.6673736572266
 20
119.6415557861328
 11
125.5321273803711
 21
121.7916259765625
  0
LINE
  8
0
  6
CONTINUOUS
 62
     7
 10
120.1732406616211
 20
128.0381927490234
 11
120.5879058837891
 21
129.0392608642578
  0
LINE
  8
0
  6
CONTINUOUS
 62
     7
 10
127.6408233642578
 20
124.9450073242188
 11
128.0554809570313
 21
125.9460754394531
  0
LINE
  8
0
  6
CONTINUOUS
 62
     7
 10
121.3673248291016
 20
129.3620910644531
 11
120.587890625
 21
129.0392303466797
  0
LINE
  8
0
  6
CONTINUOUS
 62
     7
 10
121.8105239868164
 20
126.7105941772461
 11
122.68310546875
 21
128.8171691894531
  0
LINE
  8
0
  6
CONTINUOUS
 62
     7
 10
125.5443115234375
 20
125.1640167236328
 11
126.416877746582
 21
127.2705688476563
  0
LINE
  8
0
  6
CONTINUOUS
 62
     7
 10
121.3673477172852
 20
129.3621520996094
 11
127.7326507568359
 21
126.7255554199219
  0
LINE
  8
0
  6
CONTINUOUS
 62
     7
 10
128.0554962158203
 20
125.9460601806641
 11
127.7326278686523
 21
126.7255096435547
  0
LINE
  8
0
  6
CONTINUOUS
 62
     7
 10
120.5647888183594
 20
125.7394943237305
 11
125.7385025024414
 21
123.5964508056641
  0
LINE
  8
0
  6
CONTINUOUS
 62
     7
 10
120.4030151367188
 20
127.293586730957
 11
126.9518127441406
 21
124.5809860229492
  0
LINE
  8
0
  6
CONTINUOUS
 62
     7
 10
125.7504425048828
 20
122.58984375
 11
128.7499694824219
 21
122.58984375
  0
LINE
  8
0
  6
CENTER
 62
     7
 10
202.4999694824219
 20
37
 11
202.4999694824219
 21
6.301916122436523
  0
LINE
  8
0
  6
CONTINUOUS
 62
     7
 10
163.0002136230469
 20
20
 11
196.9999694824219
 21
20
  0
LINE
  8
0
  6
CENTER
 62
     7
 10
157.4999694824219
 20
37
 11
157.4999694824219
 21
6.901769638061523
  0
LINE
  8
0
  6
DASHED
 62
     7
 10
160.9999694824219
 20
36
 11
160.9999694824219
 21
26
  0
LINE
  8
0
  6
DASHED
 62
     7
 10
153.9999694824219
 20
36
 11
153.9999694824219
 21
26
  0
LINE
  8
0
  6
CONTINUOUS
 62
     7
 10
151.9999694824219
 20
20.000244140625
 11
151.9999694824219
 21
26.006103515625
  0
LINE
  8
0
  6
CONTINUOUS
 62
     7
 10
151.9999694824219
 20
26
 11
163.0002136230469
 21
26
  0
LINE
  8
0
  6
CONTINUOUS
 62
     7
 10
163.0002136230469
 20
26.006103515625
 11
163.0002136230469
 21
20
  0
LINE
  8
0
  6
CONTINUOUS
 62
     7
 10
161.2332000732422
 20
9.979033470153809
 11
163.0001678466797
 21
19.99996566772461
  0
LINE
  8
0
  6
CONTINUOUS
 62
     7
 10
152.0001525878906
 20
20.00011253356934
 11
153.7671203613281
 21
9.979089736938477
  0
LINE
  8
0
  6
CONTINUOUS
 62
     7
 10
208.0002136230469
 20
26.006103515625
 11
208.0002136230469
 21
20.000244140625
  0
LINE
  8
0
  6
CONTINUOUS
 62
     7
 10
196.9999694824219
 20
26
 11
208.0002136230469
 21
26
  0
LINE
  8
0
  6
CONTINUOUS
 62
     7
 10
196.9999694824219
 20
20
 11
196.9999694824219
 21
26.006103515625
  0
LINE
  8
0
  6
CONTINUOUS
 62
     7
 10
197.0001831054688
 20
19.99981117248535
 11
198.7671203613281
 21
9.979043960571289
  0
LINE
  8
0
  6
CONTINUOUS
 62
     7
 10
206.2333221435547
 20
9.979058265686035
 11
208.0003204345703
 21
20.0002326965332
  0
LINE
  8
0
  6
DASHED
 62
     7
 10
-32
 20
25.99999618530273
 11
-32
 21
35.99999618530273
  0
LINE
  8
0
  6
DASHED
 62
     7
 10
-25
 20
25.99999618530273
 11
-25
 21
35.99999618530273
  0
LINE
  8
0
  6
DASHED
 62
     7
 10
-35
 20
25.99999618530273
 11
-23
 21
25.99999618530273
  0
LINE
  8
0
  6
DASHED
 62
     7
 10
-23
 20
7.901779174804688
 11
-23
 21
25.99999618530273
  0
LINE
  8
0
  6
CENTER
 62
     7
 10
157.4999694824219
 20
107
 11
157.4999694824219
 21
98
  0
LINE
  8
0
  6
CENTER
 62
     7
 10
152.9999694824219
 20
102.5
 11
161.9999694824219
 21
102.5
  0
LINE
  8
0
  6
CENTER
 62
     7
 10
157.4999694824219
 20
164
 11
157.4999694824219
 21
155
  0
LINE
  8
0
  6
CENTER
 62
     7
 10
152.9999694824219
 20
159.5
 11
161.9999694824219
 21
159.5
  0
LINE
  8
0
  6
CENTER
 62
     7
 10
202.4999694824219
 20
164
 11
202.4999694824219
 21
155
  0
LINE
  8
0
  6
CENTER
 62
     7
 10
197.9999694824219
 20
159.5
 11
206.9999694824219
 21
159.5
  0
LINE
  8
0
  6
CENTER
 62
     7
 10
202.4999694824219
 20
107
 11
202.4999694824219
 21
98
  0
LINE
  8
0
  6
CENTER
 62
     7
 10
197.9999694824219
 20
102.5
 11
206.9999694824219
 21
102.5
  0
LINE
  8
0
  6
CONTINUOUS
 62
     7
 10
151.9997253417969
 20
20
 11
140.6999664306641
 21
20
  0
LINE
  8
0
  6
CENTER
 62
     7
 10
202.4999694824219
 20
37
 11
202.4999694824219
 21
6.901769638061523
  0
LINE
  8
0
  6
CONTINUOUS
 62
     7
 10
219.2999725341797
 20
20
 11
207.9999694824219
 21
20
  0
LINE
  8
0
  6
CONTINUOUS
 62
     7
 10
158.6790161132813
 20
6.099853515625
 11
290
 21
6.099853515625
  0
ARC
  8
0
  6
CONTINUOUS
 62
     7
 10
21.50048828125
 20
10.5
 40
3
 50
269.999963344576
 51
350.000046394684
  0
ARC
  8
0
  6
CONTINUOUS
 62
     7
 10
-21.500244140625
 20
10.5
 40
3.000000000000001
 50
189.999979332211
 51
270.000127269116
  0
ARC
  8
0
  6
CONTINUOUS
 62
     7
 10
-28.73876953125
 20
17
 40
2.999999999999999
 50
9.999926284559381
 51
89.99992737239727
  0
ARC
  8
0
  6
CONTINUOUS
 62
     7
 10
6.6201171875
 20
25.919921875
 40
1.246148109436035
 50
80.76452806729958
 51
142.1250351177266
  0
ARC
  8
0
  6
CONTINUOUS
 62
     7
 10
0
 20
30
 40
3.998106002807618
 50
63.34552394777273
 51
298.9059076658729
  0
ARC
  8
0
  6
CONTINUOUS
 62
     7
 10
0
 20
30
 40
4
 50
240.0000239814524
 51
241.0449882829511
  0
ARC
  8
0
  6
CONTINUOUS
 62
     7
 10
7.610107421875
 20
32.289794921875
 40
0.9701611399650598
 50
81.70288677623263
 51
144.668542923126
  0
ARC
  8
0
  6
CONTINUOUS
 62
     7
 10
6.6201171875
 20
34.079833984375
 40
1.254199028015138
 50
217.8749648822736
 51
279.2353626496737
  0
ARC
  8
0
  6
CONTINUOUS
 62
     7
 10
7.610107421875
 20
27.7099609375
 40
0.9683421850204466
 50
215.3314570768741
 51
278.2972225067941
  0
ARC
  8
0
  6
CONTINUOUS
 62
     7
 10
11.400146484375
 20
7.999755859375
 40
0.5999999642372134
 50
236.4425336126296
 51
270.0000179860894
  0
ARC
  8
0
  6
CONTINUOUS
 62
     7
 10
-14.49951171875
 20
6.258544921875
 40
0.5999999642372133
 50
286.3876635409443
 51
355.0000009992271
  0
ARC
  8
0
  6
CONTINUOUS
 62
     7
 10
-16.7001953125
 20
6.258544921875
 40
0.5999999642372131
 50
185.0000076521949
 51
253.6124270727479
  0
ARC
  8
0
  6
CONTINUOUS
 62
     7
 10
-15.599853515625
 20
10
 40
4.5
 50
253.6123724312344
 51
286.3877181824576
  0
ARC
  8
0
  6
CONTINUOUS
 62
     7
 10
-11.39990234375
 20
7.999755859375
 40
0.5999999642372134
 50
270.0000179860894
 51
303.5574716236979
  0
ARC
  8
0
  6
CONTINUOUS
 62
     7
 10
10
 20
30
 40
2.84999942779541
 50
258.5842037318701
 51
101.4225718157865
  0
CIRCLE
  8
0
  6
CONTINUOUS
 62
     7
 10
-10
 20
30
 40
2.84999942779541
  0
ARC
  8
0
  6
CONTINUOUS
 62
     7
 10
-35
 20
24.267822265625
 40
0.9999999999999978
 50
27.11560170304601
 51
59.99998800927364
  0
ARC
  8
0
  6
CONTINUOUS
 62
     7
 10
34
 20
26
 40
1.000000000000002
 50
300.0000119907264
 51
0
  0
ARC
  8
0
  6
CONTINUOUS
 62
     7
 10
35
 20
24.267822265625
 40
1
 50
119.9999760185477
 51
180.0000186693347
  0
ARC
  8
0
  6
CONTINUOUS
 62
     7
 10
-34
 20
26
 40
0.9999999999999981
 50
179.9999640278213
 51
239.999952037095
  0
ARC
  8
0
  6
CONTINUOUS
 62
     7
 10
28.739013671875
 20
17
 40
3
 50
90.00003665542397
 51
170.000020667789
  0
ARC
  8
0
  6
CONTINUOUS
 62
     7
 10
33
 20
21
 40
0.9999999999999996
 50
270.0000179860895
 51
0
  0
ARC
  8
0
  6
CONTINUOUS
 62
     7
 10
-11.482421875
 20
21.77783203125
 40
2.479999542236328
 50
279.3651908854173
 51
350.6348441761449
  0
ARC
  8
0
  6
CONTINUOUS
 62
     7
 10
11.482666015625
 20
14.221923828125
 40
2.479999542236329
 50
99.08549964786162
 51
170.9144463938704
  0
ARC
  8
0
  6
CONTINUOUS
 62
     7
 10
11.482666015625
 20
21.77783203125
 40
2.479999542236329
 50
189.3652088715066
 51
260.6426451627935
  0
ARC
  8
0
  6
CONTINUOUS
 62
     7
 10
-11.482421875
 20
14.221923828125
 40
2.479999542236329
 50
9.085538124518461
 51
80.91440973844635
  0
ARC
  8
0
  6
CONTINUOUS
 62
     7
 10
-33
 20
21
 40
0.9999999999999981
 50
179.9999640278213
 51
270.0000006832455
  0
ARC
  8
0
  6
CONTINUOUS
 62
     7
 10
155.8998718261719
 20
6.25830078125
 40
0.5999999642371989
 50
185.0000076521949
 51
253.6124270727472
  0
ARC
  8
0
  6
CONTINUOUS
 62
     7
 10
158.1003112792969
 20
6.25830078125
 40
0.5999999642372117
 50
286.3876635409438
 51
354.999994169038
  0
ARC
  8
0
  6
CONTINUOUS
 62
     7
 10
156.9999694824219
 20
10
 40
4.500000000000002
 50
253.6123724312343
 51
286.3877181824577
  0
ARC
  8
0
  6
CONTINUOUS
 62
     7
 10
132.0502624511719
 20
29.469970703125
 40
3.318496704101556
 50
186.054315652478
 51
212.4448005675732
  0
ARC
  8
0
  6
CONTINUOUS
 62
     7
 10
130.6501159667969
 20
33.58984375
 40
1.900939941406257
 50
181.8086700643979
 51
222.4362198515213
  0
ARC
  8
0
  6
CONTINUOUS
 62
     7
 10
132.0502624511719
 20
30.530029296875
 40
3.317879676818851
 50
147.5550901494001
 51
173.9458482720621
  0
ARC
  8
0
  6
CONTINUOUS
 62
     7
 10
125.7502136230469
 20
30
 40
3.999999999999998
 50
89.99998201391055
 51
118.4958044387707
  0
ARC
  8
0
  6
CONTINUOUS
 62
     7
 10
125.7502136230469
 20
30
 40
3.982465744018556
 50
241.5040862782025
 51
269.9999087030625
  0
ARC
  8
0
  6
CONTINUOUS
 62
     7
 10
132.4006042480469
 20
30.004638671875
 40
2.999999999999996
 50
123.3850177712058
 51
150.1029692758682
  0
ARC
  8
0
  6
CONTINUOUS
 62
     7
 10
227.5993804931641
 20
30.004638671875
 40
2.999999999999993
 50
29.8970118274261
 51
56.61497699246686
  0
ARC
  8
0
  6
CONTINUOUS
 62
     7
 10
132.4006042480469
 20
29.9951171875
 40
2.999999999999995
 50
209.8970307241318
 51
236.6149822287941
  0
ARC
  8
0
  6
CONTINUOUS
 62
     7
 10
227.5993804931641
 20
29.9951171875
 40
2.999999999999996
 50
303.3850230075332
 51
330.1029881725739
  0
ARC
  8
0
  6
CONTINUOUS
 62
     7
 10
130.6501159667969
 20
26.409912109375
 40
1.896939277648931
 50
137.5635615824253
 51
178.1912206525752
  0
ARC
  8
0
  6
CONTINUOUS
 62
     7
 10
-35
 20
24.267822265625
 40
1.000000000000003
 50
359.9999813306647
 51
60.00002216021947
  0
CIRCLE
  8
0
  6
CONTINUOUS
 62
     7
 10
90
 20
131
 40
5.5
  0
CIRCLE
  8
0
  6
CONTINUOUS
 62
     7
 10
90
 20
131
 40
3.5
  0
ARC
  8
0
  6
CONTINUOUS
 62
     7
 10
132.4006042480469
 20
141.0048828125
 40
2.999999999999991
 50
123.3850177712059
 51
150.1029692758683
  0
ARC
  8
0
  6
CONTINUOUS
 62
     7
 10
132.4006042480469
 20
140.995361328125
 40
2.999999999999993
 50
209.8970307241317
 51
236.6149822287941
  0
ARC
  8
0
  6
CONTINUOUS
 62
     7
 10
132.4006042480469
 20
120.995361328125
 40
2.999999999999993
 50
209.8970307241317
 51
236.6149822287943
  0
ARC
  8
0
  6
CONTINUOUS
 62
     7
 10
132.4006042480469
 20
121.0048828125
 40
3.000000000000002
 50
123.3850177712058
 51
150.1029692758683
  0
ARC
  8
0
  6
CONTINUOUS
 62
     7
 10
227.5993347167969
 20
121.0048828125
 40
2.999999999999998
 50
29.89703231799354
 51
56.61498382265611
  0
ARC
  8
0
  6
CONTINUOUS
 62
     7
 10
227.5993347167969
 20
120.995361328125
 40
3
 50
303.3850161773439
 51
330.1029676820065
  0
ARC
  8
0
  6
CONTINUOUS
 62
     7
 10
227.5993347167969
 20
140.995361328125
 40
3
 50
303.3850161773439
 51
330.1029676820065
  0
ARC
  8
0
  6
CONTINUOUS
 62
     7
 10
227.5993347167969
 20
141.0048828125
 40
2.999999999999998
 50
29.89703231799354
 51
56.61498382265611
  0
ARC
  8
0
  6
CONTINUOUS
 62
     7
 10
122.4833221435547
 20
123.0544738769531
 40
3.299999237060547
 50
131.5803705110074
 51
157.4999548639652
  0
ARC
  8
0
  6
CONTINUOUS
 62
     7
 10
122.4833221435547
 20
123.0544738769531
 40
3.29999923706055
 50
337.5000181569006
 51
3.419602296415172
  0
ARC
  8
0
  6
CONTINUOUS
 62
     7
 10
114.5669708251953
 20
125.9005737304688
 40
5.999999999999996
 50
2.433650829345525
 51
20.8717398770493
  0
ARC
  8
0
  6
CONTINUOUS
 62
     7
 10
130.093505859375
 20
119.4692687988281
 40
6.000000000000004
 50
114.1278165022774
 51
132.5663219780771
  0
ARC
  8
0
  6
CONTINUOUS
 62
     7
 10
119.7622680664063
 20
126.1213684082031
 40
0.7999999523162822
 50
311.5798327472963
 51
2.433049772698627
  0
ARC
  8
0
  6
CONTINUOUS
 62
     7
 10
126.5760040283203
 20
123.2990264892578
 40
0.7999999523162843
 50
132.566977676238
 51
183.4201402735703
  0
ARC
  8
0
  6
CONTINUOUS
 62
     7
 10
125.4500732421875
 20
131
 40
3.999999999999998
 50
89.99998201391055
 51
180.0000186693345
  0
ARC
  8
0
  6
CONTINUOUS
 62
     7
 10
202.5002136230469
 20
12.294677734375
 40
4.392908096313466
 50
211.8110682956229
 51
328.1889335256101
  0
ARC
  8
0
  6
CONTINUOUS
 62
     7
 10
157.4999694824219
 20
12.294677734375
 40
4.392908096313466
 50
211.8110682956229
 51
328.1889710916505
  0
CIRCLE
  8
0
  6
CONTINUOUS
 62
     7
 10
157.4999694824219
 20
102.5
 40
3.5
  0
POLYLINE
  8
0
  6
CONTINUOUS
 62
     7
 66
     1
 10
0
 20
0
 70
     1
  0
VERTEX
  8
0
  6
CONTINUOUS
 62
     7
 10
10.52001953125
 20
32.5
 42
0.2551566096718412
  0
VERTEX
  8
0
  6
CONTINUOUS
 62
     7
 10
9.990205697803047
 20
32.07511353201534
 42
0.06319184911137921
  0
VERTEX
  8
0
  6
CONTINUOUS
 62
     7
 10
9.7361048620572
 20
31.41222750492618
 42
0.03518713495925148
  0
VERTEX
  8
0
  6
CONTINUOUS
 62
     7
 10
9.609371145564648
 20
30.71217696600283
 42
0.02798626466636508
  0
VERTEX
  8
0
  6
CONTINUOUS
 62
     7
 10
9.57000732421875
 20
30
 42
0.0279004320423075
  0
VERTEX
  8
0
  6
CONTINUOUS
 62
     7
 10
9.609142561808071
 20
29.28985106782708
 42
0.0351609506413189
  0
VERTEX
  8
0
  6
CONTINUOUS
 62
     7
 10
9.735640659931498
 20
28.58955981402875
 42
0.0631561577105207
  0
VERTEX
  8
0
  6
CONTINUOUS
 62
     7
 10
9.989678575003612
 20
27.92582027004889
 42
0.2552812342110241
  0
VERTEX
  8
0
  6
CONTINUOUS
 62
     7
 10
10.52001953125
 20
27.5
 42
0.2551561651234953
  0
VERTEX
  8
0
  6
CONTINUOUS
 62
     7
 10
11.04983367982663
 20
27.92488631871121
 42
0.06319200873202314
  0
VERTEX
  8
0
  6
CONTINUOUS
 62
     7
 10
11.30393472262135
 20
28.58777225891121
 42
0.0351872344855247
  0
VERTEX
  8
0
  6
CONTINUOUS
 62
     7
 10
11.43066831000094
 20
29.28782281996706
 42
0.02798636106883378
  0
VERTEX
  8
0
  6
CONTINUOUS
 62
     7
 10
11.47003173828125
 20
30
 42
0.02790043179201551
  0
VERTEX
  8
0
  6
CONTINUOUS
 62
     7
 10
11.43089705544029
 20
30.71014898153906
 42
0.03516100496095687
  0
VERTEX
  8
0
  6
CONTINUOUS
 62
     7
 10
11.30439943116081
 20
31.41044032048136
 42
0.0631563135920043
  0
VERTEX
  8
0
  6
CONTINUOUS
 62
     7
 10
11.05036170622723
 20
32.07417992810442
 42
0.2552818845544976
  0
SEQEND
  8
0
  0
POLYLINE
  8
0
  6
CONTINUOUS
 62
     7
 66
     1
 10
0
 20
0
  0
VERTEX
  8
0
  6
CONTINUOUS
 62
     7
 10
6.820068359375
 20
32.84974670410156
 42
0.1885726779018739
  0
VERTEX
  8
0
  6
CONTINUOUS
 62
     7
 10
6.460337272862854
 20
32.69005908869951
 42
0.07574420959183971
  0
VERTEX
  8
0
  6
CONTINUOUS
 62
     7
 10
6.216100373678731
 20
32.37222449333599
 42
0.03933604236370611
  0
VERTEX
  8
0
  6
CONTINUOUS
 62
     7
 10
6.046235838095941
 20
32.00689232302239
 42
0.02577148883122514
  0
VERTEX
  8
0
  6
CONTINUOUS
 62
     7
 10
5.924078660353726
 20
31.62274260565563
 42
0.01950550062451132
  0
VERTEX
  8
0
  6
CONTINUOUS
 62
     7
 10
5.836585601761552
 20
31.22853142562924
 42
0.01621492887998172
  0
VERTEX
  8
0
  6
CONTINUOUS
 62
     7
 10
5.777223621651758
 20
30.82894079925146
 42
0.01446689375528541
  0
VERTEX
  8
0
  6
CONTINUOUS
 62
     7
 10
5.742354699333071
 20
30.42641630065732
 42
0.01369167337260743
  0
VERTEX
  8
0
  6
CONTINUOUS
 62
     7
 10
5.730105970076803
 20
30.02227222497109
 42
0.01360443429897391
  0
VERTEX
  8
0
  6
CONTINUOUS
 62
     7
 10
5.739822332585089
 20
29.6194270929755
 42
0.01431487836517313
  0
VERTEX
  8
0
  6
CONTINUOUS
 62
     7
 10
5.771971571396199
 20
29.21717575168132
 42
0.01598150507263742
  0
VERTEX
  8
0
  6
CONTINUOUS
 62
     7
 10
5.828481546157014
 20
28.81635769520932
 42
0.0190264306560634
  0
VERTEX
  8
0
  6
CONTINUOUS
 62
     7
 10
5.912541747673066
 20
28.42120409537837
 42
0.02487948080488828
  0
VERTEX
  8
0
  6
CONTINUOUS
 62
     7
 10
6.030555548529692
 20
28.03480755820154
 42
0.03729593317869544
  0
VERTEX
  8
0
  6
CONTINUOUS
 62
     7
 10
6.194628358783493
 20
27.66562326555815
 42
0.06998300092441377
  0
VERTEX
  8
0
  6
CONTINUOUS
 62
     7
 10
6.430211843666777
 20
27.33829137984646
 42
0.1738224015071457
  0
VERTEX
  8
0
  6
CONTINUOUS
 62
     7
 10
6.779978578989478
 20
27.151692839977
 42
0
  0
SEQEND
  8
0
  0
POLYLINE
  8
0
  6
CONTINUOUS
 62
     7
 66
     1
 10
0
 20
0
  0
VERTEX
  8
0
  6
CONTINUOUS
 62
     7
 10
122.5502624511719
 20
33.25
 42
0.01434925612821657
  0
VERTEX
  8
0
  6
CONTINUOUS
 62
     7
 10
122.3913816373051
 20
33.24543900102706
 42
0.01426059355055858
  0
VERTEX
  8
0
  6
CONTINUOUS
 62
     7
 10
122.2337708321845
 20
33.23186364244833
 42
0.0141757047199673
  0
VERTEX
  8
0
  6
CONTINUOUS
 62
     7
 10
122.0776720337917
 20
33.20942096396243
 42
0.01415089193067364
  0
VERTEX
  8
0
  6
CONTINUOUS
 62
     7
 10
121.9227101264193
 20
33.17809768561597
 42
0.01410159875628146
  0
VERTEX
  8
0
  6
CONTINUOUS
 62
     7
 10
121.7694483806051
 20
33.13799009225006
 42
0.01402958965973354
  0
VERTEX
  8
0
  6
CONTINUOUS
 62
     7
 10
121.6184317827217
 20
33.08924600866806
 42
0.01393700395123955
  0
VERTEX
  8
0
  6
CONTINUOUS
 62
     7
 10
121.4701815552383
 20
33.0320605863009
 42
0.01382627869823029
  0
VERTEX
  8
0
  6
CONTINUOUS
 62
     7
 10
121.3251905368844
 20
32.96667131287745
 42
0.01370006398096657
  0
VERTEX
  8
0
  6
CONTINUOUS
 62
     7
 10
121.183919540044
 20
32.89335246263948
 42
0.01356113628379954
  0
VERTEX
  8
0
  6
CONTINUOUS
 62
     7
 10
121.0467947493352
 20
32.81240922132187
 42
0.01332235787985915
  0
VERTEX
  8
0
  6
CONTINUOUS
 62
     7
 10
120.9150850084368
 20
32.72479092128656
 42
0.01328778345800779
  0
VERTEX
  8
0
  6
CONTINUOUS
 62
     7
 10
120.7870643492946
 20
32.62942786286732
 42
0.01315484944929278
  0
VERTEX
  8
0
  6
CONTINUOUS
 62
     7
 10
120.6640122143801
 20
32.52722255317127
 42
0.01293831204886727
  0
VERTEX
  8
0
  6
CONTINUOUS
 62
     7
 10
120.5469680305607
 20
32.41920822832187
 42
0.01278031710772875
  0
VERTEX
  8
0
  6
CONTINUOUS
 62
     7
 10
120.4356316918339
 20
32.30531927309531
 42
0.01262530371477398
  0
VERTEX
  8
0
  6
CONTINUOUS
 62
     7
 10
120.3302223154904
 20
32.18592225754497
 42
0
  0
SEQEND
  8
0
  0
POLYLINE
  8
0
  6
CONTINUOUS
 62
     7
 66
     1
 10
0
 20
0
  0
VERTEX
  8
0
  6
CONTINUOUS
 62
     7
 10
120.3261957606568
 20
27.81888668175984
 42
0.06283193787189025
  0
VERTEX
  8
0
  6
CONTINUOUS
 62
     7
 10
120.890494573561
 20
27.29271469591503
 42
0.06649697188608499
  0
VERTEX
  8
0
  6
CONTINUOUS
 62
     7
 10
121.5704948194435
 20
26.92821002692344
 42
0.06915556071732429
  0
VERTEX
  8
0
  6
CONTINUOUS
 62
     7
 10
122.3228493448358
 20
26.75935134721348
 42
0.0697529167584884
  0
VERTEX
  8
0
  6
CONTINUOUS
 62
     7
 10
123.0916041270437
 20
26.80334945932404
 42
0.06816347273116227
  0
VERTEX
  8
0
  6
CONTINUOUS
 62
     7
 10
123.8194474615071
 20
27.05517115982995
 42
0.06499587775552669
  0
VERTEX
  8
0
  6
CONTINUOUS
 62
     7
 10
124.4560130221236
 20
27.49000260126163
 42
0.06129090380084643
  0
VERTEX
  8
0
  6
CONTINUOUS
 62
     7
 10
124.964070356467
 20
28.07010358681724
 42
0.05807963780395705
  0
VERTEX
  8
0
  6
CONTINUOUS
 62
     7
 10
125.3210672597641
 20
28.75409752652163
 42
0.05590544108838583
  0
VERTEX
  8
0
  6
CONTINUOUS
 62
     7
 10
125.5147256063237
 20
29.50124144757584
 42
0.05496308177690348
  0
VERTEX
  8
0
  6
CONTINUOUS
 62
     7
 10
125.5397404540557
 20
30.2719638493475
 42
0.05547408716470458
  0
VERTEX
  8
0
  6
CONTINUOUS
 62
     7
 10
125.3956619531357
 20
31.02985309398644
 42
0.05728054718135162
  0
VERTEX
  8
0
  6
CONTINUOUS
 62
     7
 10
125.0862523191363
 20
31.73629464146651
 42
0.06026828785437682
  0
VERTEX
  8
0
  6
CONTINUOUS
 62
     7
 10
124.6210131988758
 20
32.35160341204758
 42
0.06395226173122524
  0
VERTEX
  8
0
  6
CONTINUOUS
 62
     7
 10
124.018806809858
 20
32.83398181903761
 42
0.06744462552543577
  0
VERTEX
  8
0
  6
CONTINUOUS
 62
     7
 10
123.3121498532029
 20
33.14344427444564
 42
0.06944120513991184
  0
VERTEX
  8
0
  6
CONTINUOUS
 62
     7
 10
122.5502624511719
 20
33.25
 42
0
  0
SEQEND
  8
0
  0
POLYLINE
  8
0
  6
CONTINUOUS
 62
     7
 66
     1
 10
0
 20
0
 70
     1
  0
VERTEX
  8
0
  6
CONTINUOUS
 62
     7
 10
121.4501342773438
 20
32.5
 42
0.1103780684215512
  0
VERTEX
  8
0
  6
CONTINUOUS
 62
     7
 10
120.5379760998658
 20
32.29498303047471
 42
0.1025062601689106
  0
VERTEX
  8
0
  6
CONTINUOUS
 62
     7
 10
119.7906414868384
 20
31.73097388237605
 42
0.09328994491174314
  0
VERTEX
  8
0
  6
CONTINUOUS
 62
     7
 10
119.3130364023536
 20
30.92408031885276
 42
0.08782041319001331
  0
VERTEX
  8
0
  6
CONTINUOUS
 62
     7
 10
119.150146484375
 20
29.99998474121094
 42
0.0877745368072341
  0
VERTEX
  8
0
  6
CONTINUOUS
 62
     7
 10
119.3128784247071
 20
29.07636663289641
 42
0.09326038602119158
  0
VERTEX
  8
0
  6
CONTINUOUS
 62
     7
 10
119.7901836967902
 20
28.26956409743311
 42
0.1026286646017068
  0
VERTEX
  8
0
  6
CONTINUOUS
 62
     7
 10
120.538393577108
 20
27.7048345629897
 42
0.1103318302585187
  0
VERTEX
  8
0
  6
CONTINUOUS
 62
     7
 10
121.4501953125
 20
27.5
 42
0.1103779952855083
  0
VERTEX
  8
0
  6
CONTINUOUS
 62
     7
 10
122.3623533511782
 20
27.70501765702693
 42
0.1025061015806502
  0
VERTEX
  8
0
  6
CONTINUOUS
 62
     7
 10
123.1096878460561
 20
28.2690269981752
 42
0.09328988682786855
  0
VERTEX
  8
0
  6
CONTINUOUS
 62
     7
 10
123.5872931190676
 20
29.07592046732136
 42
0.08782048305251659
  0
VERTEX
  8
0
  6
CONTINUOUS
 62
     7
 10
123.7501831054687
 20
30.00001525878906
 42
0.08777255011308548
  0
VERTEX
  8
0
  6
CONTINUOUS
 62
     7
 10
123.5874553168419
 20
30.92363438859391
 42
0.09326068252948329
  0
VERTEX
  8
0
  6
CONTINUOUS
 62
     7
 10
123.110156508807
 20
31.73044079384788
 42
0.1026310491614213
  0
VERTEX
  8
0
  6
CONTINUOUS
 62
     7
 10
122.3619482564652
 20
32.29517197580705
 42
0.1103314756782405
  0
SEQEND
  8
0
  0
TEXT
  8
0
  6
CONTINUOUS
 62
     7
 10
-1.285500049591065
 20
-21.79999995231628
 40
3.599999904632568
 41
0.8455426207593617
  1
ＨＳＲ２５ＬＢＭ
  0
LINE
  8
0
  6
CONTINUOUS
 62
     7
 10
-15.05587135214655
 20
7.39990234375
 11
-14.95577389609166
 21
7.499999999999999
  0
ENDSEC
  0
EOF
