  0
SECTION
  2
HEADER
  0
ENDSEC
  0
SECTION
  2
TABLES
  0
TABLE
  2
LTYPE
 70
    22
  0
LTYPE
  2
CONTINUOUS
 70
    64
  3
Solid line
 72
    65
 73
     0
 40
0.000000
  0
LTYPE
  2
DASHED
 70
    64
  3
__ __ __ __ __ __ __ __ __ __ __ __ __ __ __
 72
    65
 73
     2
 40
3.500000
 49
2.000000
 49
-1.500000
  0
LTYPE
  2
CENTER
 70
    64
  3
____ _ ____ _ ____ _ ____ _ ____ _ ____ _ ____
 72
    65
 73
     4
 40
17.500000
 49
13.000000
 49
-1.500000
 49
1.500000
 49
-1.500000
  0
LTYPE
  2
PHANTOM
 70
    64
  3
_____ _ _ _____ _ _ _____ _ _ _____ _ _ ____  
 72
    65
 73
     6
 40
15.500000
 49
8.000000
 49
-1.500000
 49
1.500000
 49
-1.500000
 49
1.500000
 49
-1.500000
  0
LTYPE
  2
DOT
 70
    64
  3
. . . . . . . . . . . . . . . . . . . . . . . .
 72
    65
 73
     2
 40
0.25
 49
0.0
 49
-0.25
  0
ENDTAB
  0
TABLE
  2
LAYER
 70
     1
  0
LAYER
  2
0
 70
     0
 62
     7
  6
CONTINUOUS
  0
ENDTAB
  0
TABLE
  2
STYLE
 70
     1
  0
STYLE
  2
STANDARD
 70
     0
 40
0.000000
 41
1.000000
 50
0.000000
 71
     0
 42
0.200000
  3
txt
  0
ENDTAB
  0
TABLE
  2
VIEW
 70
     0
  0
ENDTAB
  0
ENDSEC
  0
SECTION
  2
BLOCKS
  0
ENDSEC
  0
SECTION
  2
ENTITIES
  0
LINE
  8
0
  6
CENTER
 62
     7
 10
168.3003845214844
 20
34.999755859375
 11
184.2286071777344
 21
34.999755859375
  0
LINE
  8
0
  6
CONTINUOUS
 62
     7
 10
179.5001220703125
 20
30.8798828125
 11
179.5001220703125
 21
39.11962890625
  0
LINE
  8
0
  6
CONTINUOUS
 62
     7
 10
176.5000915527344
 20
38.999755859375
 11
179.5000915527344
 21
38.999755859375
  0
LINE
  8
0
  6
CONTINUOUS
 62
     7
 10
181.5000915527344
 20
39.61962890625
 11
180.0000915527344
 21
39.61962890625
  0
LINE
  8
0
  6
CONTINUOUS
 62
     7
 10
181.5000915527344
 20
37.309814453125
 11
180.0000915527344
 21
37.309814453125
  0
LINE
  8
0
  6
CONTINUOUS
 62
     7
 10
181.5000915527344
 20
30.3798828125
 11
180.0000915527344
 21
30.3798828125
  0
LINE
  8
0
  6
CONTINUOUS
 62
     7
 10
180.5501403808594
 20
32.689697265625
 11
180.0000915527344
 21
32.689697265625
  0
LINE
  8
0
  6
CONTINUOUS
 62
     7
 10
179.9999847412109
 20
30.37963104248047
 11
179.5000305175781
 21
30.87957763671875
  0
LINE
  8
0
  6
CONTINUOUS
 62
     7
 10
179.5000305175781
 20
39.11972045898438
 11
179.9999847412109
 21
39.61966705322266
  0
LINE
  8
0
  6
CONTINUOUS
 62
     7
 10
177.6001892089844
 20
31.499755859375
 11
172.3999938964844
 21
31.499755859375
  0
LINE
  8
0
  6
CONTINUOUS
 62
     7
 10
177.6002197265625
 20
31.459716796875
 11
177.6002197265625
 21
31.499755859375
  0
LINE
  8
0
  6
CONTINUOUS
 62
     7
 10
179.1001586914063
 20
34.99972534179688
 11
177.6001739501953
 21
31.49974060058594
  0
LINE
  8
0
  6
CONTINUOUS
 62
     7
 10
178.2003173828125
 20
34.99976348876953
 11
176.6003112792969
 21
31.499755859375
  0
LINE
  8
0
  6
CONTINUOUS
 62
     7
 10
172.4006195068359
 20
31.49931907653809
 11
172.0006103515625
 21
32.07934951782227
  0
LINE
  8
0
  6
CONTINUOUS
 62
     7
 10
172.4001312255859
 20
38.49960327148438
 11
172.0001220703125
 21
37.91957092285156
  0
LINE
  8
0
  6
CONTINUOUS
 62
     7
 10
177.6001892089844
 20
38.499755859375
 11
172.3999938964844
 21
38.499755859375
  0
LINE
  8
0
  6
CONTINUOUS
 62
     7
 10
178.2006225585938
 20
34.99964904785156
 11
176.6005096435547
 21
38.4998779296875
  0
LINE
  8
0
  6
CONTINUOUS
 62
     7
 10
179.1003875732422
 20
34.99940872192383
 11
177.6004943847656
 21
38.49916458129883
  0
LINE
  8
0
  6
CONTINUOUS
 62
     7
 10
176.5000915527344
 20
30.999755859375
 11
179.5000915527344
 21
30.999755859375
  0
LINE
  8
0
  6
CENTER
 62
     7
 10
277
 20
8.999755859375
 11
277
 21
5.999755859375
  0
LINE
  8
0
  6
CENTER
 62
     7
 10
203
 20
8.999755859375
 11
203
 21
5.999755859375
  0
LINE
  8
0
  6
CONTINUOUS
 62
     7
 10
183.0001220703125
 20
39.999755859375
 11
183.0001220703125
 21
7.999755859375
  0
LINE
  8
0
  6
CONTINUOUS
 62
     7
 10
179.5001220703125
 20
26.69970703125
 11
179.5001220703125
 21
8.499755859375
  0
LINE
  8
0
  6
CONTINUOUS
 62
     7
 10
181.5001220703125
 20
39.999755859375
 11
181.5001220703125
 21
8.499755859375
  0
LINE
  8
0
  6
CONTINUOUS
 62
     7
 10
100
 20
25.999755859375
 11
179.5001220703125
 21
25.999755859375
  0
LINE
  8
0
  6
CONTINUOUS
 62
     7
 10
100
 20
0
 11
380
 21
0
  0
LINE
  8
0
  6
CONTINUOUS
 62
     7
 10
181.5001220703125
 20
39.999755859375
 11
183.0001220703125
 21
39.999755859375
  0
LINE
  8
0
  6
CONTINUOUS
 62
     7
 10
300.5001220703125
 20
25.999755859375
 11
380
 21
25.999755859375
  0
LINE
  8
0
  6
CONTINUOUS
 62
     7
 10
195.1001434326172
 20
41.999755859375
 11
284.9000854492188
 21
41.999755859375
  0
LINE
  8
0
  6
CONTINUOUS
 62
     7
 10
193.5000457763672
 20
7.999755859375
 11
286.5001831054688
 21
7.999755859375
  0
LINE
  8
0
  6
CONTINUOUS
 62
     7
 10
286.5001831054688
 20
40.999755859375
 11
286.5001831054688
 21
7.999755859375
  0
LINE
  8
0
  6
CONTINUOUS
 62
     7
 10
284.8999633789063
 20
41.99961090087891
 11
286.4999389648438
 21
40.39964294433594
  0
LINE
  8
0
  6
CONTINUOUS
 62
     7
 10
296.9999389648438
 20
39.99997329711914
 11
296.0000305175781
 21
40.9998664855957
  0
LINE
  8
0
  6
CONTINUOUS
 62
     7
 10
286.5001831054688
 20
7.999755859375
 11
297.0001220703125
 21
7.999755859375
  0
LINE
  8
0
  6
CONTINUOUS
 62
     7
 10
286.5001831054688
 20
40.999755859375
 11
296.0001220703125
 21
40.999755859375
  0
LINE
  8
0
  6
CONTINUOUS
 62
     7
 10
298.5000610351563
 20
28.69973564147949
 11
300.4998474121094
 21
26.69994926452637
  0
LINE
  8
0
  6
CONTINUOUS
 62
     7
 10
297.0001220703125
 20
8.499755859375
 11
300.5001220703125
 21
8.499755859375
  0
LINE
  8
0
  6
CONTINUOUS
 62
     7
 10
297.0001220703125
 20
39.999755859375
 11
298.5001220703125
 21
39.999755859375
  0
LINE
  8
0
  6
CONTINUOUS
 62
     7
 10
298.5001220703125
 20
8.499755859375
 11
298.5001220703125
 21
39.999755859375
  0
LINE
  8
0
  6
CONTINUOUS
 62
     7
 10
300.5001220703125
 20
8.499755859375
 11
300.5001220703125
 21
26.69970703125
  0
LINE
  8
0
  6
CONTINUOUS
 62
     7
 10
297.0001220703125
 20
7.999755859375
 11
297.0001220703125
 21
39.999755859375
  0
LINE
  8
0
  6
CONTINUOUS
 62
     7
 10
180.5501708984375
 20
35.49951171875
 11
180.5501708984375
 21
32.49951171875
  0
LINE
  8
0
  6
CENTER
 62
     7
 10
299.8184509277344
 20
33.999755859375
 11
294.8814392089844
 21
33.999755859375
  0
LINE
  8
0
  6
CONTINUOUS
 62
     7
 10
299.4500427246094
 20
32.499755859375
 11
299.4500427246094
 21
35.49951171875
  0
LINE
  8
0
  6
CENTER
 62
     7
 10
185.1187744140625
 20
33.99951171875
 11
180.1817626953125
 21
33.99951171875
  0
LINE
  8
0
  6
CONTINUOUS
 62
     7
 10
193.5001525878906
 20
40.39955902099609
 11
195.1001129150391
 21
41.99952697753906
  0
LINE
  8
0
  6
CONTINUOUS
 62
     7
 10
193.5000457763672
 20
7.999755859375
 11
193.5000457763672
 21
40.999755859375
  0
LINE
  8
0
  6
CONTINUOUS
 62
     7
 10
184.0002136230469
 20
40.99967193603516
 11
183.0003204345703
 21
39.99977874755859
  0
LINE
  8
0
  6
CONTINUOUS
 62
     7
 10
183.0001220703125
 20
7.999755859375
 11
193.5000457763672
 21
7.999755859375
  0
LINE
  8
0
  6
CONTINUOUS
 62
     7
 10
184.0001220703125
 20
40.999755859375
 11
193.5000457763672
 21
40.999755859375
  0
LINE
  8
0
  6
CONTINUOUS
 62
     7
 10
179.5002136230469
 20
26.69994926452637
 11
181.5
 21
28.69973564147949
  0
LINE
  8
0
  6
CONTINUOUS
 62
     7
 10
179.5001220703125
 20
8.499755859375
 11
183.0001220703125
 21
8.499755859375
  0
LINE
  8
0
  6
CONTINUOUS
 62
     7
 10
12.5
 20
0
 11
7.75
 21
0
  0
LINE
  8
0
  6
CONTINUOUS
 62
     7
 10
-10.21484375
 20
26
 11
10.21533203125
 21
26
  0
LINE
  8
0
  6
CONTINUOUS
 62
     7
 10
14
 20
22.21484375
 11
14
 21
19.77978515625
  0
LINE
  8
0
  6
CONTINUOUS
 62
     7
 10
-14
 20
22.21484375
 11
-14
 21
19.77978515625
  0
LINE
  8
0
  6
CONTINUOUS
 62
     7
 10
9.30029296875
 20
15.079833984375
 11
9.30029296875
 21
11
  0
LINE
  8
0
  6
CONTINUOUS
 62
     7
 10
-9.2998046875
 20
15.079833984375
 11
-9.2998046875
 21
11
  0
LINE
  8
0
  6
CONTINUOUS
 62
     7
 10
10.21535396575928
 20
25.99964904785156
 11
11.00049114227295
 21
25.21451187133789
  0
LINE
  8
0
  6
CONTINUOUS
 62
     7
 10
-13.99994659423828
 20
19.7796630859375
 11
-13.52969264984131
 21
19.30941009521484
  0
LINE
  8
0
  6
CONTINUOUS
 62
     7
 10
9.300224304199219
 20
10.99969673156738
 11
14.00017070770264
 21
6.299750328063965
  0
LINE
  8
0
  6
CONTINUOUS
 62
     7
 10
9.300396919250488
 20
15.07954406738281
 11
10.99980068206787
 21
16.7789478302002
  0
LINE
  8
0
  6
CONTINUOUS
 62
     7
 10
-13.9997730255127
 20
6.299922466278076
 11
-9.299999237060547
 21
10.99969673156738
  0
LINE
  8
0
  6
CONTINUOUS
 62
     7
 10
-13.99977397918701
 20
22.21465873718262
 11
-13.52416896820068
 21
22.69026374816895
  0
LINE
  8
0
  6
CONTINUOUS
 62
     7
 10
-14
 20
6.2998046875
 11
-14
 21
1.5
  0
LINE
  8
0
  6
CONTINUOUS
 62
     7
 10
14
 20
6.2998046875
 11
14
 21
1.5
  0
LINE
  8
0
  6
CONTINUOUS
 62
     7
 10
-13.99937343597412
 20
1.499689221382141
 11
-12.49953365325928
 21
-0.000150675026816316
  0
LINE
  8
0
  6
CONTINUOUS
 62
     7
 10
14.00046253204346
 20
1.499492287635803
 11
12.50045013427734
 21
-0.0005202185129746795
  0
LINE
  8
0
  6
CONTINUOUS
 62
     7
 10
-10.99923133850098
 20
16.7789478302002
 11
-9.299827575683594
 21
15.07954502105713
  0
LINE
  8
0
  6
CONTINUOUS
 62
     7
 10
-10.99992179870606
 20
25.21451187133789
 11
-10.21478462219238
 21
25.99964904785156
  0
LINE
  8
0
  6
CONTINUOUS
 62
     7
 10
13.52473831176758
 20
22.69026374816895
 11
14.00017070770264
 21
22.2148323059082
  0
LINE
  8
0
  6
CONTINUOUS
 62
     7
 10
13.53026294708252
 20
19.30941009521484
 11
14.00034332275391
 21
19.77949142456055
  0
LINE
  8
0
  6
CONTINUOUS
 62
     7
 10
-7.25
 20
0.5
 11
-3.75
 21
0.5
  0
LINE
  8
0
  6
CONTINUOUS
 62
     7
 10
3.75
 20
0.5
 11
7.25
 21
0.5
  0
LINE
  8
0
  6
CONTINUOUS
 62
     7
 10
-7.74951171875
 20
0
 11
-12.49968528747559
 21
0
  0
LINE
  8
0
  6
CONTINUOUS
 62
     7
 10
-3.24951171875
 20
0
 11
3.25
 21
0
  0
LINE
  8
0
  6
CONTINUOUS
 62
     7
 10
-7.74957799911499
 20
-0.0003368376055732369
 11
-7.24945878982544
 21
0.4997823834419251
  0
LINE
  8
0
  6
CONTINUOUS
 62
     7
 10
3.249938011169434
 20
8.597957275924273E-006
 11
3.749884605407715
 21
0.4999551773071289
  0
LINE
  8
0
  6
CONTINUOUS
 62
     7
 10
7.250028610229492
 20
0.4997823834419251
 11
7.749975204467773
 21
-0.0001642041170271114
  0
LINE
  8
0
  6
CONTINUOUS
 62
     7
 10
-3.749659538269043
 20
0.4999551773071289
 11
-3.249712944030762
 21
8.597957275924273E-006
  0
LINE
  8
0
  6
CONTINUOUS
 62
     7
 10
-26.482421875
 20
8
 11
-22
 21
8
  0
LINE
  8
0
  6
CONTINUOUS
 62
     7
 10
21.9998779296875
 20
8
 11
26.4827880859375
 21
8
  0
LINE
  8
0
  6
CENTER
 62
     7
 10
-5
 20
35
 11
13.35400390625
 21
35
  0
LINE
  8
0
  6
CONTINUOUS
 62
     7
 10
44.9998779296875
 20
40.599853515625
 11
44.9998779296875
 21
32
  0
LINE
  8
0
  6
CONTINUOUS
 62
     7
 10
-45
 20
40.599853515625
 11
-45
 21
32
  0
LINE
  8
0
  6
CONTINUOUS
 62
     7
 10
-43.599609375
 20
42
 11
-25.7998046875
 21
42
  0
LINE
  8
0
  6
CONTINUOUS
 62
     7
 10
43.9998779296875
 20
30.267822265625
 11
43.9998779296875
 21
27
  0
LINE
  8
0
  6
CONTINUOUS
 62
     7
 10
-25
 20
41.199951171875
 11
-11
 21
41.199951171875
  0
LINE
  8
0
  6
CONTINUOUS
 62
     7
 10
11
 20
41.199951171875
 11
24.9998779296875
 21
41.199951171875
  0
LINE
  8
0
  6
CONTINUOUS
 62
     7
 10
-10.19970703125
 20
42
 11
10.2001953125
 21
42
  0
LINE
  8
0
  6
CONTINUOUS
 62
     7
 10
25.8001708984375
 20
42
 11
43.5999755859375
 21
42
  0
LINE
  8
0
  6
CONTINUOUS
 62
     7
 10
11.00018215179443
 20
41.19952011108398
 11
10.20019340515137
 21
41.99949645996094
  0
LINE
  8
0
  6
CONTINUOUS
 62
     7
 10
-24.99969863891602
 20
41.19968032836914
 11
-25.7996826171875
 21
41.99966430664063
  0
LINE
  8
0
  6
CONTINUOUS
 62
     7
 10
-10.99970054626465
 20
41.19963836669922
 11
-10.19971179962158
 21
41.99961853027344
  0
LINE
  8
0
  6
CONTINUOUS
 62
     7
 10
25.00031089782715
 20
41.19972991943359
 11
25.80029487609863
 21
41.99971389770508
  0
LINE
  8
0
  6
CONTINUOUS
 62
     7
 10
-43.599609375
 20
41.99947738647461
 11
-44.99949264526367
 21
40.59959030151367
  0
LINE
  8
0
  6
CONTINUOUS
 62
     7
 10
43.60031127929688
 20
41.99940872192383
 11
45.00001907348633
 21
40.59969329833984
  0
LINE
  8
0
  6
CONTINUOUS
 62
     7
 10
29.43697166442871
 20
10.47870445251465
 11
31.38398170471191
 21
21.520751953125
  0
LINE
  8
0
  6
CONTINUOUS
 62
     7
 10
-29.43692970275879
 20
10.47873401641846
 11
-31.38393974304199
 21
21.52078056335449
  0
LINE
  8
0
  6
CONTINUOUS
 62
     7
 10
34.3387451171875
 20
24
 11
40.9998779296875
 21
24
  0
LINE
  8
0
  6
CONTINUOUS
 62
     7
 10
-44
 20
30.267822265625
 11
-44
 21
27
  0
LINE
  8
0
  6
CONTINUOUS
 62
     7
 10
1.7802734375
 20
38.499755859375
 11
5.8603515625
 21
38.499755859375
  0
LINE
  8
0
  6
CONTINUOUS
 62
     7
 10
1.7802734375
 20
31.499755859375
 11
5.8603515625
 21
31.499755859375
  0
LINE
  8
0
  6
CONTINUOUS
 62
     7
 10
1.130136132240295
 20
34.99966430664063
 11
1.780124664306641
 21
31.49969100952148
  0
LINE
  8
0
  6
CONTINUOUS
 62
     7
 10
1.130183339118958
 20
34.99946212768555
 11
1.780171513557434
 21
38.49943161010742
  0
LINE
  8
0
  6
CONTINUOUS
 62
     7
 10
3.440254211425781
 20
34.9993782043457
 11
4.09025764465332
 21
31.49940872192383
  0
LINE
  8
0
  6
CONTINUOUS
 62
     7
 10
3.440143346786499
 20
34.99957275390625
 11
4.090146541595459
 21
38.49954223632813
  0
LINE
  8
0
  6
CONTINUOUS
 62
     7
 10
5.950069904327393
 20
31.96954727172852
 11
5.860063552856445
 21
31.49957275390625
  0
LINE
  8
0
  6
CONTINUOUS
 62
     7
 10
5.950548648834229
 20
38.01940536499023
 11
5.860509872436523
 21
38.49956130981445
  0
LINE
  8
0
  6
CONTINUOUS
 62
     7
 10
7.766476631164551
 20
31.75372314453125
 11
10.52034568786621
 21
32.49935531616211
  0
LINE
  8
0
  6
CONTINUOUS
 62
     7
 10
7.750205516815186
 20
38.24956893920898
 11
10.52009963989258
 21
37.49959945678711
  0
LINE
  8
0
  6
CONTINUOUS
 62
     7
 10
0.000422628567321226
 20
30.38055610656738
 11
1.947599411010742
 21
31.49963760375977
  0
LINE
  8
0
  6
CONTINUOUS
 62
     7
 10
-0.0005244479398243129
 20
39.61859512329102
 11
1.937883973121643
 21
38.49945449829102
  0
LINE
  8
0
  6
CENTER
 62
     7
 10
-36
 20
43
 11
-36
 21
31
  0
LINE
  8
0
  6
CONTINUOUS
 62
     7
 10
-22
 20
8.5
 11
-22
 21
8
  0
LINE
  8
0
  6
CONTINUOUS
 62
     7
 10
28.9998779296875
 20
37.999755859375
 11
28.9998779296875
 21
10.5
  0
LINE
  8
0
  6
CONTINUOUS
 62
     7
 10
-26.99974632263184
 20
40
 11
26.9998779296875
 21
40
  0
LINE
  8
0
  6
CONTINUOUS
 62
     7
 10
26.99983596801758
 20
39.99990844726563
 11
28.99996185302734
 21
37.99977111816406
  0
LINE
  8
0
  6
CONTINUOUS
 62
     7
 10
29.00012397766113
 20
10.4995813369751
 11
27.00015830993652
 21
8.499628067016602
  0
LINE
  8
0
  6
CONTINUOUS
 62
     7
 10
11.80029296875
 20
8.5
 11
26.9998779296875
 21
8.5
  0
LINE
  8
0
  6
CONTINUOUS
 62
     7
 10
-11.34228515625
 20
28.699951171875
 11
11.3427734375
 21
28.699951171875
  0
LINE
  8
0
  6
CONTINUOUS
 62
     7
 10
11.34299659729004
 20
28.69963645935059
 11
16.70015907287598
 21
23.34247398376465
  0
LINE
  8
0
  6
CONTINUOUS
 62
     7
 10
16.7001953125
 20
23.342529296875
 11
16.7001953125
 21
18.857177734375
  0
LINE
  8
0
  6
CONTINUOUS
 62
     7
 10
11.85036563873291
 20
14.00697231292725
 11
16.70033073425293
 21
18.85693740844727
  0
LINE
  8
0
  6
CONTINUOUS
 62
     7
 10
11.85009765625
 20
14.00732421875
 11
11.85009765625
 21
12.25244140625
  0
LINE
  8
0
  6
CONTINUOUS
 62
     7
 10
11.85019302368164
 20
12.25215339660645
 11
15.60272789001465
 21
8.499618530273438
  0
LINE
  8
0
  6
CONTINUOUS
 62
     7
 10
21.9998779296875
 20
8
 11
21.9998779296875
 21
8.5
  0
LINE
  8
0
  6
CONTINUOUS
 62
     7
 10
-3.998046875
 20
37.30810546875
 11
-3.998046875
 21
32.691650390625
  0
LINE
  8
0
  6
CONTINUOUS
 62
     7
 10
-3.998279809951782
 20
32.69134902954102
 11
0.00243700947612524
 21
30.38153266906738
  0
LINE
  8
0
  6
CONTINUOUS
 62
     7
 10
-3.998024225234985
 20
37.3077507019043
 11
0.002057552570477128
 21
39.6171989440918
  0
LINE
  8
0
  6
CONTINUOUS
 62
     7
 10
-29
 20
10.49986743927002
 11
-29
 21
37.99973297119141
  0
LINE
  8
0
  6
CONTINUOUS
 62
     7
 10
-26.99963188171387
 20
8.499509811401367
 11
-28.99976921081543
 21
10.49963665008545
  0
LINE
  8
0
  6
CONTINUOUS
 62
     7
 10
-26.99951171875
 20
8.5
 11
-11.7998046875
 21
8.5
  0
LINE
  8
0
  6
CONTINUOUS
 62
     7
 10
-16.69976234436035
 20
23.3423023223877
 11
-11.34242630004883
 21
28.69963645935059
  0
LINE
  8
0
  6
CONTINUOUS
 62
     7
 10
-16.69970703125
 20
18.857177734375
 11
-16.69970703125
 21
23.342529296875
  0
LINE
  8
0
  6
CONTINUOUS
 62
     7
 10
-16.69993400573731
 20
18.85711097717285
 11
-11.84962368011475
 21
14.00680065155029
  0
LINE
  8
0
  6
CONTINUOUS
 62
     7
 10
-11.849609375
 20
12.25244140625
 11
-11.849609375
 21
14.00732421875
  0
LINE
  8
0
  6
CONTINUOUS
 62
     7
 10
-15.60215854644775
 20
8.499619483947754
 11
-11.84962368011475
 21
12.25215339660645
  0
LINE
  8
0
  6
CONTINUOUS
 62
     7
 10
-41
 20
24
 11
-34.33837890625
 21
24
  0
LINE
  8
0
  6
CENTER
 62
     7
 10
35.9998779296875
 20
43
 11
35.9998779296875
 21
31
  0
LINE
  8
0
  6
CENTER
 62
     7
 10
0
 20
43
 11
0
 21
-1
  0
LINE
  8
0
  6
DASHED
 62
     7
 10
-7
 20
26
 11
-7
 21
14
  0
LINE
  8
0
  6
DASHED
 62
     7
 10
7
 20
26
 11
7
 21
14
  0
LINE
  8
0
  6
DASHED
 62
     7
 10
4.5
 20
14
 11
4.5
 21
0.5
  0
LINE
  8
0
  6
DASHED
 62
     7
 10
-4.5
 20
14
 11
-4.5
 21
0.5
  0
LINE
  8
0
  6
DASHED
 62
     7
 10
-7
 20
14
 11
7
 21
14
  0
LINE
  8
0
  6
CENTER
 62
     7
 10
18.9998779296875
 20
9.5
 11
18.9998779296875
 21
6
  0
LINE
  8
0
  6
CENTER
 62
     7
 10
-19
 20
9.5
 11
-19
 21
6
  0
LINE
  8
0
  6
CONTINUOUS
 62
     7
 10
-21.23251914978027
 20
8.499631881713867
 11
-21.18160057067871
 21
7.91762638092041
  0
LINE
  8
0
  6
CONTINUOUS
 62
     7
 10
-16.81821632385254
 20
7.917662143707275
 11
-16.76726913452148
 21
8.5
  0
LINE
  8
0
  6
CENTER
 62
     7
 10
-17.75
 20
34
 11
-10.25
 21
34
  0
LINE
  8
0
  6
CENTER
 62
     7
 10
-14
 20
37.75
 11
-14
 21
30.25
  0
LINE
  8
0
  6
CENTER
 62
     7
 10
10.25
 20
34
 11
17.75
 21
34
  0
LINE
  8
0
  6
CENTER
 62
     7
 10
14
 20
30.25
 11
14
 21
37.75
  0
LINE
  8
0
  6
CONTINUOUS
 62
     7
 10
-26.99983596801758
 20
39.99990844726563
 11
-28.99996185302734
 21
37.99977111816406
  0
LINE
  8
0
  6
CONTINUOUS
 62
     7
 10
100
 20
25.999755859375
 11
100
 21
0
  0
LINE
  8
0
  6
CENTER
 62
     7
 10
120
 20
26.999755859375
 11
120
 21
-1
  0
LINE
  8
0
  6
DASHED
 62
     7
 10
113
 20
26
 11
113
 21
14
  0
LINE
  8
0
  6
DASHED
 62
     7
 10
127
 20
26
 11
127
 21
14
  0
LINE
  8
0
  6
DASHED
 62
     7
 10
124.5
 20
14
 11
124.5
 21
0
  0
LINE
  8
0
  6
DASHED
 62
     7
 10
115.5
 20
14
 11
115.5
 21
0
  0
LINE
  8
0
  6
DASHED
 62
     7
 10
113
 20
14
 11
127
 21
14
  0
LINE
  8
0
  6
CONTINUOUS
 62
     7
 10
380
 20
25.999755859375
 11
380
 21
0
  0
LINE
  8
0
  6
CENTER
 62
     7
 10
200
 20
8.999755859375
 11
200
 21
-1
  0
LINE
  8
0
  6
CENTER
 62
     7
 10
280
 20
8.999755859375
 11
280
 21
-1
  0
LINE
  8
0
  6
CENTER
 62
     7
 10
360
 20
26.999755859375
 11
360
 21
-1
  0
LINE
  8
0
  6
CONTINUOUS
 62
     7
 10
100
 20
25.21451187133789
 11
179.5001220703125
 21
25.21451187133789
  0
LINE
  8
0
  6
CONTINUOUS
 62
     7
 10
100
 20
22.69049644470215
 11
179.5001220703125
 21
22.69049644470215
  0
LINE
  8
0
  6
CONTINUOUS
 62
     7
 10
100
 20
19.31001853942871
 11
179.5001220703125
 21
19.31001853942871
  0
LINE
  8
0
  6
CONTINUOUS
 62
     7
 10
100
 20
15.07944011688232
 11
179.5001220703125
 21
15.07944011688232
  0
LINE
  8
0
  6
CONTINUOUS
 62
     7
 10
100
 20
10.9996280670166
 11
179.5001220703125
 21
10.9996280670166
  0
LINE
  8
0
  6
CONTINUOUS
 62
     7
 10
100
 20
6.299749851226807
 11
380
 21
6.299749851226807
  0
LINE
  8
0
  6
CONTINUOUS
 62
     7
 10
300.5001220703125
 20
25.21451187133789
 11
380
 21
25.21451187133789
  0
LINE
  8
0
  6
CONTINUOUS
 62
     7
 10
300.5001220703125
 20
22.69049644470215
 11
380
 21
22.69049644470215
  0
LINE
  8
0
  6
CONTINUOUS
 62
     7
 10
300.5001220703125
 20
19.31001853942871
 11
380
 21
19.31001853942871
  0
LINE
  8
0
  6
CONTINUOUS
 62
     7
 10
300.5001220703125
 20
15.07944011688232
 11
380
 21
15.07944011688232
  0
LINE
  8
0
  6
CONTINUOUS
 62
     7
 10
300.5001220703125
 20
10.9996280670166
 11
380
 21
10.9996280670166
  0
LINE
  8
0
  6
CENTER
 62
     7
 10
99
 20
166.999755859375
 11
381
 21
166.999755859375
  0
LINE
  8
0
  6
CONTINUOUS
 62
     7
 10
193.5000457763672
 20
121.9998779296875
 11
286.5001831054688
 21
121.9998779296875
  0
LINE
  8
0
  6
CONTINUOUS
 62
     7
 10
193.5000457763672
 20
211.999755859375
 11
286.5001831054688
 21
211.999755859375
  0
LINE
  8
0
  6
CONTINUOUS
 62
     7
 10
193.5000457763672
 20
192.799560546875
 11
286.5001831054688
 21
192.799560546875
  0
LINE
  8
0
  6
CONTINUOUS
 62
     7
 10
193.5000457763672
 20
177.199462890625
 11
286.5001831054688
 21
177.199462890625
  0
LINE
  8
0
  6
CONTINUOUS
 62
     7
 10
193.5000457763672
 20
156.799560546875
 11
286.5001831054688
 21
156.799560546875
  0
LINE
  8
0
  6
CONTINUOUS
 62
     7
 10
193.5000457763672
 20
141.1995849609375
 11
286.5001831054688
 21
141.1995849609375
  0
LINE
  8
0
  6
CONTINUOUS
 62
     7
 10
193.5000457763672
 20
211.999755859375
 11
193.5000457763672
 21
121.9998779296875
  0
LINE
  8
0
  6
CONTINUOUS
 62
     7
 10
286.5001831054688
 20
211.999755859375
 11
286.5001831054688
 21
121.9998779296875
  0
LINE
  8
0
  6
CONTINUOUS
 62
     7
 10
181.5001220703125
 20
137.9998779296875
 11
193.5000457763672
 21
137.9998779296875
  0
LINE
  8
0
  6
CONTINUOUS
 62
     7
 10
181.5001220703125
 20
195.999755859375
 11
193.5000457763672
 21
195.999755859375
  0
LINE
  8
0
  6
CONTINUOUS
 62
     7
 10
179.5001220703125
 20
181.699462890625
 11
179.5001220703125
 21
170.999755859375
  0
LINE
  8
0
  6
CONTINUOUS
 62
     7
 10
181.5001220703125
 20
195.999755859375
 11
181.5001220703125
 21
137.9998779296875
  0
LINE
  8
0
  6
CONTINUOUS
 62
     7
 10
183.0001220703125
 20
195.999755859375
 11
183.0001220703125
 21
137.9998779296875
  0
LINE
  8
0
  6
CONTINUOUS
 62
     7
 10
179.5001220703125
 20
181.699462890625
 11
181.5001220703125
 21
183.699462890625
  0
LINE
  8
0
  6
CONTINUOUS
 62
     7
 10
179.5001068115234
 20
152.2995910644531
 11
181.5001068115234
 21
150.2995910644531
  0
LINE
  8
0
  6
CONTINUOUS
 62
     7
 10
180.5501708984375
 20
154.499755859375
 11
180.5501708984375
 21
151.499755859375
  0
LINE
  8
0
  6
CENTER
 62
     7
 10
185.1187744140625
 20
152.999755859375
 11
180.1817626953125
 21
152.999755859375
  0
LINE
  8
0
  6
CENTER
 62
     7
 10
185.1187744140625
 20
180.999755859375
 11
180.1817626953125
 21
180.999755859375
  0
LINE
  8
0
  6
CONTINUOUS
 62
     7
 10
180.5501708984375
 20
179.499755859375
 11
180.5501708984375
 21
182.499755859375
  0
LINE
  8
0
  6
CENTER
 62
     7
 10
294.8814697265625
 20
152.999755859375
 11
299.8184814453125
 21
152.999755859375
  0
LINE
  8
0
  6
CONTINUOUS
 62
     7
 10
299.4500732421875
 20
179.499755859375
 11
299.4500732421875
 21
182.499755859375
  0
LINE
  8
0
  6
CONTINUOUS
 62
     7
 10
300.5001220703125
 20
152.2995910644531
 11
298.5001220703125
 21
150.2995910644531
  0
LINE
  8
0
  6
CENTER
 62
     7
 10
294.8814697265625
 20
180.999755859375
 11
299.8184814453125
 21
180.999755859375
  0
LINE
  8
0
  6
CONTINUOUS
 62
     7
 10
300.5001220703125
 20
181.699462890625
 11
298.5001220703125
 21
183.699462890625
  0
LINE
  8
0
  6
CONTINUOUS
 62
     7
 10
299.4500732421875
 20
154.499755859375
 11
299.4500732421875
 21
151.499755859375
  0
LINE
  8
0
  6
CONTINUOUS
 62
     7
 10
298.5001220703125
 20
195.999755859375
 11
286.5001831054688
 21
195.999755859375
  0
LINE
  8
0
  6
CONTINUOUS
 62
     7
 10
297.0001220703125
 20
195.999755859375
 11
297.0001220703125
 21
137.9998779296875
  0
LINE
  8
0
  6
CONTINUOUS
 62
     7
 10
298.5001220703125
 20
195.999755859375
 11
298.5001220703125
 21
137.9998779296875
  0
LINE
  8
0
  6
CONTINUOUS
 62
     7
 10
300.5001220703125
 20
181.699462890625
 11
300.5001220703125
 21
152.2995910644531
  0
LINE
  8
0
  6
CONTINUOUS
 62
     7
 10
298.5001220703125
 20
137.9998779296875
 11
286.5001831054688
 21
137.9998779296875
  0
LINE
  8
0
  6
CONTINUOUS
 62
     7
 10
100
 20
152.999755859375
 11
179.5001220703125
 21
152.999755859375
  0
LINE
  8
0
  6
CONTINUOUS
 62
     7
 10
100
 20
180.999755859375
 11
179.5001220703125
 21
180.999755859375
  0
LINE
  8
0
  6
CONTINUOUS
 62
     7
 10
100
 20
156.7844085693359
 11
171.6578674316406
 21
156.7844085693359
  0
LINE
  8
0
  6
CONTINUOUS
 62
     7
 10
100
 20
177.214599609375
 11
179.5001220703125
 21
177.214599609375
  0
LINE
  8
0
  6
CONTINUOUS
 62
     7
 10
100
 20
180.999755859375
 11
100
 21
152.999755859375
  0
LINE
  8
0
  6
CONTINUOUS
 62
     7
 10
380
 20
180.999755859375
 11
380
 21
152.999755859375
  0
LINE
  8
0
  6
CONTINUOUS
 62
     7
 10
300.5001220703125
 20
180.999755859375
 11
380
 21
180.999755859375
  0
LINE
  8
0
  6
CONTINUOUS
 62
     7
 10
300.5001220703125
 20
177.214599609375
 11
380
 21
177.214599609375
  0
LINE
  8
0
  6
CONTINUOUS
 62
     7
 10
300.5001220703125
 20
156.7844085693359
 11
380
 21
156.7844085693359
  0
LINE
  8
0
  6
CONTINUOUS
 62
     7
 10
300.5001220703125
 20
152.999755859375
 11
380
 21
152.999755859375
  0
LINE
  8
0
  6
CENTER
 62
     7
 10
120
 20
174.999755859375
 11
120
 21
158.999755859375
  0
LINE
  8
0
  6
CENTER
 62
     7
 10
200
 20
174.999755859375
 11
200
 21
158.999755859375
  0
LINE
  8
0
  6
CENTER
 62
     7
 10
280
 20
174.999755859375
 11
280
 21
158.999755859375
  0
LINE
  8
0
  6
CENTER
 62
     7
 10
360
 20
174.999755859375
 11
360
 21
158.999755859375
  0
LINE
  8
0
  6
CONTINUOUS
 62
     7
 10
179.5001220703125
 20
162.9997406005859
 11
179.5001220703125
 21
170.9997406005859
  0
LINE
  8
0
  6
CONTINUOUS
 62
     7
 10
176.2002105712891
 20
170.999755859375
 11
179.5001220703125
 21
170.999755859375
  0
LINE
  8
0
  6
CONTINUOUS
 62
     7
 10
177.8202362060547
 20
162.999755859375
 11
179.5001220703125
 21
162.999755859375
  0
LINE
  8
0
  6
CONTINUOUS
 62
     7
 10
172.2002258300781
 20
166.999755859375
 11
172.2002258300781
 21
165.32763671875
  0
LINE
  8
0
  6
CONTINUOUS
 62
     7
 10
179.5001068115234
 20
170.999755859375
 11
181.5001068115234
 21
170.999755859375
  0
LINE
  8
0
  6
CONTINUOUS
 62
     7
 10
179.5001068115234
 20
162.999755859375
 11
181.5001068115234
 21
162.999755859375
  0
LINE
  8
0
  6
CENTER
 62
     7
 10
171.7519683837891
 20
155.4776306152344
 11
176.6172790527344
 21
167.2235107421875
  0
LINE
  8
0
  6
CONTINUOUS
 62
     7
 10
169.9828948974609
 20
157.4781951904297
 11
174.4175262451172
 21
155.6413116455078
  0
LINE
  8
0
  6
CONTINUOUS
 62
     7
 10
170.1846618652344
 20
160.3170928955078
 11
176.2822570800781
 21
157.7913818359375
  0
LINE
  8
0
  6
CONTINUOUS
 62
     7
 10
169.9828948974609
 20
157.4782104492188
 11
170.1846618652344
 21
160.3171081542969
  0
LINE
  8
0
  6
CONTINUOUS
 62
     7
 10
174.4175415039063
 20
155.6413116455078
 11
176.2822875976563
 21
157.7913970947266
  0
LINE
  8
0
  6
CONTINUOUS
 62
     7
 10
170.9233856201172
 20
164.0379486083984
 11
171.3380584716797
 21
165.0390167236328
  0
LINE
  8
0
  6
CONTINUOUS
 62
     7
 10
178.3909759521484
 20
160.9447631835938
 11
178.8056182861328
 21
161.9458312988281
  0
LINE
  8
0
  6
CONTINUOUS
 62
     7
 10
172.1174774169922
 20
165.3618316650391
 11
171.3380432128906
 21
165.0389862060547
  0
LINE
  8
0
  6
CONTINUOUS
 62
     7
 10
172.5606689453125
 20
162.7103424072266
 11
173.4332427978516
 21
164.8169097900391
  0
LINE
  8
0
  6
CONTINUOUS
 62
     7
 10
176.2944488525391
 20
161.1637573242188
 11
177.1670227050781
 21
163.2703247070313
  0
LINE
  8
0
  6
CONTINUOUS
 62
     7
 10
172.1174926757813
 20
165.3619079589844
 11
178.4827880859375
 21
162.7253112792969
  0
LINE
  8
0
  6
CONTINUOUS
 62
     7
 10
178.8056488037109
 20
161.9458160400391
 11
178.4827728271484
 21
162.7252807617188
  0
LINE
  8
0
  6
CONTINUOUS
 62
     7
 10
171.31494140625
 20
161.7392272949219
 11
176.4886474609375
 21
159.59619140625
  0
LINE
  8
0
  6
CONTINUOUS
 62
     7
 10
179.5001220703125
 20
162.999755859375
 11
179.5001220703125
 21
152.2995910644531
  0
LINE
  8
0
  6
CONTINUOUS
 62
     7
 10
175.4089050292969
 20
156.7844085693359
 11
179.5001220703125
 21
156.7844085693359
  0
LINE
  8
0
  6
CONTINUOUS
 62
     7
 10
171.1531677246094
 20
163.2933654785156
 11
177.7019653320313
 21
160.5807647705078
  0
LINE
  8
0
  6
DASHED
 62
     7
 10
-40.5
 20
32
 11
-40.5
 21
42
  0
LINE
  8
0
  6
DASHED
 62
     7
 10
-29
 20
9.368497848510742
 11
-29
 21
32
  0
LINE
  8
0
  6
DASHED
 62
     7
 10
-31.5
 20
32
 11
-31.5
 21
42
  0
LINE
  8
0
  6
DASHED
 62
     7
 10
-43.7205810546875
 20
32
 11
-29
 21
32
  0
LINE
  8
0
  6
CENTER
 62
     7
 10
214
 20
42.999755859375
 11
214
 21
7.999755859375
  0
LINE
  8
0
  6
CONTINUOUS
 62
     7
 10
221
 20
23.999755859375
 11
259
 21
23.999755859375
  0
LINE
  8
0
  6
CONTINUOUS
 62
     7
 10
221
 20
31.681884765625
 11
259
 21
31.681884765625
  0
LINE
  8
0
  6
CONTINUOUS
 62
     7
 10
193.5000457763672
 20
31.999755859375
 11
221
 21
31.999755859375
  0
LINE
  8
0
  6
DASHED
 62
     7
 10
209.5
 20
41.999755859375
 11
209.5
 21
31.999755859375
  0
LINE
  8
0
  6
DASHED
 62
     7
 10
218.5
 20
41.999755859375
 11
218.5
 21
31.999755859375
  0
LINE
  8
0
  6
CONTINUOUS
 62
     7
 10
207
 20
31.999755859375
 11
207
 21
23.999755859375
  0
LINE
  8
0
  6
CONTINUOUS
 62
     7
 10
221
 20
31.999755859375
 11
221
 21
23.999755859375
  0
LINE
  8
0
  6
CONTINUOUS
 62
     7
 10
218.6159515380859
 20
10.4787483215332
 11
221.0000457763672
 21
23.99964714050293
  0
LINE
  8
0
  6
CONTINUOUS
 62
     7
 10
207.0001220703125
 20
23.99932289123535
 11
209.3842315673828
 21
10.47841262817383
  0
LINE
  8
0
  6
CONTINUOUS
 62
     7
 10
273
 20
23.999755859375
 11
273
 21
31.999755859375
  0
LINE
  8
0
  6
CONTINUOUS
 62
     7
 10
259
 20
23.999755859375
 11
259
 21
31.999755859375
  0
LINE
  8
0
  6
CONTINUOUS
 62
     7
 10
259
 20
23.99971580505371
 11
261.3841247558594
 21
10.47880268096924
  0
LINE
  8
0
  6
CONTINUOUS
 62
     7
 10
270.6158752441406
 20
10.47883892059326
 11
273
 21
23.99974632263184
  0
LINE
  8
0
  6
CENTER
 62
     7
 10
266
 20
7.999755859375
 11
266
 21
42.999755859375
  0
LINE
  8
0
  6
CONTINUOUS
 62
     7
 10
259
 20
31.999755859375
 11
286.4999389648438
 21
31.999755859375
  0
LINE
  8
0
  6
CENTER
 62
     7
 10
219.5
 20
130.999755859375
 11
208.5
 21
130.999755859375
  0
LINE
  8
0
  6
CENTER
 62
     7
 10
214
 20
136.499755859375
 11
214
 21
125.499755859375
  0
LINE
  8
0
  6
CENTER
 62
     7
 10
266.000244140625
 20
136.499755859375
 11
266.000244140625
 21
125.499755859375
  0
LINE
  8
0
  6
CENTER
 62
     7
 10
260.500244140625
 20
130.999755859375
 11
271.500244140625
 21
130.999755859375
  0
LINE
  8
0
  6
CENTER
 62
     7
 10
260.500244140625
 20
202.999755859375
 11
271.500244140625
 21
202.999755859375
  0
LINE
  8
0
  6
CENTER
 62
     7
 10
214
 20
197.499755859375
 11
214
 21
208.499755859375
  0
LINE
  8
0
  6
CENTER
 62
     7
 10
219.5
 20
202.999755859375
 11
208.5
 21
202.999755859375
  0
LINE
  8
0
  6
CENTER
 62
     7
 10
266.000244140625
 20
197.499755859375
 11
266.000244140625
 21
208.499755859375
  0
LINE
  8
0
  6
DASHED
 62
     7
 10
-7.999916076660156
 20
29.59985733032227
 11
7.999961853027344
 21
29.59985733032227
  0
LINE
  8
0
  6
DASHED
 62
     7
 10
-6.999916076660156
 20
37.5
 11
-6.999916076660156
 21
29.59985733032227
  0
LINE
  8
0
  6
DASHED
 62
     7
 10
6.999961853027344
 20
37.5
 11
6.999961853027344
 21
29.59985733032227
  0
LINE
  8
0
  6
DASHED
 62
     7
 10
-6.999916076660156
 20
37.5
 11
6.999961853027344
 21
37.5
  0
LINE
  8
0
  6
DASHED
 62
     7
 10
-4.499931335449219
 20
37.5
 11
-4.499931335449219
 21
42
  0
LINE
  8
0
  6
DASHED
 62
     7
 10
4.499931335449219
 20
37.5
 11
4.499931335449219
 21
42
  0
LINE
  8
0
  6
CENTER
 62
     7
 10
214
 20
161.499755859375
 11
214
 21
172.499755859375
  0
LINE
  8
0
  6
CENTER
 62
     7
 10
266.000244140625
 20
161.499755859375
 11
266.000244140625
 21
172.499755859375
  0
LINE
  8
0
  6
CONTINUOUS
 62
     7
 10
-43.7205810546875
 20
32
 11
-45
 21
32
  0
LINE
  8
0
  6
CONTINUOUS
 62
     7
 10
43.7205810546875
 20
32
 11
44.9998779296875
 21
32
  0
ARC
  8
0
  6
CONTINUOUS
 62
     7
 10
176.5001220703125
 20
34.999755859375
 40
3.982465744018556
 50
241.5040862782025
 51
269.9999087030627
  0
ARC
  8
0
  6
CONTINUOUS
 62
     7
 10
203
 20
12.999755859375
 40
5.999999999999999
 50
254.557342763284
 51
285.4426932088946
  0
ARC
  8
0
  6
CONTINUOUS
 62
     7
 10
204.384765625
 20
7.987548828125
 40
0.7999999523162812
 50
285.4426932088939
 51
0.8784649935446215
  0
ARC
  8
0
  6
CONTINUOUS
 62
     7
 10
201.61572265625
 20
7.987548828125
 40
0.7999999523162926
 50
179.121492417531
 51
254.5573254604404
  0
ARC
  8
0
  6
CONTINUOUS
 62
     7
 10
181.4000244140625
 20
38.58984375
 40
1.900939941406257
 50
181.8086700643979
 51
222.4362198515213
  0
ARC
  8
0
  6
CONTINUOUS
 62
     7
 10
182.8004150390625
 20
35.52978515625
 40
3.317878723144528
 50
147.5550901493999
 51
173.9458482720621
  0
ARC
  8
0
  6
CONTINUOUS
 62
     7
 10
182.8004150390625
 20
34.4697265625
 40
3.318496704101556
 50
186.054315652478
 51
212.4448005675732
  0
ARC
  8
0
  6
CONTINUOUS
 62
     7
 10
181.4005126953125
 20
31.409912109375
 40
1.896939277648928
 50
137.5635615824254
 51
178.1912206525752
  0
ARC
  8
0
  6
CONTINUOUS
 62
     7
 10
176.5001220703125
 20
34.999755859375
 40
3.999999999999998
 50
89.99998201391055
 51
118.4958044387709
  0
ARC
  8
0
  6
CONTINUOUS
 62
     7
 10
296.8492431640625
 20
33.9951171875
 40
2.999999999999994
 50
303.3850195924385
 51
330.102971097101
  0
ARC
  8
0
  6
CONTINUOUS
 62
     7
 10
296.8492431640625
 20
34.00439453125
 40
2.999999999999998
 50
29.89702890289898
 51
56.61498040756148
  0
ARC
  8
0
  6
CONTINUOUS
 62
     7
 10
183.1510009765625
 20
33.9951171875
 40
2.999999999999996
 50
209.8970307241319
 51
236.6149822287941
  0
ARC
  8
0
  6
CONTINUOUS
 62
     7
 10
183.1510009765625
 20
34.00439453125
 40
2.999999999999996
 50
123.3850177712058
 51
150.1029692758681
  0
ARC
  8
0
  6
CONTINUOUS
 62
     7
 10
-13.869140625
 20
25.559814453125
 40
2.889999389648439
 50
276.8601507054235
 51
353.139891186328
  0
ARC
  8
0
  6
CONTINUOUS
 62
     7
 10
-13.869140625
 20
16.43994140625
 40
2.889999389648437
 50
6.746867692327753
 51
83.25312115177206
  0
ARC
  8
0
  6
CONTINUOUS
 62
     7
 10
13.86962890625
 20
25.559814453125
 40
2.889999389648437
 50
186.8601140499994
 51
263.1398852667552
  0
ARC
  8
0
  6
CONTINUOUS
 62
     7
 10
13.86962890625
 20
16.43994140625
 40
2.889999389648437
 50
96.74684287604927
 51
173.2531031656828
  0
ARC
  8
0
  6
CONTINUOUS
 62
     7
 10
-41
 20
27
 40
3.000000000000001
 50
179.9999640278213
 51
270.0000006832453
  0
ARC
  8
0
  6
CONTINUOUS
 62
     7
 10
40.9998779296875
 20
27
 40
2.999999999999999
 50
270.0000179860893
 51
0
  0
ARC
  8
0
  6
CONTINUOUS
 62
     7
 10
-44
 20
32
 40
0.9999999999999981
 50
179.9999640278211
 51
239.999952037095
  0
ARC
  8
0
  6
CONTINUOUS
 62
     7
 10
-34.33837890625
 20
21
 40
3.000000000000001
 50
9.999950190221457
 51
89.99970880634389
  0
ARC
  8
0
  6
CONTINUOUS
 62
     7
 10
34.3387451171875
 20
21
 40
3.000000000000001
 50
90.00020057996414
 51
170.000020667789
  0
ARC
  8
0
  6
CONTINUOUS
 62
     7
 10
-45
 20
30.267822265625
 40
0.9999999999999968
 50
359.9999949509801
 51
59.99998800927364
  0
ARC
  8
0
  6
CONTINUOUS
 62
     7
 10
43.9998779296875
 20
32
 40
1.000000000000002
 50
300.0000119907264
 51
0
  0
ARC
  8
0
  6
CONTINUOUS
 62
     7
 10
44.9998779296875
 20
30.267822265625
 40
1
 50
119.9999760185477
 51
180.0000186693347
  0
ARC
  8
0
  6
CONTINUOUS
 62
     7
 10
26.4827880859375
 20
11
 40
3
 50
269.999963344576
 51
349.9999951682652
  0
ARC
  8
0
  6
CONTINUOUS
 62
     7
 10
-26.482421875
 20
11
 40
2.999999999999999
 50
190.0000339737243
 51
270.000127269116
  0
ARC
  8
0
  6
CONTINUOUS
 62
     7
 10
7.6103515625
 20
32.7099609375
 40
0.9683421850204466
 50
215.3314570768741
 51
278.2972225067941
  0
ARC
  8
0
  6
CONTINUOUS
 62
     7
 10
6.6201171875
 20
30.919921875
 40
1.246148109436035
 50
80.76452806729958
 51
142.1250351177266
  0
ARC
  8
0
  6
CONTINUOUS
 62
     7
 10
6.6201171875
 20
39.079833984375
 40
1.254199028015138
 50
217.8749648822736
 51
279.2353626496737
  0
ARC
  8
0
  6
CONTINUOUS
 62
     7
 10
7.6103515625
 20
37.289794921875
 40
0.9701610803604147
 50
81.70288677623263
 51
144.6685429231259
  0
ARC
  8
0
  6
CONTINUOUS
 62
     7
 10
0
 20
34.999755859375
 40
4
 50
240.0000239814524
 51
241.0449882829511
  0
ARC
  8
0
  6
CONTINUOUS
 62
     7
 10
0
 20
34.999755859375
 40
3.998106002807619
 50
61.09402038976974
 51
298.9059076658729
  0
ARC
  8
0
  6
CONTINUOUS
 62
     7
 10
-19
 20
13
 40
6.000000000000001
 50
254.557342763284
 51
285.4426932088946
  0
ARC
  8
0
  6
CONTINUOUS
 62
     7
 10
-17.615234375
 20
7.987548828125
 40
0.7999999523162841
 50
285.4426932088946
 51
355.0000044143218
  0
ARC
  8
0
  6
CONTINUOUS
 62
     7
 10
-20.38427734375
 20
7.987548828125
 40
0.7999999523162842
 50
185.0000076521948
 51
254.5573427632839
  0
CIRCLE
  8
0
  6
CONTINUOUS
 62
     7
 10
-14
 20
34
 40
2.84999942779541
  0
ARC
  8
0
  6
CONTINUOUS
 62
     7
 10
14
 20
34
 40
2.849999427795411
 50
193.4936484134291
 51
152.8869543815654
  0
ARC
  8
0
  6
CONTINUOUS
 62
     7
 10
183.1510009765625
 20
152.995361328125
 40
2.999999999999993
 50
209.8970307241317
 51
236.6149822287941
  0
ARC
  8
0
  6
CONTINUOUS
 62
     7
 10
183.1510009765625
 20
153.004638671875
 40
2.999999999999991
 50
123.3850177712059
 51
150.1029692758683
  0
ARC
  8
0
  6
CONTINUOUS
 62
     7
 10
183.1510009765625
 20
180.994873046875
 40
2.999999999999993
 50
209.8970307241317
 51
236.6149822287941
  0
ARC
  8
0
  6
CONTINUOUS
 62
     7
 10
183.1510009765625
 20
181.004150390625
 40
2.999999999999991
 50
123.3850177712059
 51
150.1029692758683
  0
ARC
  8
0
  6
CONTINUOUS
 62
     7
 10
296.8492431640625
 20
180.994873046875
 40
3
 50
303.3850161773439
 51
330.1029676820068
  0
ARC
  8
0
  6
CONTINUOUS
 62
     7
 10
296.8492431640625
 20
153.004638671875
 40
3.000000000000023
 50
29.89703231799328
 51
56.61498382265611
  0
ARC
  8
0
  6
CONTINUOUS
 62
     7
 10
296.8492431640625
 20
152.995361328125
 40
3
 50
303.3850161773439
 51
330.1029676820068
  0
ARC
  8
0
  6
CONTINUOUS
 62
     7
 10
296.8492431640625
 20
181.004150390625
 40
3.000000000000023
 50
29.89703231799328
 51
56.61498382265611
  0
CIRCLE
  8
0
  6
CONTINUOUS
 62
     7
 10
120
 20
166.999755859375
 40
4.5
  0
CIRCLE
  8
0
  6
CONTINUOUS
 62
     7
 10
120
 20
166.999755859375
 40
7
  0
ARC
  8
0
  6
CONTINUOUS
 62
     7
 10
183.7498779296875
 20
168.999755859375
 40
4.249771118164061
 50
151.9258648030746
 51
208.0741178940814
  0
ARC
  8
0
  6
CONTINUOUS
 62
     7
 10
183.75
 20
164.999755859375
 40
4.24988555908202
 50
151.9264658597215
 51
208.0735168374343
  0
ARC
  8
0
  6
CONTINUOUS
 62
     7
 10
177.2503051757813
 20
168.999755859375
 40
4.24977111816405
 50
331.9258836997802
 51
28.07413337569262
  0
ARC
  8
0
  6
CONTINUOUS
 62
     7
 10
177.2501831054688
 20
164.999755859375
 40
4.249885559082024
 50
331.9264847564272
 51
28.07353231904542
  0
ARC
  8
0
  6
CONTINUOUS
 62
     7
 10
173.2334594726563
 20
159.0542297363281
 40
3.299999237060546
 50
131.5803705110077
 51
157.4999548639651
  0
ARC
  8
0
  6
CONTINUOUS
 62
     7
 10
173.2334594726563
 20
159.0542297363281
 40
3.299999237060545
 50
337.5000181569009
 51
3.419602296415186
  0
ARC
  8
0
  6
CONTINUOUS
 62
     7
 10
165.3171081542969
 20
161.9003295898438
 40
6.00000000000001
 50
2.43365082934552
 51
20.87173987704925
  0
ARC
  8
0
  6
CONTINUOUS
 62
     7
 10
180.8436584472656
 20
155.4690246582031
 40
6.000000000000011
 50
114.1278165022775
 51
132.5663219780772
  0
ARC
  8
0
  6
CONTINUOUS
 62
     7
 10
170.5124206542969
 20
162.1211242675781
 40
0.7999999523162822
 50
311.5798327472963
 51
2.433049772698627
  0
ARC
  8
0
  6
CONTINUOUS
 62
     7
 10
177.3261413574219
 20
159.2987823486328
 40
0.7999999523162747
 50
132.5669776762372
 51
183.4201402735692
  0
ARC
  8
0
  6
CONTINUOUS
 62
     7
 10
176.2002258300781
 20
166.999755859375
 40
3.999999999999998
 50
89.99998201391055
 51
180.0000186693345
  0
ARC
  8
0
  6
CONTINUOUS
 62
     7
 10
43.7205810546875
 20
19.5
 40
12.5
 50
90.00000250447819
 51
170.5106865912742
  0
ARC
  8
0
  6
CONTINUOUS
 62
     7
 10
214
 20
19.512451171875
 40
10.14453697204589
 50
242.93427324889
 51
297.0658720063155
  0
ARC
  8
0
  6
CONTINUOUS
 62
     7
 10
266
 20
19.512451171875
 40
10.14453697204589
 50
242.9341639658633
 51
297.0657627232889
  0
ARC
  8
0
  6
CONTINUOUS
 62
     7
 10
-43.7205810546875
 20
19.5
 40
12.5
 50
9.489309879945648
 51
90.00000250447819
  0
CIRCLE
  8
0
  6
CONTINUOUS
 62
     7
 10
214
 20
130.999755859375
 40
4.5
  0
POLYLINE
  8
0
  6
CONTINUOUS
 62
     7
 66
     1
 10
0
 20
0
  0
VERTEX
  8
0
  6
CONTINUOUS
 62
     7
 10
171.0763374485372
 20
32.81864073998823
 42
0.06283216350505072
  0
VERTEX
  8
0
  6
CONTINUOUS
 62
     7
 10
171.6406362879866
 20
32.2924688321731
 42
0.0664971236868277
  0
VERTEX
  8
0
  6
CONTINUOUS
 62
     7
 10
172.320636819777
 20
31.92796477402921
 42
0.06915554882320164
  0
VERTEX
  8
0
  6
CONTINUOUS
 62
     7
 10
173.0729915266448
 20
31.75910697919825
 42
0.06975243727178322
  0
VERTEX
  8
0
  6
CONTINUOUS
 62
     7
 10
173.8417463305545
 20
31.80310470824922
 42
0.06816367988001897
  0
VERTEX
  8
0
  6
CONTINUOUS
 62
     7
 10
174.5695896403232
 20
32.05492625958843
 42
0.06499589504351608
  0
VERTEX
  8
0
  6
CONTINUOUS
 62
     7
 10
175.206155069595
 20
32.48975786473495
 42
0.06129076817675782
  0
VERTEX
  8
0
  6
CONTINUOUS
 62
     7
 10
175.7142123909337
 20
33.06985885889957
 42
0.05807941665769362
  0
VERTEX
  8
0
  6
CONTINUOUS
 62
     7
 10
176.0712097793404
 20
33.75385254710251
 42
0.05590519834447333
  0
VERTEX
  8
0
  6
CONTINUOUS
 62
     7
 10
176.2648693581204
 20
34.50099615474564
 42
0.0549645145028463
  0
VERTEX
  8
0
  6
CONTINUOUS
 62
     7
 10
176.2898849185534
 20
35.27171848089387
 42
0.05547380488206739
  0
VERTEX
  8
0
  6
CONTINUOUS
 62
     7
 10
176.1458056078955
 20
36.0296075833953
 42
0.05728029168302484
  0
VERTEX
  8
0
  6
CONTINUOUS
 62
     7
 10
175.836395988159
 20
36.73604913976058
 42
0.0602681264312625
  0
VERTEX
  8
0
  6
CONTINUOUS
 62
     7
 10
175.371157395224
 20
37.35135832597529
 42
0.0639522642994993
  0
VERTEX
  8
0
  6
CONTINUOUS
 62
     7
 10
174.7689515770542
 20
37.83373746528701
 42
0.06744483676642468
  0
VERTEX
  8
0
  6
CONTINUOUS
 62
     7
 10
174.0622948682895
 20
38.14320047085776
 42
0.0694416005808169
  0
VERTEX
  8
0
  6
CONTINUOUS
 62
     7
 10
173.300407409668
 20
38.249755859375
 42
0
  0
SEQEND
  8
0
  0
POLYLINE
  8
0
  6
CONTINUOUS
 62
     7
 66
     1
 10
0
 20
0
 70
     1
  0
VERTEX
  8
0
  6
CONTINUOUS
 62
     7
 10
10.52001953125
 20
37.499755859375
 42
0.2551554762438217
  0
VERTEX
  8
0
  6
CONTINUOUS
 62
     7
 10
9.990206009134761
 20
37.07486847843401
 42
0.06319180796813131
  0
VERTEX
  8
0
  6
CONTINUOUS
 62
     7
 10
9.736105006708913
 20
36.41198245764517
 42
0.03518717185968149
  0
VERTEX
  8
0
  6
CONTINUOUS
 62
     7
 10
9.609371143130101
 20
35.71193189593705
 42
0.02798629271311547
  0
VERTEX
  8
0
  6
CONTINUOUS
 62
     7
 10
9.57000732421875
 20
34.999755859375
 42
0.02790033163594726
  0
VERTEX
  8
0
  6
CONTINUOUS
 62
     7
 10
9.609142413597807
 20
34.28960685201113
 42
0.03516087829562964
  0
VERTEX
  8
0
  6
CONTINUOUS
 62
     7
 10
9.735640131211708
 20
33.58931547658294
 42
0.06315614608531162
  0
VERTEX
  8
0
  6
CONTINUOUS
 62
     7
 10
9.989677567277459
 20
32.92557569256874
 42
0.2552829221514735
  0
VERTEX
  8
0
  6
CONTINUOUS
 62
     7
 10
10.52001953125
 20
32.499755859375
 42
0.2551578350953497
  0
VERTEX
  8
0
  6
CONTINUOUS
 62
     7
 10
11.04983411833881
 20
32.92464103344489
 42
0.06319203025242098
  0
VERTEX
  8
0
  6
CONTINUOUS
 62
     7
 10
11.30393491672499
 20
33.58752711308824
 42
0.03518717678833777
  0
VERTEX
  8
0
  6
CONTINUOUS
 62
     7
 10
11.43066831846424
 20
34.28757775631694
 42
0.02798632226806054
  0
VERTEX
  8
0
  6
CONTINUOUS
 62
     7
 10
11.47003173828125
 20
34.999755859375
 42
0.02790047984932673
  0
VERTEX
  8
0
  6
CONTINUOUS
 62
     7
 10
11.43089698591074
 20
35.70990488298521
 42
0.03516106040170879
  0
VERTEX
  8
0
  6
CONTINUOUS
 62
     7
 10
11.30439914350767
 20
36.41019622840341
 42
0.06315637351381666
  0
VERTEX
  8
0
  6
CONTINUOUS
 62
     7
 10
11.05036104815231
 20
37.07393573913803
 42
0.2552808125226034
  0
SEQEND
  8
0
  0
POLYLINE
  8
0
  6
CONTINUOUS
 62
     7
 66
     1
 10
0
 20
0
  0
VERTEX
  8
0
  6
CONTINUOUS
 62
     7
 10
173.300407409668
 20
38.249755859375
 42
0.01434917183888547
  0
VERTEX
  8
0
  6
CONTINUOUS
 62
     7
 10
173.1415264050061
 20
38.24519467979242
 42
0.01426051768546837
  0
VERTEX
  8
0
  6
CONTINUOUS
 62
     7
 10
172.9839153905884
 20
38.23161917920771
 42
0.01417563784094806
  0
VERTEX
  8
0
  6
CONTINUOUS
 62
     7
 10
172.8278163645118
 20
38.20917638910317
 42
0.01415083188247599
  0
VERTEX
  8
0
  6
CONTINUOUS
 62
     7
 10
172.6728542371334
 20
38.17785302740604
 42
0.01410154647160959
  0
VERTEX
  8
0
  6
CONTINUOUS
 62
     7
 10
172.5195922761112
 20
38.13774537506493
 42
0.01402954588890824
  0
VERTEX
  8
0
  6
CONTINUOUS
 62
     7
 10
172.3685754655735
 20
38.08900125219073
 42
0.01393696925620581
  0
VERTEX
  8
0
  6
CONTINUOUS
 62
     7
 10
172.2203250265276
 20
38.03181580492745
 42
0.01382625342496694
  0
VERTEX
  8
0
  6
CONTINUOUS
 62
     7
 10
172.0753337971202
 20
37.96642651535463
 42
0.0137000482663069
  0
VERTEX
  8
0
  6
CONTINUOUS
 62
     7
 10
171.9340625900769
 20
37.89310765194564
 42
0.0135611300974888
  0
VERTEX
  8
0
  6
CONTINUOUS
 62
     7
 10
171.7969375912753
 20
37.81216439478693
 42
0.01332237684732941
  0
VERTEX
  8
0
  6
CONTINUOUS
 62
     7
 10
171.6652274927677
 20
37.72454596189099
 42
0.01328780965899847
  0
VERTEX
  8
0
  6
CONTINUOUS
 62
     7
 10
171.5372065063182
 20
37.62918275170903
 42
0.01315487638358326
  0
VERTEX
  8
0
  6
CONTINUOUS
 62
     7
 10
171.4141541351863
 20
37.526977319855
 42
0.01293834043670515
  0
VERTEX
  8
0
  6
CONTINUOUS
 62
     7
 10
171.2971097921346
 20
37.41896290121624
 42
0.01278035278018519
  0
VERTEX
  8
0
  6
CONTINUOUS
 62
     7
 10
171.1857733137562
 20
37.3050738297924
 42
0.01262534591699422
  0
VERTEX
  8
0
  6
CONTINUOUS
 62
     7
 10
171.080363822415
 20
37.18567667461882
 42
0
  0
SEQEND
  8
0
  0
POLYLINE
  8
0
  6
CONTINUOUS
 62
     7
 66
     1
 10
0
 20
0
  0
VERTEX
  8
0
  6
CONTINUOUS
 62
     7
 10
6.8203125
 20
37.84974670410156
 42
0.1885754046345939
  0
VERTEX
  8
0
  6
CONTINUOUS
 62
     7
 10
6.460584125474639
 20
37.69005725136918
 42
0.07574484704559528
  0
VERTEX
  8
0
  6
CONTINUOUS
 62
     7
 10
6.216352638959066
 20
37.37222047301793
 42
0.03933577191758048
  0
VERTEX
  8
0
  6
CONTINUOUS
 62
     7
 10
6.046494008041988
 20
37.00688721543917
 42
0.02577098815909317
  0
VERTEX
  8
0
  6
CONTINUOUS
 62
     7
 10
5.924342211268118
 20
36.62273736355429
 42
0.01950490589526488
  0
VERTEX
  8
0
  6
CONTINUOUS
 62
     7
 10
5.836853661891482
 20
36.22852670864047
 42
0.01621426289610866
  0
VERTEX
  8
0
  6
CONTINUOUS
 62
     7
 10
5.777495135863223
 20
35.82893706782394
 42
0.0144661465689052
  0
VERTEX
  8
0
  6
CONTINUOUS
 62
     7
 10
5.742628466075759
 20
35.42641386294118
 42
0.0136908174638847
  0
VERTEX
  8
0
  6
CONTINUOUS
 62
     7
 10
5.730380623148967
 20
35.0222712561906
 42
0.01360348655264262
  0
VERTEX
  8
0
  6
CONTINUOUS
 62
     7
 10
5.740096304712899
 20
34.61942759780985
 42
0.01431405740125332
  0
VERTEX
  8
0
  6
CONTINUOUS
 62
     7
 10
5.772243364128138
 20
34.21717754815534
 42
0.01598078067188615
  0
VERTEX
  8
0
  6
CONTINUOUS
 62
     7
 10
5.828749846459257
 20
33.81636044796031
 42
0.01902579425549634
  0
VERTEX
  8
0
  6
CONTINUOUS
 62
     7
 10
5.912805418945523
 20
33.42120737658151
 42
0.02487896475955752
  0
VERTEX
  8
0
  6
CONTINUOUS
 62
     7
 10
6.030813666473904
 20
33.03481068690211
 42
0.0372957099264757
  0
VERTEX
  8
0
  6
CONTINUOUS
 62
     7
 10
6.194880410109191
 20
32.66562530838199
 42
0.06998393217353374
  0
VERTEX
  8
0
  6
CONTINUOUS
 62
     7
 10
6.430458490508597
 20
32.33829138743393
 42
0.1738270911093547
  0
VERTEX
  8
0
  6
CONTINUOUS
 62
     7
 10
6.780222945665374
 20
32.1516926163579
 42
0
  0
SEQEND
  8
0
  0
POLYLINE
  8
0
  6
CONTINUOUS
 62
     7
 66
     1
 10
0
 20
0
 70
     1
  0
VERTEX
  8
0
  6
CONTINUOUS
 62
     7
 10
172.2002792358398
 20
37.499755859375
 42
0.1103774522029697
  0
VERTEX
  8
0
  6
CONTINUOUS
 62
     7
 10
171.2881221586727
 20
37.29473876757548
 42
0.1025060084563465
  0
VERTEX
  8
0
  6
CONTINUOUS
 62
     7
 10
170.5407876579609
 20
36.73073132305011
 42
0.09329005926343537
  0
VERTEX
  8
0
  6
CONTINUOUS
 62
     7
 10
170.0631818635619
 20
35.923839528531
 42
0.08782113043300602
  0
VERTEX
  8
0
  6
CONTINUOUS
 62
     7
 10
169.9002914428711
 20
34.99974060058594
 42
0.08777239875647243
  0
VERTEX
  8
0
  6
CONTINUOUS
 62
     7
 10
170.0630172580992
 20
34.07612227705135
 42
0.09326081159710786
  0
VERTEX
  8
0
  6
CONTINUOUS
 62
     7
 10
170.5403138968245
 20
33.26931594587807
 42
0.1026312542797796
  0
VERTEX
  8
0
  6
CONTINUOUS
 62
     7
 10
171.2885204998528
 20
32.70458459840605
 42
0.110332120384164
  0
VERTEX
  8
0
  6
CONTINUOUS
 62
     7
 10
172.200309753418
 20
32.499755859375
 42
0.1103785363106246
  0
VERTEX
  8
0
  6
CONTINUOUS
 62
     7
 10
173.1124668492253
 20
32.70477201445597
 42
0.1025061928013526
  0
VERTEX
  8
0
  6
CONTINUOUS
 62
     7
 10
173.8598004333016
 20
33.26878061929353
 42
0.09328955059999339
  0
VERTEX
  8
0
  6
CONTINUOUS
 62
     7
 10
174.3374056007745
 20
34.07567284157115
 42
0.0878204312234856
  0
VERTEX
  8
0
  6
CONTINUOUS
 62
     7
 10
174.5002975463867
 20
34.99977111816406
 42
0.08777236859845544
  0
VERTEX
  8
0
  6
CONTINUOUS
 62
     7
 10
174.3375688378611
 20
35.92338893085459
 42
0.0932603586303672
  0
VERTEX
  8
0
  6
CONTINUOUS
 62
     7
 10
173.8602704339323
 20
36.73019427372008
 42
0.1026306547840793
  0
VERTEX
  8
0
  6
CONTINUOUS
 62
     7
 10
173.1120637612425
 20
37.29492573620716
 42
0.1103315608459552
  0
SEQEND
  8
0
  0
TEXT
  8
0
  6
CONTINUOUS
 62
     7
 10
-1.285500049591065
 20
-21.79999995231628
 40
3.599999904632568
 41
1.007125066575079
  1
HSR30HB
  0
ENDSEC
  0
EOF
