  0
SECTION
  2
HEADER
  0
ENDSEC
  0
SECTION
  2
TABLES
  0
TABLE
  2
LTYPE
 70
    22
  0
LTYPE
  2
CONTINUOUS
 70
    64
  3
Solid line
 72
    65
 73
     0
 40
0.000000
  0
LTYPE
  2
DASHED
 70
    64
  3
__ __ __ __ __ __ __ __ __ __ __ __ __ __ __
 72
    65
 73
     2
 40
3.500000
 49
2.000000
 49
-1.500000
  0
LTYPE
  2
CENTER
 70
    64
  3
____ _ ____ _ ____ _ ____ _ ____ _ ____ _ ____
 72
    65
 73
     4
 40
17.500000
 49
13.000000
 49
-1.500000
 49
1.500000
 49
-1.500000
  0
LTYPE
  2
PHANTOM
 70
    64
  3
_____ _ _ _____ _ _ _____ _ _ _____ _ _ ____  
 72
    65
 73
     6
 40
15.500000
 49
8.000000
 49
-1.500000
 49
1.500000
 49
-1.500000
 49
1.500000
 49
-1.500000
  0
LTYPE
  2
DOT
 70
    64
  3
. . . . . . . . . . . . . . . . . . . . . . . .
 72
    65
 73
     2
 40
0.25
 49
0.0
 49
-0.25
  0
ENDTAB
  0
TABLE
  2
LAYER
 70
     1
  0
LAYER
  2
0
 70
     0
 62
     7
  6
CONTINUOUS
  0
ENDTAB
  0
TABLE
  2
STYLE
 70
     1
  0
STYLE
  2
STANDARD
 70
     0
 40
0.000000
 41
1.000000
 50
0.000000
 71
     0
 42
0.200000
  3
txt
  4
BIGFONT
  0
ENDTAB
  0
TABLE
  2
VIEW
 70
     0
  0
ENDTAB
  0
ENDSEC
  0
SECTION
  2
BLOCKS
  0
ENDSEC
  0
SECTION
  2
ENTITIES
  0
LINE
  8
0
  6
CENTER
 62
     7
 10
276.9997253417969
 20
6.431884765625
 11
276.9997253417969
 21
9.13232421875
  0
LINE
  8
0
  6
CONTINUOUS
 62
     7
 10
12.5
 20
0
 11
7.75
 21
0
  0
LINE
  8
0
  6
CONTINUOUS
 62
     7
 10
183.9998168945313
 20
40.99963760375977
 11
182.9999237060547
 21
39.9997444152832
  0
LINE
  8
0
  6
CONTINUOUS
 62
     7
 10
182.9997253417969
 20
7.999755859375
 11
193.4997711181641
 21
7.999755859375
  0
LINE
  8
0
  6
CONTINUOUS
 62
     7
 10
183.9997253417969
 20
40.999755859375
 11
193.4997711181641
 21
40.999755859375
  0
LINE
  8
0
  6
CONTINUOUS
 62
     7
 10
179.5
 20
26.69967460632324
 11
181.4997863769531
 21
28.69946098327637
  0
LINE
  8
0
  6
CONTINUOUS
 62
     7
 10
179.4997253417969
 20
8.499755859375
 11
182.9997253417969
 21
8.499755859375
  0
LINE
  8
0
  6
CONTINUOUS
 62
     7
 10
181.4997253417969
 20
39.999755859375
 11
182.9997253417969
 21
39.999755859375
  0
LINE
  8
0
  6
CONTINUOUS
 62
     7
 10
181.4997253417969
 20
39.999755859375
 11
181.4997253417969
 21
8.499755859375
  0
LINE
  8
0
  6
CONTINUOUS
 62
     7
 10
179.4997253417969
 20
26.69970703125
 11
179.4997253417969
 21
8.499755859375
  0
LINE
  8
0
  6
CONTINUOUS
 62
     7
 10
182.9997253417969
 20
39.999755859375
 11
182.9997253417969
 21
7.999755859375
  0
LINE
  8
0
  6
CONTINUOUS
 62
     7
 10
176.4997253417969
 20
30.99951171875
 11
179.4997253417969
 21
30.99951171875
  0
LINE
  8
0
  6
CONTINUOUS
 62
     7
 10
179.099853515625
 20
34.99977111816406
 11
177.5999603271484
 21
38.4995231628418
  0
LINE
  8
0
  6
CONTINUOUS
 62
     7
 10
178.2000732421875
 20
34.99976348876953
 11
176.5999603271484
 21
38.49999618530273
  0
LINE
  8
0
  6
CONTINUOUS
 62
     7
 10
177.5998229980469
 20
38.49951171875
 11
172.3996276855469
 21
38.49951171875
  0
LINE
  8
0
  6
CONTINUOUS
 62
     7
 10
172.3997650146484
 20
38.4996223449707
 11
171.999755859375
 21
37.91958999633789
  0
LINE
  8
0
  6
CONTINUOUS
 62
     7
 10
172.4000549316406
 20
31.49974632263184
 11
172.0000457763672
 21
32.07977676391602
  0
LINE
  8
0
  6
CONTINUOUS
 62
     7
 10
178.1999053955078
 20
34.99979019165039
 11
176.5998992919922
 21
31.49978065490723
  0
LINE
  8
0
  6
CONTINUOUS
 62
     7
 10
179.0999450683594
 20
34.99972534179688
 11
177.5999450683594
 21
31.49974822998047
  0
LINE
  8
0
  6
CONTINUOUS
 62
     7
 10
177.5998229980469
 20
31.45947265625
 11
177.5998229980469
 21
31.49951171875
  0
LINE
  8
0
  6
CONTINUOUS
 62
     7
 10
177.5998229980469
 20
31.49951171875
 11
172.3996276855469
 21
31.49951171875
  0
LINE
  8
0
  6
CONTINUOUS
 62
     7
 10
179.4998626708984
 20
39.11974716186523
 11
179.9998168945313
 21
39.61969375610352
  0
LINE
  8
0
  6
CONTINUOUS
 62
     7
 10
179.9998168945313
 20
30.37966918945313
 11
179.4998779296875
 21
30.87961578369141
  0
LINE
  8
0
  6
CONTINUOUS
 62
     7
 10
180.5497741699219
 20
32.689453125
 11
179.9997253417969
 21
32.689453125
  0
LINE
  8
0
  6
CONTINUOUS
 62
     7
 10
181.4997253417969
 20
30.379638671875
 11
179.9997253417969
 21
30.379638671875
  0
LINE
  8
0
  6
CONTINUOUS
 62
     7
 10
181.4997253417969
 20
37.3095703125
 11
179.9997253417969
 21
37.3095703125
  0
LINE
  8
0
  6
CONTINUOUS
 62
     7
 10
181.4997253417969
 20
39.619384765625
 11
179.9997253417969
 21
39.619384765625
  0
LINE
  8
0
  6
CONTINUOUS
 62
     7
 10
176.4997253417969
 20
38.99951171875
 11
179.4997253417969
 21
38.99951171875
  0
LINE
  8
0
  6
CONTINUOUS
 62
     7
 10
179.4997253417969
 20
30.879638671875
 11
179.4997253417969
 21
39.119384765625
  0
LINE
  8
0
  6
CENTER
 62
     7
 10
168.3000183105469
 20
34.99951171875
 11
184.2282409667969
 21
34.99951171875
  0
LINE
  8
0
  6
CONTINUOUS
 62
     7
 10
296.9995727539063
 20
39.99979782104492
 11
295.9996948242188
 21
40.99969100952148
  0
LINE
  8
0
  6
CONTINUOUS
 62
     7
 10
286.4999084472656
 20
7.999755859375
 11
296.9997253417969
 21
7.999755859375
  0
LINE
  8
0
  6
CONTINUOUS
 62
     7
 10
286.4999084472656
 20
40.999755859375
 11
295.9997253417969
 21
40.999755859375
  0
LINE
  8
0
  6
CONTINUOUS
 62
     7
 10
298.499755859375
 20
28.6995735168457
 11
300.4995422363281
 21
26.69978713989258
  0
LINE
  8
0
  6
CONTINUOUS
 62
     7
 10
296.9997253417969
 20
8.499755859375
 11
300.4997253417969
 21
8.499755859375
  0
LINE
  8
0
  6
CONTINUOUS
 62
     7
 10
296.9997253417969
 20
39.999755859375
 11
298.4997253417969
 21
39.999755859375
  0
LINE
  8
0
  6
CONTINUOUS
 62
     7
 10
298.4997253417969
 20
8.499755859375
 11
298.4997253417969
 21
39.999755859375
  0
LINE
  8
0
  6
CONTINUOUS
 62
     7
 10
300.4997253417969
 20
8.499755859375
 11
300.4997253417969
 21
26.69970703125
  0
LINE
  8
0
  6
CONTINUOUS
 62
     7
 10
296.9997253417969
 20
7.999755859375
 11
296.9997253417969
 21
39.999755859375
  0
LINE
  8
0
  6
CONTINUOUS
 62
     7
 10
286.4996643066406
 20
43.349609375
 11
286.4996643066406
 21
7.99951171875
  0
LINE
  8
0
  6
CONTINUOUS
 62
     7
 10
193.4997711181641
 20
43.349609375
 11
193.4997711181641
 21
7.99951171875
  0
LINE
  8
0
  6
CONTINUOUS
 62
     7
 10
99.99984741210938
 20
25.999755859375
 11
179.4997253417969
 21
25.999755859375
  0
LINE
  8
0
  6
CONTINUOUS
 62
     7
 10
99.99984741210938
 20
0
 11
379.9998474121094
 21
0
  0
LINE
  8
0
  6
CONTINUOUS
 62
     7
 10
300.4997253417969
 20
25.999755859375
 11
379.9998474121094
 21
25.999755859375
  0
LINE
  8
0
  6
CONTINUOUS
 62
     7
 10
284.8495178222656
 20
44.99951171875
 11
195.1504058837891
 21
44.99951171875
  0
LINE
  8
0
  6
CONTINUOUS
 62
     7
 10
286.4996643066406
 20
7.99951171875
 11
193.4997711181641
 21
7.99951171875
  0
LINE
  8
0
  6
CONTINUOUS
 62
     7
 10
284.8500671386719
 20
44.99903869628906
 11
286.4999084472656
 21
43.34918212890625
  0
LINE
  8
0
  6
CONTINUOUS
 62
     7
 10
286.4996643066406
 20
35.99951171875
 11
193.4997711181641
 21
35.99951171875
  0
LINE
  8
0
  6
CONTINUOUS
 62
     7
 10
195.1501007080078
 20
44.99911117553711
 11
193.500244140625
 21
43.34924697875977
  0
LINE
  8
0
  6
CENTER
 62
     7
 10
202.9999694824219
 20
6.431884765625
 11
202.9999694824219
 21
9.13232421875
  0
LINE
  8
0
  6
CONTINUOUS
 62
     7
 10
299.4496459960938
 20
32.49951171875
 11
299.4496459960938
 21
35.49951171875
  0
LINE
  8
0
  6
CONTINUOUS
 62
     7
 10
180.5498046875
 20
35.49949645996094
 11
180.5498046875
 21
32.49974060058594
  0
LINE
  8
0
  6
CENTER
 62
     7
 10
185.118408203125
 20
33.99949645996094
 11
180.181396484375
 21
33.99949645996094
  0
LINE
  8
0
  6
CONTINUOUS
 62
     7
 10
-10.21484375
 20
26
 11
10.215087890625
 21
26
  0
LINE
  8
0
  6
CONTINUOUS
 62
     7
 10
14
 20
22.21484375
 11
14
 21
19.77978515625
  0
LINE
  8
0
  6
CONTINUOUS
 62
     7
 10
-14
 20
22.21484375
 11
-14
 21
19.77978515625
  0
LINE
  8
0
  6
CONTINUOUS
 62
     7
 10
9.300048828125
 20
15.079833984375
 11
9.300048828125
 21
10.999755859375
  0
LINE
  8
0
  6
CONTINUOUS
 62
     7
 10
-9.2998046875
 20
15.079833984375
 11
-9.2998046875
 21
10.999755859375
  0
LINE
  8
0
  6
CONTINUOUS
 62
     7
 10
10.21505546569824
 20
25.99979782104492
 11
11.00019264221191
 21
25.21466255187988
  0
LINE
  8
0
  6
CONTINUOUS
 62
     7
 10
-13.99989891052246
 20
19.77981567382813
 11
-13.52981758117676
 21
19.30973434448242
  0
LINE
  8
0
  6
CONTINUOUS
 62
     7
 10
9.299947738647461
 20
10.99986934661865
 11
14.00006675720215
 21
6.299750328063965
  0
LINE
  8
0
  6
CONTINUOUS
 62
     7
 10
9.299881935119629
 20
15.07982444763184
 11
10.9994592666626
 21
16.77940177917481
  0
LINE
  8
0
  6
CONTINUOUS
 62
     7
 10
-13.99987697601318
 20
6.2998366355896
 11
-9.299930572509766
 21
10.99978351593018
  0
LINE
  8
0
  6
CONTINUOUS
 62
     7
 10
-14.00009250640869
 20
22.21478843688965
 11
-13.52431488037109
 21
22.69056701660156
  0
LINE
  8
0
  6
CONTINUOUS
 62
     7
 10
-14
 20
6.2998046875
 11
-14
 21
1.5
  0
LINE
  8
0
  6
CONTINUOUS
 62
     7
 10
14
 20
6.2998046875
 11
14
 21
1.5
  0
LINE
  8
0
  6
CONTINUOUS
 62
     7
 10
-14.00010299682617
 20
1.499841570854187
 11
-12.50009059906006
 21
-0.0001709054631646723
  0
LINE
  8
0
  6
CONTINUOUS
 62
     7
 10
14.00003433227539
 20
1.499771475791931
 11
12.50002193450928
 21
-0.0002410378219792619
  0
LINE
  8
0
  6
CONTINUOUS
 62
     7
 10
-10.99935531616211
 20
16.77927207946777
 11
-9.299951553344727
 21
15.07986831665039
  0
LINE
  8
0
  6
CONTINUOUS
 62
     7
 10
-11.00024032592773
 20
25.21464157104492
 11
-10.21493053436279
 21
25.99995040893555
  0
LINE
  8
0
  6
CONTINUOUS
 62
     7
 10
13.52426719665527
 20
22.69058799743652
 11
14.00004482269287
 21
22.21480941772461
  0
LINE
  8
0
  6
CONTINUOUS
 62
     7
 10
13.52992057800293
 20
19.30986213684082
 11
14.00000190734863
 21
19.77994346618652
  0
LINE
  8
0
  6
CONTINUOUS
 62
     7
 10
-7.25
 20
0.5
 11
-3.75
 21
0.5
  0
LINE
  8
0
  6
CONTINUOUS
 62
     7
 10
3.75
 20
0.5
 11
7.25
 21
0.5
  0
LINE
  8
0
  6
CONTINUOUS
 62
     7
 10
-7.749755859375
 20
0
 11
-12.50026226043701
 21
0
  0
LINE
  8
0
  6
CONTINUOUS
 62
     7
 10
-3.249755859375
 20
0
 11
3.25
 21
0
  0
LINE
  8
0
  6
CONTINUOUS
 62
     7
 10
-7.74985408782959
 20
-0.0002501836861483753
 11
-7.249907493591309
 21
0.4996964037418366
  0
LINE
  8
0
  6
CONTINUOUS
 62
     7
 10
3.250007152557373
 20
-0.0002503522846382111
 11
3.750126361846924
 21
0.4998688697814941
  0
LINE
  8
0
  6
CONTINUOUS
 62
     7
 10
7.250075817108154
 20
0.4999337792396545
 11
7.750195026397705
 21
-0.0001854461297625676
  0
LINE
  8
0
  6
CONTINUOUS
 62
     7
 10
-3.750022172927856
 20
0.4997825622558594
 11
-3.250075578689575
 21
-0.0001640355330891907
  0
LINE
  8
0
  6
CONTINUOUS
 62
     7
 10
-28.199951171875
 20
8
 11
-22
 21
8
  0
LINE
  8
0
  6
CONTINUOUS
 62
     7
 10
22
 20
8
 11
28.2001953125
 21
8
  0
LINE
  8
0
  6
CENTER
 62
     7
 10
-5
 20
35
 11
13.353759765625
 21
35
  0
LINE
  8
0
  6
CONTINUOUS
 62
     7
 10
1.780029296875
 20
38.499755859375
 11
5.860107421875
 21
38.499755859375
  0
LINE
  8
0
  6
CONTINUOUS
 62
     7
 10
1.780029296875
 20
31.499755859375
 11
5.860107421875
 21
31.499755859375
  0
LINE
  8
0
  6
CONTINUOUS
 62
     7
 10
1.129891514778137
 20
34.99967956542969
 11
1.779880046844482
 21
31.49970626831055
  0
LINE
  8
0
  6
CONTINUOUS
 62
     7
 10
1.130052328109741
 20
34.99972152709961
 11
1.780040621757507
 21
38.49969100952148
  0
LINE
  8
0
  6
CONTINUOUS
 62
     7
 10
3.440003156661987
 20
34.99969482421875
 11
4.090000152587891
 21
31.49975967407227
  0
LINE
  8
0
  6
CONTINUOUS
 62
     7
 10
3.440180540084839
 20
34.99980163574219
 11
4.090183258056641
 21
38.49977111816406
  0
LINE
  8
0
  6
CONTINUOUS
 62
     7
 10
5.950094699859619
 20
31.96969413757324
 11
5.860087871551514
 21
31.49971961975098
  0
LINE
  8
0
  6
CONTINUOUS
 62
     7
 10
5.949986934661865
 20
38.01979064941406
 11
5.85999345779419
 21
38.49970626831055
  0
LINE
  8
0
  6
CONTINUOUS
 62
     7
 10
7.766048431396484
 20
31.75416564941406
 11
10.52009582519531
 21
32.49984359741211
  0
LINE
  8
0
  6
CONTINUOUS
 62
     7
 10
7.749915599822998
 20
38.24987030029297
 11
10.52004528045654
 21
37.49983596801758
  0
LINE
  8
0
  6
CONTINUOUS
 62
     7
 10
0.0004483071097638458
 20
30.38079071044922
 11
1.947625041007996
 21
31.4998722076416
  0
LINE
  8
0
  6
CONTINUOUS
 62
     7
 10
-0.0004830976249650121
 20
39.61874389648438
 11
1.937713980674744
 21
38.49972534179688
  0
LINE
  8
0
  6
CONTINUOUS
 62
     7
 10
-22
 20
8.5
 11
-22
 21
8
  0
LINE
  8
0
  6
CONTINUOUS
 62
     7
 10
29
 20
37.999755859375
 11
29
 21
10.5
  0
LINE
  8
0
  6
CONTINUOUS
 62
     7
 10
-26.99995994567871
 20
40
 11
27
 21
40
  0
LINE
  8
0
  6
CONTINUOUS
 62
     7
 10
27.00007820129395
 20
39.9998779296875
 11
29.00002861022949
 21
37.99991226196289
  0
LINE
  8
0
  6
CONTINUOUS
 62
     7
 10
29.00010490417481
 20
10.49979591369629
 11
26.99996948242188
 21
8.499670028686523
  0
LINE
  8
0
  6
CONTINUOUS
 62
     7
 10
11.800048828125
 20
8.5
 11
27
 21
8.5
  0
LINE
  8
0
  6
CONTINUOUS
 62
     7
 10
-11.342529296875
 20
28.699951171875
 11
11.3427734375
 21
28.699951171875
  0
LINE
  8
0
  6
CONTINUOUS
 62
     7
 10
11.34261131286621
 20
28.69978713989258
 11
16.6999454498291
 21
23.34245109558106
  0
LINE
  8
0
  6
CONTINUOUS
 62
     7
 10
16.7001953125
 20
23.342529296875
 11
16.7001953125
 21
18.857177734375
  0
LINE
  8
0
  6
CONTINUOUS
 62
     7
 10
11.85006713867188
 20
14.00703620910645
 11
16.70003318786621
 21
18.85700225830078
  0
LINE
  8
0
  6
CONTINUOUS
 62
     7
 10
11.85009765625
 20
14.00732421875
 11
11.85009765625
 21
12.25244140625
  0
LINE
  8
0
  6
CONTINUOUS
 62
     7
 10
11.8499813079834
 20
12.25247573852539
 11
15.60268783569336
 21
8.49976921081543
  0
LINE
  8
0
  6
CONTINUOUS
 62
     7
 10
22
 20
8
 11
22
 21
8.5
  0
LINE
  8
0
  6
CONTINUOUS
 62
     7
 10
-3.998046875
 20
37.30810546875
 11
-3.998046875
 21
32.691650390625
  0
LINE
  8
0
  6
CONTINUOUS
 62
     7
 10
-3.998025178909302
 20
32.69137573242188
 11
0.002479441231116653
 21
30.38168525695801
  0
LINE
  8
0
  6
CONTINUOUS
 62
     7
 10
-3.998291015625
 20
37.30819320678711
 11
0.001791545888409019
 21
39.61764144897461
  0
LINE
  8
0
  6
CONTINUOUS
 62
     7
 10
-29
 20
10.5
 11
-29
 21
37.99994659423828
  0
LINE
  8
0
  6
CONTINUOUS
 62
     7
 10
-27.00001525878906
 20
8.499876976013184
 11
-28.99997901916504
 21
10.49983024597168
  0
LINE
  8
0
  6
CONTINUOUS
 62
     7
 10
-26.999755859375
 20
8.5
 11
-11.7998046875
 21
8.5
  0
LINE
  8
0
  6
CONTINUOUS
 62
     7
 10
-16.70008087158203
 20
23.34243011474609
 11
-11.34257221221924
 21
28.69993782043457
  0
LINE
  8
0
  6
CONTINUOUS
 62
     7
 10
-16.699951171875
 20
18.857177734375
 11
-16.699951171875
 21
23.342529296875
  0
LINE
  8
0
  6
CONTINUOUS
 62
     7
 10
-16.69986534118652
 20
18.85719680786133
 11
-11.84989929199219
 21
14.00723075866699
  0
LINE
  8
0
  6
CONTINUOUS
 62
     7
 10
-11.849853515625
 20
12.25244140625
 11
-11.849853515625
 21
14.00732421875
  0
LINE
  8
0
  6
CONTINUOUS
 62
     7
 10
-15.60243320465088
 20
8.499705314636231
 11
-11.84989929199219
 21
12.25223922729492
  0
LINE
  8
0
  6
CENTER
 62
     7
 10
0
 20
46
 11
0
 21
-1
  0
LINE
  8
0
  6
DASHED
 62
     7
 10
-7
 20
26
 11
-7
 21
14
  0
LINE
  8
0
  6
DASHED
 62
     7
 10
7
 20
26
 11
7
 21
14
  0
LINE
  8
0
  6
DASHED
 62
     7
 10
4.5
 20
14
 11
4.5
 21
0.5
  0
LINE
  8
0
  6
DASHED
 62
     7
 10
-4.5
 20
14
 11
-4.5
 21
0.5
  0
LINE
  8
0
  6
DASHED
 62
     7
 10
-7
 20
14
 11
7
 21
14
  0
LINE
  8
0
  6
CENTER
 62
     7
 10
19
 20
9.5
 11
19
 21
6
  0
LINE
  8
0
  6
CENTER
 62
     7
 10
-19
 20
9.5
 11
-19
 21
6
  0
LINE
  8
0
  6
CONTINUOUS
 62
     7
 10
-21.2326831817627
 20
8.499733924865723
 11
-21.18178558349609
 21
7.917972087860107
  0
LINE
  8
0
  6
CONTINUOUS
 62
     7
 10
-16.81829261779785
 20
7.917903900146484
 11
-16.76736450195313
 21
8.5
  0
LINE
  8
0
  6
CONTINUOUS
 62
     7
 10
-28
 20
45
 11
-10.14990234375
 21
45
  0
LINE
  8
0
  6
CONTINUOUS
 62
     7
 10
30
 20
42.999755859375
 11
30
 21
37
  0
LINE
  8
0
  6
CONTINUOUS
 62
     7
 10
-30
 20
42.999755859375
 11
-30
 21
37
  0
LINE
  8
0
  6
CONTINUOUS
 62
     7
 10
-29.699951171875
 20
36.7001953125
 11
-29.699951171875
 21
9.5
  0
LINE
  8
0
  6
CONTINUOUS
 62
     7
 10
29.7001953125
 20
36.7001953125
 11
29.7001953125
 21
9.5
  0
LINE
  8
0
  6
CONTINUOUS
 62
     7
 10
-9.7998046875
 20
44.64990234375
 11
9.800048828125
 21
44.64990234375
  0
LINE
  8
0
  6
CONTINUOUS
 62
     7
 10
-28.00003242492676
 20
44.99972152709961
 11
-29.9999885559082
 21
42.99975967407227
  0
LINE
  8
0
  6
CONTINUOUS
 62
     7
 10
27.99996185302734
 20
44.9997444152832
 11
29.99991798400879
 21
42.99978256225586
  0
LINE
  8
0
  6
CONTINUOUS
 62
     7
 10
-29.69989204406738
 20
9.499766349792481
 11
-28.19987869262695
 21
7.999753952026367
  0
LINE
  8
0
  6
CONTINUOUS
 62
     7
 10
29.69999504089356
 20
9.499932289123535
 11
28.19998168945313
 21
7.99992036819458
  0
LINE
  8
0
  6
CONTINUOUS
 62
     7
 10
-29.70001029968262
 20
36.69998550415039
 11
-30.00004577636719
 21
37.00002288818359
  0
LINE
  8
0
  6
CONTINUOUS
 62
     7
 10
10.150146484375
 20
45
 11
28
 21
45
  0
LINE
  8
0
  6
CONTINUOUS
 62
     7
 10
-9.799949645996094
 20
44.64982986450195
 11
-10.15005970001221
 21
44.99991989135742
  0
LINE
  8
0
  6
CONTINUOUS
 62
     7
 10
9.800093650817871
 20
44.64984130859375
 11
10.15003108978272
 21
44.99975967407227
  0
LINE
  8
0
  6
CONTINUOUS
 62
     7
 10
29.6999397277832
 20
36.70016098022461
 11
29.99997520446777
 21
37.00019836425781
  0
LINE
  8
0
  6
CENTER
 62
     7
 10
-20
 20
46
 11
-20
 21
30.18679428100586
  0
LINE
  8
0
  6
DASHED
 62
     7
 10
-16
 20
45
 11
-16
 21
35
  0
LINE
  8
0
  6
DASHED
 62
     7
 10
-24
 20
45
 11
-24
 21
35
  0
LINE
  8
0
  6
DASHED
 62
     7
 10
-16.599853515625
 20
45
 11
-16.599853515625
 21
33.14990234375
  0
LINE
  8
0
  6
DASHED
 62
     7
 10
-23.39990234375
 20
45
 11
-23.39990234375
 21
33.14990234375
  0
LINE
  8
0
  6
DASHED
 62
     7
 10
-24
 20
35
 11
-16
 21
35
  0
LINE
  8
0
  6
DASHED
 62
     7
 10
-23.39990234375
 20
33.14990234375
 11
-16.599853515625
 21
33.14990234375
  0
LINE
  8
0
  6
DASHED
 62
     7
 10
-16.60006332397461
 20
33.14989852905273
 11
-20.00010108947754
 21
31.18688583374023
  0
LINE
  8
0
  6
DASHED
 62
     7
 10
-15.99986362457275
 20
34.99986267089844
 11
-16.59995651245117
 21
33.9604606628418
  0
LINE
  8
0
  6
DASHED
 62
     7
 10
-24.00000381469727
 20
34.99981689453125
 11
-23.40005683898926
 21
33.9606819152832
  0
LINE
  8
0
  6
DASHED
 62
     7
 10
-23.39996719360352
 20
33.14981842041016
 11
-19.99993515014648
 21
31.18679428100586
  0
LINE
  8
0
  6
CENTER
 62
     7
 10
20
 20
30.18679428100586
 11
20
 21
46
  0
LINE
  8
0
  6
CENTER
 62
     7
 10
18
 20
34
 11
10
 21
34
  0
LINE
  8
0
  6
CENTER
 62
     7
 10
14
 20
38
 11
14
 21
30
  0
LINE
  8
0
  6
CONTINUOUS
 62
     7
 10
-26.99995803833008
 20
40
 11
-28.99999809265137
 21
37.99994277954102
  0
LINE
  8
0
  6
CENTER
 62
     7
 10
-18
 20
34
 11
-10
 21
34
  0
LINE
  8
0
  6
CENTER
 62
     7
 10
-14
 20
38
 11
-14
 21
30
  0
LINE
  8
0
  6
CONTINUOUS
 62
     7
 10
99.99984741210938
 20
25.999755859375
 11
99.99984741210938
 21
0
  0
LINE
  8
0
  6
CONTINUOUS
 62
     7
 10
379.9998474121094
 20
25.999755859375
 11
379.9998474121094
 21
0
  0
LINE
  8
0
  6
CENTER
 62
     7
 10
119.9998474121094
 20
26.999755859375
 11
119.9998474121094
 21
-1
  0
LINE
  8
0
  6
DASHED
 62
     7
 10
112.9998474121094
 20
26
 11
112.9998474121094
 21
14
  0
LINE
  8
0
  6
DASHED
 62
     7
 10
126.9998474121094
 20
26
 11
126.9998474121094
 21
14
  0
LINE
  8
0
  6
DASHED
 62
     7
 10
124.4998474121094
 20
14
 11
124.4998474121094
 21
0
  0
LINE
  8
0
  6
DASHED
 62
     7
 10
115.4998474121094
 20
14
 11
115.4998474121094
 21
0
  0
LINE
  8
0
  6
DASHED
 62
     7
 10
112.9998474121094
 20
14
 11
126.9998474121094
 21
14
  0
LINE
  8
0
  6
CENTER
 62
     7
 10
199.9998474121094
 20
8.99951171875
 11
199.9998474121094
 21
-1
  0
LINE
  8
0
  6
CENTER
 62
     7
 10
279.9998474121094
 20
8.99951171875
 11
279.9998474121094
 21
-1
  0
LINE
  8
0
  6
CENTER
 62
     7
 10
359.9998474121094
 20
26.999755859375
 11
359.9998474121094
 21
-1
  0
LINE
  8
0
  6
CENTER
 62
     7
 10
209.9999694824219
 20
45.99951171875
 11
209.9999694824219
 21
30.18630599975586
  0
LINE
  8
0
  6
DASHED
 62
     7
 10
213.9999694824219
 20
44.99951171875
 11
213.9999694824219
 21
34.99951171875
  0
LINE
  8
0
  6
DASHED
 62
     7
 10
205.9999694824219
 20
44.99951171875
 11
205.9999694824219
 21
34.99951171875
  0
LINE
  8
0
  6
DASHED
 62
     7
 10
213.4001159667969
 20
44.99951171875
 11
213.4001159667969
 21
33.1494140625
  0
LINE
  8
0
  6
DASHED
 62
     7
 10
206.6000671386719
 20
44.99951171875
 11
206.6000671386719
 21
33.1494140625
  0
LINE
  8
0
  6
DASHED
 62
     7
 10
205.9999694824219
 20
34.99951171875
 11
213.9999694824219
 21
34.99951171875
  0
LINE
  8
0
  6
DASHED
 62
     7
 10
206.6000671386719
 20
33.1494140625
 11
213.4001159667969
 21
33.1494140625
  0
LINE
  8
0
  6
DASHED
 62
     7
 10
213.39990234375
 20
33.1494140625
 11
209.9998779296875
 21
31.18639945983887
  0
LINE
  8
0
  6
DASHED
 62
     7
 10
214.0001068115234
 20
34.99936294555664
 11
213.4000244140625
 21
33.9599609375
  0
LINE
  8
0
  6
DASHED
 62
     7
 10
205.9999694824219
 20
34.99932479858398
 11
206.5999145507813
 21
33.96018981933594
  0
LINE
  8
0
  6
DASHED
 62
     7
 10
206.6000061035156
 20
33.14931869506836
 11
210.0000457763672
 21
31.18629455566406
  0
LINE
  8
0
  6
CENTER
 62
     7
 10
269.9997253417969
 20
45.99951171875
 11
269.9997253417969
 21
30.18630599975586
  0
LINE
  8
0
  6
CONTINUOUS
 62
     7
 10
171.1527709960938
 20
151.2931213378906
 11
177.7015686035156
 21
148.5805206298828
  0
LINE
  8
0
  6
CONTINUOUS
 62
     7
 10
179.4997253417969
 20
150.9994964599609
 11
179.4997253417969
 21
158.9994964599609
  0
LINE
  8
0
  6
CONTINUOUS
 62
     7
 10
176.1998138427734
 20
158.99951171875
 11
179.4997253417969
 21
158.99951171875
  0
LINE
  8
0
  6
CONTINUOUS
 62
     7
 10
177.8198394775391
 20
150.99951171875
 11
179.4997253417969
 21
150.99951171875
  0
LINE
  8
0
  6
CONTINUOUS
 62
     7
 10
172.1998291015625
 20
154.99951171875
 11
172.1998291015625
 21
153.327392578125
  0
LINE
  8
0
  6
CONTINUOUS
 62
     7
 10
179.4997100830078
 20
158.99951171875
 11
181.4997100830078
 21
158.99951171875
  0
LINE
  8
0
  6
CONTINUOUS
 62
     7
 10
179.4997100830078
 20
150.99951171875
 11
181.4997100830078
 21
150.99951171875
  0
LINE
  8
0
  6
CENTER
 62
     7
 10
171.7515716552734
 20
143.4773864746094
 11
176.6168823242188
 21
155.2232666015625
  0
LINE
  8
0
  6
CONTINUOUS
 62
     7
 10
169.9824981689453
 20
145.4779510498047
 11
174.4171295166016
 21
143.6410675048828
  0
LINE
  8
0
  6
CONTINUOUS
 62
     7
 10
170.1842651367188
 20
148.3168487548828
 11
176.2818603515625
 21
145.7911376953125
  0
LINE
  8
0
  6
CONTINUOUS
 62
     7
 10
169.9824981689453
 20
145.4779510498047
 11
170.1842651367188
 21
148.3168487548828
  0
LINE
  8
0
  6
CONTINUOUS
 62
     7
 10
174.4171295166016
 20
143.6410675048828
 11
176.2818756103516
 21
145.7911529541016
  0
LINE
  8
0
  6
CONTINUOUS
 62
     7
 10
170.9229888916016
 20
152.0377044677734
 11
171.3376617431641
 21
153.0387725830078
  0
LINE
  8
0
  6
CONTINUOUS
 62
     7
 10
178.3905792236328
 20
148.9445190429688
 11
178.8052368164063
 21
149.9455871582031
  0
LINE
  8
0
  6
CONTINUOUS
 62
     7
 10
172.1170806884766
 20
153.3615875244141
 11
171.337646484375
 21
153.0387420654297
  0
LINE
  8
0
  6
CONTINUOUS
 62
     7
 10
172.5602722167969
 20
150.7100830078125
 11
173.432861328125
 21
152.816650390625
  0
LINE
  8
0
  6
CONTINUOUS
 62
     7
 10
176.2940521240234
 20
149.1635131835938
 11
177.1666259765625
 21
151.2700805664063
  0
LINE
  8
0
  6
CONTINUOUS
 62
     7
 10
172.1170959472656
 20
153.3616638183594
 11
178.4823913574219
 21
150.7250671386719
  0
LINE
  8
0
  6
CONTINUOUS
 62
     7
 10
178.8052520751953
 20
149.9455871582031
 11
178.4823913574219
 21
150.7250366210938
  0
LINE
  8
0
  6
CONTINUOUS
 62
     7
 10
171.3145446777344
 20
149.7389984130859
 11
176.4882507324219
 21
147.5959625244141
  0
LINE
  8
0
  6
CENTER
 62
     7
 10
185.1183776855469
 20
140.99951171875
 11
180.1813659667969
 21
140.99951171875
  0
LINE
  8
0
  6
CONTINUOUS
 62
     7
 10
300.4997253417969
 20
144.7841644287109
 11
379.9997253417969
 21
144.7841644287109
  0
LINE
  8
0
  6
CONTINUOUS
 62
     7
 10
300.4997253417969
 20
169.69921875
 11
300.4997253417969
 21
140.2993469238281
  0
LINE
  8
0
  6
CONTINUOUS
 62
     7
 10
99.99972534179688
 20
165.21435546875
 11
179.4997253417969
 21
165.21435546875
  0
LINE
  8
0
  6
CONTINUOUS
 62
     7
 10
99.99972534179688
 20
168.99951171875
 11
99.99972534179688
 21
140.99951171875
  0
LINE
  8
0
  6
CONTINUOUS
 62
     7
 10
99.99972534179688
 20
144.7841644287109
 11
171.657470703125
 21
144.7841644287109
  0
LINE
  8
0
  6
CONTINUOUS
 62
     7
 10
298.4997253417969
 20
125.9996337890625
 11
286.4999084472656
 21
125.9996337890625
  0
LINE
  8
0
  6
CONTINUOUS
 62
     7
 10
298.4997253417969
 20
183.99951171875
 11
298.4997253417969
 21
125.9996337890625
  0
LINE
  8
0
  6
CONTINUOUS
 62
     7
 10
296.9997253417969
 20
183.99951171875
 11
296.9997253417969
 21
125.9996337890625
  0
LINE
  8
0
  6
CONTINUOUS
 62
     7
 10
298.4997253417969
 20
183.99951171875
 11
286.4999084472656
 21
183.99951171875
  0
LINE
  8
0
  6
CONTINUOUS
 62
     7
 10
299.4496765136719
 20
142.49951171875
 11
299.4496765136719
 21
139.49951171875
  0
LINE
  8
0
  6
CONTINUOUS
 62
     7
 10
300.4997253417969
 20
169.69921875
 11
298.4997253417969
 21
171.6992034912109
  0
LINE
  8
0
  6
CENTER
 62
     7
 10
294.8810729980469
 20
168.99951171875
 11
299.8180847167969
 21
168.99951171875
  0
LINE
  8
0
  6
CONTINUOUS
 62
     7
 10
300.4997253417969
 20
140.2993469238281
 11
298.4997253417969
 21
138.2993316650391
  0
LINE
  8
0
  6
CONTINUOUS
 62
     7
 10
299.4496765136719
 20
167.49951171875
 11
299.4496765136719
 21
170.49951171875
  0
LINE
  8
0
  6
CENTER
 62
     7
 10
294.8810729980469
 20
140.99951171875
 11
299.8180847167969
 21
140.99951171875
  0
LINE
  8
0
  6
CONTINUOUS
 62
     7
 10
99.99972534179688
 20
168.99951171875
 11
179.4997253417969
 21
168.99951171875
  0
LINE
  8
0
  6
CONTINUOUS
 62
     7
 10
180.5497741699219
 20
167.49951171875
 11
180.5497741699219
 21
170.49951171875
  0
LINE
  8
0
  6
CONTINUOUS
 62
     7
 10
179.4997100830078
 20
140.2993469238281
 11
181.4997253417969
 21
138.2993469238281
  0
LINE
  8
0
  6
CENTER
 62
     7
 10
185.1183776855469
 20
168.99951171875
 11
180.1813659667969
 21
168.99951171875
  0
LINE
  8
0
  6
CONTINUOUS
 62
     7
 10
179.4997253417969
 20
169.6992340087891
 11
181.4996948242188
 21
171.6992034912109
  0
LINE
  8
0
  6
CONTINUOUS
 62
     7
 10
300.4997253417969
 20
165.21435546875
 11
379.9997253417969
 21
165.21435546875
  0
LINE
  8
0
  6
CONTINUOUS
 62
     7
 10
300.4997253417969
 20
168.99951171875
 11
379.9997253417969
 21
168.99951171875
  0
LINE
  8
0
  6
CONTINUOUS
 62
     7
 10
180.5497741699219
 20
142.49951171875
 11
180.5497741699219
 21
139.49951171875
  0
LINE
  8
0
  6
CONTINUOUS
 62
     7
 10
300.4997253417969
 20
140.99951171875
 11
379.9997253417969
 21
140.99951171875
  0
LINE
  8
0
  6
CONTINUOUS
 62
     7
 10
379.9997253417969
 20
168.99951171875
 11
379.9997253417969
 21
140.99951171875
  0
LINE
  8
0
  6
CONTINUOUS
 62
     7
 10
181.4997253417969
 20
183.99951171875
 11
193.4997711181641
 21
183.99951171875
  0
LINE
  8
0
  6
CONTINUOUS
 62
     7
 10
182.9997253417969
 20
183.99951171875
 11
182.9997253417969
 21
125.9996337890625
  0
LINE
  8
0
  6
CONTINUOUS
 62
     7
 10
99.99972534179688
 20
140.99951171875
 11
179.4997253417969
 21
140.99951171875
  0
LINE
  8
0
  6
CONTINUOUS
 62
     7
 10
181.4997253417969
 20
183.99951171875
 11
181.4997253417969
 21
125.9996337890625
  0
LINE
  8
0
  6
CENTER
 62
     7
 10
119.9997253417969
 20
162.99951171875
 11
119.9997253417969
 21
146.99951171875
  0
LINE
  8
0
  6
CONTINUOUS
 62
     7
 10
179.4997253417969
 20
150.99951171875
 11
179.4997253417969
 21
140.2993469238281
  0
LINE
  8
0
  6
CENTER
 62
     7
 10
98.99972534179688
 20
154.99951171875
 11
380.9997253417969
 21
154.99951171875
  0
LINE
  8
0
  6
CONTINUOUS
 62
     7
 10
179.4997253417969
 20
169.69921875
 11
179.4997253417969
 21
158.99951171875
  0
LINE
  8
0
  6
CONTINUOUS
 62
     7
 10
175.4085083007813
 20
144.7841644287109
 11
179.4997253417969
 21
144.7841644287109
  0
LINE
  8
0
  6
CONTINUOUS
 62
     7
 10
181.4997253417969
 20
125.9996337890625
 11
193.4997711181641
 21
125.9996337890625
  0
LINE
  8
0
  6
CENTER
 62
     7
 10
359.9997253417969
 20
162.99951171875
 11
359.9997253417969
 21
146.99951171875
  0
LINE
  8
0
  6
CENTER
 62
     7
 10
279.9997253417969
 20
162.99951171875
 11
279.9997253417969
 21
146.99951171875
  0
LINE
  8
0
  6
CENTER
 62
     7
 10
199.9997253417969
 20
162.99951171875
 11
199.9997253417969
 21
146.99951171875
  0
LINE
  8
0
  6
CONTINUOUS
 62
     7
 10
193.4997711181641
 20
184.99951171875
 11
286.4996643066406
 21
184.99951171875
  0
LINE
  8
0
  6
CONTINUOUS
 62
     7
 10
193.4997711181641
 20
124.99951171875
 11
286.4996643066406
 21
124.99951171875
  0
LINE
  8
0
  6
CONTINUOUS
 62
     7
 10
193.4997711181641
 20
144.8494873046875
 11
286.4996643066406
 21
144.8494873046875
  0
LINE
  8
0
  6
CONTINUOUS
 62
     7
 10
193.4997711181641
 20
165.1494140625
 11
286.4996643066406
 21
165.1494140625
  0
LINE
  8
0
  6
CONTINUOUS
 62
     7
 10
193.4997711181641
 20
184.99951171875
 11
193.4997711181641
 21
124.99951171875
  0
LINE
  8
0
  6
CONTINUOUS
 62
     7
 10
286.4996643066406
 20
184.99951171875
 11
286.4996643066406
 21
124.99951171875
  0
LINE
  8
0
  6
CENTER
 62
     7
 10
214.9999694824219
 20
134.99951171875
 11
204.9999694824219
 21
134.99951171875
  0
LINE
  8
0
  6
CENTER
 62
     7
 10
209.9999694824219
 20
139.99951171875
 11
209.9999694824219
 21
129.99951171875
  0
LINE
  8
0
  6
CENTER
 62
     7
 10
269.9994812011719
 20
139.99951171875
 11
269.9994812011719
 21
129.99951171875
  0
LINE
  8
0
  6
CENTER
 62
     7
 10
264.9994812011719
 20
134.99951171875
 11
274.9994812011719
 21
134.99951171875
  0
LINE
  8
0
  6
CENTER
 62
     7
 10
264.9994812011719
 20
174.99951171875
 11
274.9994812011719
 21
174.99951171875
  0
LINE
  8
0
  6
CENTER
 62
     7
 10
209.9999694824219
 20
169.99951171875
 11
209.9999694824219
 21
179.99951171875
  0
LINE
  8
0
  6
CENTER
 62
     7
 10
214.9999694824219
 20
174.99951171875
 11
204.9999694824219
 21
174.99951171875
  0
LINE
  8
0
  6
CENTER
 62
     7
 10
269.9994812011719
 20
169.99951171875
 11
269.9994812011719
 21
179.99951171875
  0
LINE
  8
0
  6
CONTINUOUS
 62
     7
 10
99.99984741210938
 20
25.21452331542969
 11
179.4997253417969
 21
25.21452331542969
  0
LINE
  8
0
  6
CONTINUOUS
 62
     7
 10
99.99984741210938
 20
22.69051742553711
 11
179.4997253417969
 21
22.69051742553711
  0
LINE
  8
0
  6
CONTINUOUS
 62
     7
 10
99.99984741210938
 20
19.30991172790527
 11
179.4997253417969
 21
19.30991172790527
  0
LINE
  8
0
  6
CONTINUOUS
 62
     7
 10
99.99984741210938
 20
15.079833984375
 11
179.4997253417969
 21
15.079833984375
  0
LINE
  8
0
  6
CONTINUOUS
 62
     7
 10
99.99984741210938
 20
6.2998046875
 11
379.9998474121094
 21
6.2998046875
  0
LINE
  8
0
  6
CONTINUOUS
 62
     7
 10
99.99984741210938
 20
10.99986934661865
 11
179.4997253417969
 21
10.99986934661865
  0
LINE
  8
0
  6
CONTINUOUS
 62
     7
 10
300.4997253417969
 20
25.21452331542969
 11
379.9998474121094
 21
25.21452331542969
  0
LINE
  8
0
  6
CONTINUOUS
 62
     7
 10
300.4997253417969
 20
22.69051742553711
 11
379.9998474121094
 21
22.69051742553711
  0
LINE
  8
0
  6
CONTINUOUS
 62
     7
 10
300.4997253417969
 20
19.30991172790527
 11
379.9998474121094
 21
19.30991172790527
  0
LINE
  8
0
  6
CONTINUOUS
 62
     7
 10
300.4997253417969
 20
15.079833984375
 11
379.9998474121094
 21
15.079833984375
  0
LINE
  8
0
  6
CONTINUOUS
 62
     7
 10
300.4997253417969
 20
10.99986934661865
 11
379.9998474121094
 21
10.99986934661865
  0
LINE
  8
0
  6
CENTER
 62
     7
 10
294.8810424804688
 20
33.99949645996094
 11
299.8180541992188
 21
33.99949645996094
  0
ARC
  8
0
  6
CONTINUOUS
 62
     7
 10
181.3996276855469
 20
38.58984375
 40
1.900939941406257
 50
181.8086700643979
 51
222.4362198515213
  0
ARC
  8
0
  6
CONTINUOUS
 62
     7
 10
201.6152038574219
 20
7.9873046875
 40
0.7999999523162926
 50
179.121492417531
 51
254.557270818926
  0
ARC
  8
0
  6
CONTINUOUS
 62
     7
 10
204.3844909667969
 20
7.9873046875
 40
0.7999999523162881
 50
285.4427478504089
 51
0.8785074687834845
  0
ARC
  8
0
  6
CONTINUOUS
 62
     7
 10
202.9999694824219
 20
12.999755859375
 40
5.999999999999999
 50
254.557342763284
 51
285.4426932088946
  0
ARC
  8
0
  6
CONTINUOUS
 62
     7
 10
176.4997253417969
 20
34.999755859375
 40
3.999999999999998
 50
89.99998201391055
 51
118.4958044387709
  0
ARC
  8
0
  6
CONTINUOUS
 62
     7
 10
183.1506042480469
 20
33.994873046875
 40
2.999999999999996
 50
209.8970307241319
 51
236.6149822287941
  0
ARC
  8
0
  6
CONTINUOUS
 62
     7
 10
176.4997253417969
 20
34.999755859375
 40
3.982465744018556
 50
241.5040862782025
 51
269.9999087030627
  0
ARC
  8
0
  6
CONTINUOUS
 62
     7
 10
181.4001159667969
 20
31.409912109375
 40
1.896939277648928
 50
137.5635615824254
 51
178.1912206525752
  0
ARC
  8
0
  6
CONTINUOUS
 62
     7
 10
182.8000183105469
 20
34.4697265625
 40
3.318496704101556
 50
186.054315652478
 51
212.4448005675732
  0
ARC
  8
0
  6
CONTINUOUS
 62
     7
 10
182.8000183105469
 20
35.52978515625
 40
3.317878723144528
 50
147.5550901493999
 51
173.9458482720621
  0
ARC
  8
0
  6
CONTINUOUS
 62
     7
 10
183.1506042480469
 20
34.00439453125
 40
2.999999999999996
 50
123.3850177712058
 51
150.1029692758681
  0
ARC
  8
0
  6
CONTINUOUS
 62
     7
 10
296.8488464355469
 20
33.994873046875
 40
2.999999999999994
 50
303.3850195924385
 51
330.102971097101
  0
ARC
  8
0
  6
CONTINUOUS
 62
     7
 10
296.8488464355469
 20
34.00439453125
 40
2.999999999999998
 50
29.89702890289898
 51
56.61498040756148
  0
ARC
  8
0
  6
CONTINUOUS
 62
     7
 10
-13.869384765625
 20
25.559814453125
 40
2.889999389648439
 50
276.8601507054235
 51
353.139891186328
  0
ARC
  8
0
  6
CONTINUOUS
 62
     7
 10
-13.869384765625
 20
16.43994140625
 40
2.889999389648437
 50
6.746867692327753
 51
83.25312115177206
  0
ARC
  8
0
  6
CONTINUOUS
 62
     7
 10
13.86962890625
 20
25.559814453125
 40
2.889999389648437
 50
186.8601140499994
 51
263.1398852667552
  0
ARC
  8
0
  6
CONTINUOUS
 62
     7
 10
13.86962890625
 20
16.43994140625
 40
2.889999389648437
 50
96.74684287604927
 51
173.2531031656828
  0
ARC
  8
0
  6
CONTINUOUS
 62
     7
 10
7.610107421875
 20
32.7099609375
 40
0.9683421850204466
 50
215.3314570768741
 51
278.2972225067941
  0
ARC
  8
0
  6
CONTINUOUS
 62
     7
 10
6.6201171875
 20
30.919921875
 40
1.246148109436035
 50
80.76452806729958
 51
142.1250351177266
  0
ARC
  8
0
  6
CONTINUOUS
 62
     7
 10
6.6201171875
 20
39.079833984375
 40
1.254199028015138
 50
217.8749648822736
 51
279.2353626496737
  0
ARC
  8
0
  6
CONTINUOUS
 62
     7
 10
7.610107421875
 20
37.289794921875
 40
0.9701611399650598
 50
81.70288677623263
 51
144.668542923126
  0
ARC
  8
0
  6
CONTINUOUS
 62
     7
 10
0
 20
34.999755859375
 40
4
 50
240.0000239814524
 51
241.0449882829511
  0
ARC
  8
0
  6
CONTINUOUS
 62
     7
 10
0
 20
34.999755859375
 40
3.998106002807619
 50
61.09402038976974
 51
298.9059076658729
  0
ARC
  8
0
  6
CONTINUOUS
 62
     7
 10
-19
 20
13
 40
6.000000000000001
 50
254.557342763284
 51
285.4426932088946
  0
ARC
  8
0
  6
CONTINUOUS
 62
     7
 10
-17.615234375
 20
7.987548828125
 40
0.7999999523162841
 50
285.4426932088946
 51
355.0000044143218
  0
ARC
  8
0
  6
CONTINUOUS
 62
     7
 10
-20.384521484375
 20
7.987548828125
 40
0.7999999523162842
 50
185.0000076521948
 51
254.5573427632839
  0
ARC
  8
0
  6
CONTINUOUS
 62
     7
 10
14
 20
34
 40
2.849999427795411
 50
193.4936484134291
 51
152.8869543815654
  0
CIRCLE
  8
0
  6
CONTINUOUS
 62
     7
 10
-14
 20
34
 40
2.84999942779541
  0
ARC
  8
0
  6
CONTINUOUS
 62
     7
 10
183.7494812011719
 20
156.99951171875
 40
4.249771118164061
 50
151.9258648030746
 51
208.0741178940814
  0
ARC
  8
0
  6
CONTINUOUS
 62
     7
 10
183.7496032714844
 20
152.99951171875
 40
4.24988555908202
 50
151.9264658597215
 51
208.0735168374343
  0
ARC
  8
0
  6
CONTINUOUS
 62
     7
 10
177.2499084472656
 20
156.99951171875
 40
4.24977111816405
 50
331.9258836997802
 51
28.07413337569262
  0
ARC
  8
0
  6
CONTINUOUS
 62
     7
 10
177.2497863769531
 20
152.99951171875
 40
4.249885559082024
 50
331.9264847564272
 51
28.07353231904542
  0
ARC
  8
0
  6
CONTINUOUS
 62
     7
 10
173.2330627441406
 20
147.0539855957031
 40
3.299999237060546
 50
131.5803705110077
 51
157.4999548639651
  0
ARC
  8
0
  6
CONTINUOUS
 62
     7
 10
173.2330627441406
 20
147.0539855957031
 40
3.299999237060545
 50
337.5000181569009
 51
3.419602296415186
  0
ARC
  8
0
  6
CONTINUOUS
 62
     7
 10
165.3167114257813
 20
149.9000854492188
 40
6.00000000000001
 50
2.43365082934552
 51
20.87173987704925
  0
ARC
  8
0
  6
CONTINUOUS
 62
     7
 10
180.84326171875
 20
143.4687805175781
 40
6.000000000000011
 50
114.1278165022775
 51
132.5663219780772
  0
ARC
  8
0
  6
CONTINUOUS
 62
     7
 10
170.5120239257813
 20
150.1208801269531
 40
0.7999999523162822
 50
311.5798327472963
 51
2.433049772698627
  0
ARC
  8
0
  6
CONTINUOUS
 62
     7
 10
177.3257446289063
 20
147.2985382080078
 40
0.7999999523162747
 50
132.5669776762372
 51
183.4201402735692
  0
ARC
  8
0
  6
CONTINUOUS
 62
     7
 10
176.1998291015625
 20
154.99951171875
 40
3.999999999999998
 50
89.99998201391055
 51
180.0000186693345
  0
ARC
  8
0
  6
CONTINUOUS
 62
     7
 10
183.1506042480469
 20
168.99462890625
 40
2.999999999999993
 50
209.8970307241317
 51
236.6149822287941
  0
ARC
  8
0
  6
CONTINUOUS
 62
     7
 10
183.1506042480469
 20
141.00439453125
 40
2.999999999999991
 50
123.3850177712059
 51
150.1029692758683
  0
ARC
  8
0
  6
CONTINUOUS
 62
     7
 10
296.8488464355469
 20
169.00390625
 40
3.000000000000023
 50
29.89703231799328
 51
56.61498382265611
  0
ARC
  8
0
  6
CONTINUOUS
 62
     7
 10
296.8488464355469
 20
141.00439453125
 40
3.000000000000023
 50
29.89703231799328
 51
56.61498382265611
  0
ARC
  8
0
  6
CONTINUOUS
 62
     7
 10
296.8488464355469
 20
140.9951171875
 40
3
 50
303.3850161773439
 51
330.1029676820068
  0
ARC
  8
0
  6
CONTINUOUS
 62
     7
 10
296.8488464355469
 20
168.99462890625
 40
3
 50
303.3850161773439
 51
330.1029676820068
  0
ARC
  8
0
  6
CONTINUOUS
 62
     7
 10
183.1506042480469
 20
140.9951171875
 40
2.999999999999993
 50
209.8970307241317
 51
236.6149822287941
  0
ARC
  8
0
  6
CONTINUOUS
 62
     7
 10
183.1506042480469
 20
169.00390625
 40
2.999999999999991
 50
123.3850177712059
 51
150.1029692758683
  0
CIRCLE
  8
0
  6
CONTINUOUS
 62
     7
 10
119.9997253417969
 20
154.99951171875
 40
7
  0
CIRCLE
  8
0
  6
CONTINUOUS
 62
     7
 10
119.9997253417969
 20
154.99951171875
 40
4.5
  0
CIRCLE
  8
0
  6
CONTINUOUS
 62
     7
 10
209.9999694824219
 20
134.99951171875
 40
4
  0
CIRCLE
  8
0
  6
CONTINUOUS
 62
     7
 10
209.9999694824219
 20
134.99951171875
 40
3.39990234375
  0
POLYLINE
  8
0
  6
CONTINUOUS
 62
     7
 66
     1
 10
0
 20
0
 70
     1
  0
VERTEX
  8
0
  6
CONTINUOUS
 62
     7
 10
172.1998825073242
 20
37.499755859375
 42
0.1103775933506767
  0
VERTEX
  8
0
  6
CONTINUOUS
 62
     7
 10
171.2877243206257
 20
37.29473824654914
 42
0.1025061235736022
  0
VERTEX
  8
0
  6
CONTINUOUS
 62
     7
 10
170.5403893069076
 20
36.73072948521828
 42
0.0932901560882639
  0
VERTEX
  8
0
  6
CONTINUOUS
 62
     7
 10
170.0627838703755
 20
35.92383607297285
 42
0.08782077713532312
  0
VERTEX
  8
0
  6
CONTINUOUS
 62
     7
 10
169.8998947143555
 20
34.99974060058594
 42
0.08777447240511967
  0
VERTEX
  8
0
  6
CONTINUOUS
 62
     7
 10
170.0626250333928
 20
34.07612211984951
 42
0.09326064006439115
  0
VERTEX
  8
0
  6
CONTINUOUS
 62
     7
 10
170.5399292182889
 20
33.26931889068948
 42
0.1026290616871746
  0
VERTEX
  8
0
  6
CONTINUOUS
 62
     7
 10
171.2881390905497
 20
32.7045893452929
 42
0.1103322769973329
  0
VERTEX
  8
0
  6
CONTINUOUS
 62
     7
 10
172.1999435424805
 20
32.499755859375
 42
0.1103786774577922
  0
VERTEX
  8
0
  6
CONTINUOUS
 62
     7
 10
173.1121017478187
 20
32.70477253548332
 42
0.1025063079186641
  0
VERTEX
  8
0
  6
CONTINUOUS
 62
     7
 10
173.8594358448988
 20
33.26878245712818
 42
0.0932896474229557
  0
VERTEX
  8
0
  6
CONTINUOUS
 62
     7
 10
174.3370406545089
 20
34.07567629712908
 42
0.08782007792939565
  0
VERTEX
  8
0
  6
CONTINUOUS
 62
     7
 10
174.4999313354492
 20
34.99977111816406
 42
0.08777248542630473
  0
VERTEX
  8
0
  6
CONTINUOUS
 62
     7
 10
174.337202205976
 20
35.92339008168037
 42
0.09326049632142534
  0
VERTEX
  8
0
  6
CONTINUOUS
 62
     7
 10
173.8599026000574
 20
36.73019611309405
 42
0.10263082115642
  0
VERTEX
  8
0
  6
CONTINUOUS
 62
     7
 10
173.1116942164428
 20
37.29492730094672
 42
0.1103311409366533
  0
SEQEND
  8
0
  0
POLYLINE
  8
0
  6
CONTINUOUS
 62
     7
 66
     1
 10
0
 20
0
  0
VERTEX
  8
0
  6
CONTINUOUS
 62
     7
 10
6.82000732421875
 20
37.84974670410156
 42
0.1885758432677475
  0
VERTEX
  8
0
  6
CONTINUOUS
 62
     7
 10
6.460277819521648
 20
37.69005621819814
 42
0.07574479749632657
  0
VERTEX
  8
0
  6
CONTINUOUS
 62
     7
 10
6.21604592928594
 20
37.37221780334085
 42
0.0393357304493312
  0
VERTEX
  8
0
  6
CONTINUOUS
 62
     7
 10
6.046187192398637
 20
37.0068828929951
 42
0.02577097101669322
  0
VERTEX
  8
0
  6
CONTINUOUS
 62
     7
 10
5.924035453824461
 20
36.62273139380401
 42
0.01950490442457301
  0
VERTEX
  8
0
  6
CONTINUOUS
 62
     7
 10
5.83654709926637
 20
36.22851911972532
 42
0.01621427453036287
  0
VERTEX
  8
0
  6
CONTINUOUS
 62
     7
 10
5.777188892329618
 20
35.8289278865466
 42
0.01446617154970022
  0
VERTEX
  8
0
  6
CONTINUOUS
 62
     7
 10
5.742322667545428
 20
35.42640310783074
 42
0.01369085274712964
  0
VERTEX
  8
0
  6
CONTINUOUS
 62
     7
 10
5.730075410722635
 20
35.02225911204663
 42
0.01360523157542533
  0
VERTEX
  8
0
  6
CONTINUOUS
 62
     7
 10
5.739793074690745
 20
34.61941402431864
 42
0.01431559791625765
  0
VERTEX
  8
0
  6
CONTINUOUS
 62
     7
 10
5.771944839424553
 20
34.21716282501216
 42
0.01598215907109379
  0
VERTEX
  8
0
  6
CONTINUOUS
 62
     7
 10
5.828458431472812
 20
33.81634523376324
 42
0.01902702846737478
  0
VERTEX
  8
0
  6
CONTINUOUS
 62
     7
 10
5.912523188554931
 20
33.42119256874381
 42
0.02488001271887272
  0
VERTEX
  8
0
  6
CONTINUOUS
 62
     7
 10
6.030542322003533
 20
33.03479762806273
 42
0.03729630276940875
  0
VERTEX
  8
0
  6
CONTINUOUS
 62
     7
 10
6.194620911646851
 20
32.66561587558601
 42
0.0699826746018706
  0
VERTEX
  8
0
  6
CONTINUOUS
 62
     7
 10
6.43020965171967
 20
32.33828772006848
 42
0.1738196521755936
  0
VERTEX
  8
0
  6
CONTINUOUS
 62
     7
 10
6.779978566570953
 20
32.15169262985482
 42
0
  0
SEQEND
  8
0
  0
POLYLINE
  8
0
  6
CONTINUOUS
 62
     7
 66
     1
 10
0
 20
0
 70
     1
  0
VERTEX
  8
0
  6
CONTINUOUS
 62
     7
 10
10.52001953125
 20
37.499755859375
 42
0.255155215361367
  0
VERTEX
  8
0
  6
CONTINUOUS
 62
     7
 10
9.9902075200591
 20
37.07487114988788
 42
0.06319187408130171
  0
VERTEX
  8
0
  6
CONTINUOUS
 62
     7
 10
9.736106550422573
 20
36.41198839164932
 42
0.0351871583521999
  0
VERTEX
  8
0
  6
CONTINUOUS
 62
     7
 10
9.609372174642362
 20
35.71194102965977
 42
0.02798668497357907
  0
VERTEX
  8
0
  6
CONTINUOUS
 62
     7
 10
9.57000732421875
 20
34.999755859375
 42
0.02789664448870292
  0
VERTEX
  8
0
  6
CONTINUOUS
 62
     7
 10
9.609136741716712
 20
34.28960942703435
 42
0.03515812943571575
  0
VERTEX
  8
0
  6
CONTINUOUS
 62
     7
 10
9.735619527506344
 20
33.58931834256783
 42
0.06315520739922731
  0
VERTEX
  8
0
  6
CONTINUOUS
 62
     7
 10
9.989636932916328
 20
32.92557403751611
 42
0.2552942740415108
  0
VERTEX
  8
0
  6
CONTINUOUS
 62
     7
 10
10.51995849609375
 20
32.499755859375
 42
0.2551575742105834
  0
VERTEX
  8
0
  6
CONTINUOUS
 62
     7
 10
11.04977157225716
 20
32.92463836199141
 42
0.06319209636791895
  0
VERTEX
  8
0
  6
CONTINUOUS
 62
     7
 10
11.30387233785865
 20
33.58752117908281
 42
0.03518716328180804
  0
VERTEX
  8
0
  6
CONTINUOUS
 62
     7
 10
11.43060625180157
 20
34.28756862259311
 42
0.02798671452830346
  0
VERTEX
  8
0
  6
CONTINUOUS
 62
     7
 10
11.469970703125
 20
34.999755859375
 42
0.02789679269050339
  0
VERTEX
  8
0
  6
CONTINUOUS
 62
     7
 10
11.43084162265174
 20
35.70990230796101
 42
0.03515831153916234
  0
VERTEX
  8
0
  6
CONTINUOUS
 62
     7
 10
11.30435871211123
 20
36.41019336242768
 42
0.06315543485362449
  0
VERTEX
  8
0
  6
CONTINUOUS
 62
     7
 10
11.05034064741912
 20
37.0739373942226
 42
0.2552921643348824
  0
SEQEND
  8
0
  0
POLYLINE
  8
0
  6
CONTINUOUS
 62
     7
 66
     1
 10
0
 20
0
  0
VERTEX
  8
0
  6
CONTINUOUS
 62
     7
 10
173.3000106811523
 20
38.249755859375
 42
0.01434917358325161
  0
VERTEX
  8
0
  6
CONTINUOUS
 62
     7
 10
173.1411296571847
 20
38.2451946786832
 42
0.01426051941922374
  0
VERTEX
  8
0
  6
CONTINUOUS
 62
     7
 10
172.9835186236871
 20
38.23161917479602
 42
0.01417563956407983
  0
VERTEX
  8
0
  6
CONTINUOUS
 62
     7
 10
172.8274195788897
 20
38.20917637923424
 42
0.01415083358626632
  0
VERTEX
  8
0
  6
CONTINUOUS
 62
     7
 10
172.672457433277
 20
38.17785300994628
 42
0.01410154814994145
  0
VERTEX
  8
0
  6
CONTINUOUS
 62
     7
 10
172.519195454706
 20
38.13774534793879
 42
0.01402954753699355
  0
VERTEX
  8
0
  6
CONTINUOUS
 62
     7
 10
172.368178627492
 20
38.08900121340386
 42
0.01393697086522911
  0
VERTEX
  8
0
  6
CONTINUOUS
 62
     7
 10
172.2199281728144
 20
38.0318157525868
 42
0.01382625498891034
  0
VERTEX
  8
0
  6
CONTINUOUS
 62
     7
 10
172.0749369289755
 20
37.96642644768517
 42
0.01370004979290745
  0
VERTEX
  8
0
  6
CONTINUOUS
 62
     7
 10
171.9336657088381
 20
37.8931075673033
 42
0.01356113158306583
  0
VERTEX
  8
0
  6
CONTINUOUS
 62
     7
 10
171.7965406983984
 20
37.81216429166772
 42
0.01332237842701867
  0
VERTEX
  8
0
  6
CONTINUOUS
 62
     7
 10
171.6648305883102
 20
37.72454583797555
 42
0.01328781121426783
  0
VERTEX
  8
0
  6
CONTINUOUS
 62
     7
 10
171.536809591888
 20
37.62918260539771
 42
0.01315487781929664
  0
VERTEX
  8
0
  6
CONTINUOUS
 62
     7
 10
171.4137572133337
 20
37.52697715050112
 42
0.01293834174866668
  0
VERTEX
  8
0
  6
CONTINUOUS
 62
     7
 10
171.2967128654133
 20
37.41896270859147
 42
0.01278035405435488
  0
VERTEX
  8
0
  6
CONTINUOUS
 62
     7
 10
171.1853763839553
 20
37.30507361310178
 42
0.01262534715417602
  0
VERTEX
  8
0
  6
CONTINUOUS
 62
     7
 10
171.0799668913596
 20
37.18567643320562
 42
0
  0
SEQEND
  8
0
  0
POLYLINE
  8
0
  6
CONTINUOUS
 62
     7
 66
     1
 10
0
 20
0
  0
VERTEX
  8
0
  6
CONTINUOUS
 62
     7
 10
171.0759408193752
 20
32.81864062108921
 42
0.06283216344663344
  0
VERTEX
  8
0
  6
CONTINUOUS
 62
     7
 10
171.6402396774369
 20
32.29246874729534
 42
0.06649712346131294
  0
VERTEX
  8
0
  6
CONTINUOUS
 62
     7
 10
172.3202402182834
 20
31.927964726481
 42
0.0691555482534179
  0
VERTEX
  8
0
  6
CONTINUOUS
 62
     7
 10
173.0725949235432
 20
31.75910696886941
 42
0.06975243631339399
  0
VERTEX
  8
0
  6
CONTINUOUS
 62
     7
 10
173.8413497159067
 20
31.80310473087993
 42
0.06816367867484018
  0
VERTEX
  8
0
  6
CONTINUOUS
 62
     7
 10
174.569193006988
 20
32.05492630773183
 42
0.06499589374916481
  0
VERTEX
  8
0
  6
CONTINUOUS
 62
     7
 10
175.2057584135091
 20
32.48975792927568
 42
0.06129076697884105
  0
VERTEX
  8
0
  6
CONTINUOUS
 62
     7
 10
175.7138157115941
 20
33.06985893108441
 42
0.05807941563602473
  0
VERTEX
  8
0
  6
CONTINUOUS
 62
     7
 10
176.0708130786185
 20
33.75385261964507
 42
0.05590519749543128
  0
VERTEX
  8
0
  6
CONTINUOUS
 62
     7
 10
176.2644726392529
 20
34.5009962220469
 42
0.05496451379328164
  0
VERTEX
  8
0
  6
CONTINUOUS
 62
     7
 10
176.2894881855338
 20
35.2717185389976
 42
0.0554738042666876
  0
VERTEX
  8
0
  6
CONTINUOUS
 62
     7
 10
176.1454088650531
 20
36.02960762985119
 42
0.05728029110058978
  0
VERTEX
  8
0
  6
CONTINUOUS
 62
     7
 10
175.8359992400199
 20
36.73604917339804
 42
0.06026812582583702
  0
VERTEX
  8
0
  6
CONTINUOUS
 62
     7
 10
175.3707606463507
 20
37.3513583470139
 42
0.06395226361367801
  0
VERTEX
  8
0
  6
CONTINUOUS
 62
     7
 10
174.7685548318025
 20
37.83373747546517
 42
0.06744483597588925
  0
VERTEX
  8
0
  6
CONTINUOUS
 62
     7
 10
174.0618981302645
 20
38.14320047356275
 42
0.0694415996972394
  0
VERTEX
  8
0
  6
CONTINUOUS
 62
     7
 10
173.3000106811523
 20
38.249755859375
 42
0
  0
SEQEND
  8
0
  0
TEXT
  8
0
  6
CONTINUOUS
 62
     7
 10
-1.285500049591065
 20
-21.79999995231628
 40
3.599999904632568
 41
0.8455426207593617
  1
ＨＳＲ３０ＬＲＭ
  0
ENDSEC
  0
EOF
