  0
SECTION
  2
HEADER
  0
ENDSEC
  0
SECTION
  2
TABLES
  0
TABLE
  2
LTYPE
 70
    22
  0
LTYPE
  2
CONTINUOUS
 70
    64
  3
Solid line
 72
    65
 73
     0
 40
0.000000
  0
LTYPE
  2
DASHED
 70
    64
  3
__ __ __ __ __ __ __ __ __ __ __ __ __ __ __
 72
    65
 73
     2
 40
3.500000
 49
2.000000
 49
-1.500000
  0
LTYPE
  2
CENTER
 70
    64
  3
____ _ ____ _ ____ _ ____ _ ____ _ ____ _ ____
 72
    65
 73
     4
 40
17.500000
 49
13.000000
 49
-1.500000
 49
1.500000
 49
-1.500000
  0
LTYPE
  2
PHANTOM
 70
    64
  3
_____ _ _ _____ _ _ _____ _ _ _____ _ _ ____  
 72
    65
 73
     6
 40
15.500000
 49
8.000000
 49
-1.500000
 49
1.500000
 49
-1.500000
 49
1.500000
 49
-1.500000
  0
LTYPE
  2
DOT
 70
    64
  3
. . . . . . . . . . . . . . . . . . . . . . . .
 72
    65
 73
     2
 40
0.25
 49
0.0
 49
-0.25
  0
ENDTAB
  0
TABLE
  2
LAYER
 70
     1
  0
LAYER
  2
0
 70
     0
 62
     7
  6
CONTINUOUS
  0
ENDTAB
  0
TABLE
  2
STYLE
 70
     1
  0
STYLE
  2
STANDARD
 70
     0
 40
0.000000
 41
1.000000
 50
0.000000
 71
     0
 42
0.200000
  3
txt
  4
BIGFONT
  0
ENDTAB
  0
TABLE
  2
VIEW
 70
     0
  0
ENDTAB
  0
ENDSEC
  0
SECTION
  2
BLOCKS
  0
ENDSEC
  0
SECTION
  2
ENTITIES
  0
LINE
  8
0
  6
CENTER
 62
     7
 10
266
 20
15.50662803649902
 11
266
 21
42.999755859375
  0
LINE
  8
0
  6
CENTER
 62
     7
 10
179.2002563476563
 20
34.999755859375
 11
195.1284790039063
 21
34.999755859375
  0
LINE
  8
0
  6
CONTINUOUS
 62
     7
 10
190.3999938964844
 20
30.8798828125
 11
190.3999938964844
 21
39.11962890625
  0
LINE
  8
0
  6
CONTINUOUS
 62
     7
 10
187.3999633789063
 20
38.999755859375
 11
190.3999633789063
 21
38.999755859375
  0
LINE
  8
0
  6
CONTINUOUS
 62
     7
 10
190.5999908447266
 20
30.67950248718262
 11
190.3999176025391
 21
30.87957763671875
  0
LINE
  8
0
  6
CONTINUOUS
 62
     7
 10
190.3999176025391
 20
39.11972045898438
 11
190.5999908447266
 21
39.31980133056641
  0
LINE
  8
0
  6
CONTINUOUS
 62
     7
 10
188.5000610351563
 20
31.499755859375
 11
183.2998657226563
 21
31.499755859375
  0
LINE
  8
0
  6
CONTINUOUS
 62
     7
 10
188.5000915527344
 20
31.459716796875
 11
188.5000915527344
 21
31.499755859375
  0
LINE
  8
0
  6
CONTINUOUS
 62
     7
 10
190.0000457763672
 20
34.99972152709961
 11
188.5000610351563
 21
31.49973869323731
  0
LINE
  8
0
  6
CONTINUOUS
 62
     7
 10
189.1002044677734
 20
34.99976348876953
 11
187.5001831054688
 21
31.49975395202637
  0
LINE
  8
0
  6
CONTINUOUS
 62
     7
 10
183.3004913330078
 20
31.49932098388672
 11
182.9004821777344
 21
32.07935333251953
  0
LINE
  8
0
  6
CONTINUOUS
 62
     7
 10
183.3000183105469
 20
38.49959564208984
 11
182.9000091552734
 21
37.91956329345703
  0
LINE
  8
0
  6
CONTINUOUS
 62
     7
 10
188.5000610351563
 20
38.499755859375
 11
183.2998657226563
 21
38.499755859375
  0
LINE
  8
0
  6
CONTINUOUS
 62
     7
 10
189.1005096435547
 20
34.9996452331543
 11
187.5003967285156
 21
38.4998779296875
  0
LINE
  8
0
  6
CONTINUOUS
 62
     7
 10
190.0002746582031
 20
34.99941253662109
 11
188.5003814697266
 21
38.49916458129883
  0
LINE
  8
0
  6
CONTINUOUS
 62
     7
 10
187.3999633789063
 20
30.999755859375
 11
190.3999633789063
 21
30.999755859375
  0
LINE
  8
0
  6
CENTER
 62
     7
 10
268
 20
8.999755859375
 11
268
 21
5.999755859375
  0
LINE
  8
0
  6
CENTER
 62
     7
 10
212
 20
8.999755859375
 11
212
 21
5.999755859375
  0
LINE
  8
0
  6
CONTINUOUS
 62
     7
 10
194.5
 20
39.999755859375
 11
194.5
 21
7.999755859375
  0
LINE
  8
0
  6
CONTINUOUS
 62
     7
 10
193
 20
39.999755859375
 11
193
 21
8.499755859375
  0
LINE
  8
0
  6
CONTINUOUS
 62
     7
 10
100
 20
25.999755859375
 11
190.6000061035156
 21
25.999755859375
  0
LINE
  8
0
  6
CONTINUOUS
 62
     7
 10
100
 20
0
 11
380
 21
0
  0
LINE
  8
0
  6
CONTINUOUS
 62
     7
 10
190.6000061035156
 20
39.999755859375
 11
194.5
 21
39.999755859375
  0
LINE
  8
0
  6
CONTINUOUS
 62
     7
 10
289.4002380371094
 20
25.999755859375
 11
380
 21
25.999755859375
  0
LINE
  8
0
  6
CENTER
 62
     7
 10
214
 20
42.999755859375
 11
214
 21
15.50662803649902
  0
LINE
  8
0
  6
CONTINUOUS
 62
     7
 10
206.400146484375
 20
41.999755859375
 11
273.60009765625
 21
41.999755859375
  0
LINE
  8
0
  6
CONTINUOUS
 62
     7
 10
204.800048828125
 20
23.999755859375
 11
275.2001953125
 21
23.999755859375
  0
LINE
  8
0
  6
CONTINUOUS
 62
     7
 10
204.800048828125
 20
7.999755859375
 11
275.2001953125
 21
7.999755859375
  0
LINE
  8
0
  6
CONTINUOUS
 62
     7
 10
275.2001953125
 20
40.999755859375
 11
275.2001953125
 21
7.999755859375
  0
LINE
  8
0
  6
CONTINUOUS
 62
     7
 10
273.5999755859375
 20
41.99961853027344
 11
275.1999206542969
 21
40.39965057373047
  0
LINE
  8
0
  6
CONTINUOUS
 62
     7
 10
214.0002593994141
 20
16.50666427612305
 11
208.500244140625
 21
23.99969100952148
  0
LINE
  8
0
  6
CONTINUOUS
 62
     7
 10
219.5002746582031
 20
23.99965858459473
 11
214.0002593994141
 21
16.50663185119629
  0
LINE
  8
0
  6
CONTINUOUS
 62
     7
 10
266.0000915527344
 20
16.50657463073731
 11
260.5000915527344
 21
23.99960136413574
  0
LINE
  8
0
  6
CONTINUOUS
 62
     7
 10
271.5003051757813
 20
23.99961280822754
 11
266.0002746582031
 21
16.5065860748291
  0
LINE
  8
0
  6
CONTINUOUS
 62
     7
 10
285.5000305175781
 20
39.99997329711914
 11
284.5001525878906
 21
40.9998664855957
  0
LINE
  8
0
  6
CONTINUOUS
 62
     7
 10
275.2001953125
 20
7.999755859375
 11
285.500244140625
 21
7.999755859375
  0
LINE
  8
0
  6
CONTINUOUS
 62
     7
 10
275.2001953125
 20
40.999755859375
 11
284.500244140625
 21
40.999755859375
  0
LINE
  8
0
  6
CONTINUOUS
 62
     7
 10
285.500244140625
 20
8.499755859375
 11
289.4002380371094
 21
8.499755859375
  0
LINE
  8
0
  6
CONTINUOUS
 62
     7
 10
285.500244140625
 20
39.999755859375
 11
289.4002380371094
 21
39.999755859375
  0
LINE
  8
0
  6
CONTINUOUS
 62
     7
 10
287.000244140625
 20
8.499755859375
 11
287.000244140625
 21
39.999755859375
  0
LINE
  8
0
  6
CONTINUOUS
 62
     7
 10
285.500244140625
 20
7.999755859375
 11
285.500244140625
 21
39.999755859375
  0
LINE
  8
0
  6
CONTINUOUS
 62
     7
 10
204.8001556396484
 20
40.39956665039063
 11
206.4001312255859
 21
41.99953460693359
  0
LINE
  8
0
  6
CONTINUOUS
 62
     7
 10
204.800048828125
 20
7.999755859375
 11
204.800048828125
 21
40.999755859375
  0
LINE
  8
0
  6
CONTINUOUS
 62
     7
 10
195.5001068115234
 20
40.99967193603516
 11
194.5002136230469
 21
39.99977874755859
  0
LINE
  8
0
  6
CONTINUOUS
 62
     7
 10
194.5
 20
7.999755859375
 11
204.800048828125
 21
7.999755859375
  0
LINE
  8
0
  6
CONTINUOUS
 62
     7
 10
195.5
 20
40.999755859375
 11
204.800048828125
 21
40.999755859375
  0
LINE
  8
0
  6
CONTINUOUS
 62
     7
 10
190.6000061035156
 20
8.499755859375
 11
194.5
 21
8.499755859375
  0
LINE
  8
0
  6
CONTINUOUS
 62
     7
 10
12.5
 20
0
 11
7.75
 21
0
  0
LINE
  8
0
  6
CONTINUOUS
 62
     7
 10
-10.21484375
 20
26
 11
10.21533203125
 21
26
  0
LINE
  8
0
  6
CONTINUOUS
 62
     7
 10
14
 20
22.21484375
 11
14
 21
19.77978515625
  0
LINE
  8
0
  6
CONTINUOUS
 62
     7
 10
-14
 20
22.21484375
 11
-14
 21
19.77978515625
  0
LINE
  8
0
  6
CONTINUOUS
 62
     7
 10
9.30029296875
 20
15.079833984375
 11
9.30029296875
 21
11
  0
LINE
  8
0
  6
CONTINUOUS
 62
     7
 10
-9.2998046875
 20
15.079833984375
 11
-9.2998046875
 21
11
  0
LINE
  8
0
  6
CONTINUOUS
 62
     7
 10
10.21535396575928
 20
25.99964904785156
 11
11.00049114227295
 21
25.21451187133789
  0
LINE
  8
0
  6
CONTINUOUS
 62
     7
 10
-13.99994659423828
 20
19.7796630859375
 11
-13.52969264984131
 21
19.30941009521484
  0
LINE
  8
0
  6
CONTINUOUS
 62
     7
 10
9.300224304199219
 20
10.99969673156738
 11
14.00017070770264
 21
6.299750328063965
  0
LINE
  8
0
  6
CONTINUOUS
 62
     7
 10
9.300396919250488
 20
15.07954406738281
 11
10.99980068206787
 21
16.7789478302002
  0
LINE
  8
0
  6
CONTINUOUS
 62
     7
 10
-13.9997730255127
 20
6.299922466278076
 11
-9.299999237060547
 21
10.99969673156738
  0
LINE
  8
0
  6
CONTINUOUS
 62
     7
 10
-13.99977397918701
 20
22.21465873718262
 11
-13.52416896820068
 21
22.69026374816895
  0
LINE
  8
0
  6
CONTINUOUS
 62
     7
 10
-14
 20
6.2998046875
 11
-14
 21
1.5
  0
LINE
  8
0
  6
CONTINUOUS
 62
     7
 10
14
 20
6.2998046875
 11
14
 21
1.5
  0
LINE
  8
0
  6
CONTINUOUS
 62
     7
 10
-13.99937343597412
 20
1.499689221382141
 11
-12.49953365325928
 21
-0.000150675026816316
  0
LINE
  8
0
  6
CONTINUOUS
 62
     7
 10
14.00046253204346
 20
1.499492287635803
 11
12.50045013427734
 21
-0.0005202185129746795
  0
LINE
  8
0
  6
CONTINUOUS
 62
     7
 10
-10.99923133850098
 20
16.7789478302002
 11
-9.299827575683594
 21
15.07954502105713
  0
LINE
  8
0
  6
CONTINUOUS
 62
     7
 10
-10.99992179870606
 20
25.21451187133789
 11
-10.21478462219238
 21
25.99964904785156
  0
LINE
  8
0
  6
CONTINUOUS
 62
     7
 10
13.52473831176758
 20
22.69026374816895
 11
14.00017070770264
 21
22.2148323059082
  0
LINE
  8
0
  6
CONTINUOUS
 62
     7
 10
13.53026294708252
 20
19.30941009521484
 11
14.00034332275391
 21
19.77949142456055
  0
LINE
  8
0
  6
CONTINUOUS
 62
     7
 10
-7.25
 20
0.5
 11
-3.75
 21
0.5
  0
LINE
  8
0
  6
CONTINUOUS
 62
     7
 10
3.75
 20
0.5
 11
7.25
 21
0.5
  0
LINE
  8
0
  6
CONTINUOUS
 62
     7
 10
-7.74951171875
 20
0
 11
-12.49968528747559
 21
0
  0
LINE
  8
0
  6
CONTINUOUS
 62
     7
 10
-3.24951171875
 20
0
 11
3.25
 21
0
  0
LINE
  8
0
  6
CONTINUOUS
 62
     7
 10
-7.74957799911499
 20
-0.0003368376055732369
 11
-7.24945878982544
 21
0.4997823834419251
  0
LINE
  8
0
  6
CONTINUOUS
 62
     7
 10
3.249938011169434
 20
8.597957275924273E-006
 11
3.749884605407715
 21
0.4999551773071289
  0
LINE
  8
0
  6
CONTINUOUS
 62
     7
 10
7.250028610229492
 20
0.4997823834419251
 11
7.749975204467773
 21
-0.0001642041170271114
  0
LINE
  8
0
  6
CONTINUOUS
 62
     7
 10
-3.749659538269043
 20
0.4999551773071289
 11
-3.249712944030762
 21
8.597957275924273E-006
  0
LINE
  8
0
  6
CONTINUOUS
 62
     7
 10
-26.482421875
 20
8
 11
-22
 21
8
  0
LINE
  8
0
  6
CONTINUOUS
 62
     7
 10
21.9998779296875
 20
8
 11
26.4827880859375
 21
8
  0
LINE
  8
0
  6
CENTER
 62
     7
 10
-5
 20
35
 11
13.35400390625
 21
35
  0
LINE
  8
0
  6
CONTINUOUS
 62
     7
 10
44.9998779296875
 20
40.599853515625
 11
44.9998779296875
 21
32
  0
LINE
  8
0
  6
CONTINUOUS
 62
     7
 10
-45
 20
40.599853515625
 11
-45
 21
32
  0
LINE
  8
0
  6
CONTINUOUS
 62
     7
 10
-43.599609375
 20
42
 11
-25.7998046875
 21
42
  0
LINE
  8
0
  6
CONTINUOUS
 62
     7
 10
43.9998779296875
 20
30.267822265625
 11
43.9998779296875
 21
27
  0
LINE
  8
0
  6
CONTINUOUS
 62
     7
 10
-25
 20
41.199951171875
 11
-11
 21
41.199951171875
  0
LINE
  8
0
  6
CONTINUOUS
 62
     7
 10
11
 20
41.199951171875
 11
24.9998779296875
 21
41.199951171875
  0
LINE
  8
0
  6
CONTINUOUS
 62
     7
 10
-10.19970703125
 20
42
 11
10.2001953125
 21
42
  0
LINE
  8
0
  6
CONTINUOUS
 62
     7
 10
25.8001708984375
 20
42
 11
43.5999755859375
 21
42
  0
LINE
  8
0
  6
CONTINUOUS
 62
     7
 10
11.00018215179443
 20
41.19952011108398
 11
10.20019340515137
 21
41.99949645996094
  0
LINE
  8
0
  6
CONTINUOUS
 62
     7
 10
-24.99969863891602
 20
41.19968032836914
 11
-25.7996826171875
 21
41.99966430664063
  0
LINE
  8
0
  6
CONTINUOUS
 62
     7
 10
-10.99970054626465
 20
41.19963836669922
 11
-10.19971179962158
 21
41.99961853027344
  0
LINE
  8
0
  6
CONTINUOUS
 62
     7
 10
25.00031089782715
 20
41.19972991943359
 11
25.80029487609863
 21
41.99971389770508
  0
LINE
  8
0
  6
CONTINUOUS
 62
     7
 10
-43.599609375
 20
41.99947738647461
 11
-44.99949264526367
 21
40.59959030151367
  0
LINE
  8
0
  6
CONTINUOUS
 62
     7
 10
43.60031127929688
 20
41.99940872192383
 11
45.00001907348633
 21
40.59969329833984
  0
LINE
  8
0
  6
CONTINUOUS
 62
     7
 10
29.43697166442871
 20
10.47870445251465
 11
31.38398170471191
 21
21.520751953125
  0
LINE
  8
0
  6
CONTINUOUS
 62
     7
 10
-29.43692970275879
 20
10.47873401641846
 11
-31.38393974304199
 21
21.52078056335449
  0
LINE
  8
0
  6
CONTINUOUS
 62
     7
 10
34.3387451171875
 20
24
 11
40.9998779296875
 21
24
  0
LINE
  8
0
  6
CONTINUOUS
 62
     7
 10
-44
 20
30.267822265625
 11
-44
 21
27
  0
LINE
  8
0
  6
CONTINUOUS
 62
     7
 10
1.7802734375
 20
38.499755859375
 11
5.8603515625
 21
38.499755859375
  0
LINE
  8
0
  6
CONTINUOUS
 62
     7
 10
1.7802734375
 20
31.499755859375
 11
5.8603515625
 21
31.499755859375
  0
LINE
  8
0
  6
CONTINUOUS
 62
     7
 10
1.130136132240295
 20
34.99966430664063
 11
1.780124664306641
 21
31.49969100952148
  0
LINE
  8
0
  6
CONTINUOUS
 62
     7
 10
1.130183339118958
 20
34.99946212768555
 11
1.780171513557434
 21
38.49943161010742
  0
LINE
  8
0
  6
CONTINUOUS
 62
     7
 10
3.440254211425781
 20
34.9993782043457
 11
4.09025764465332
 21
31.49940872192383
  0
LINE
  8
0
  6
CONTINUOUS
 62
     7
 10
3.440143346786499
 20
34.99957275390625
 11
4.090146541595459
 21
38.49954223632813
  0
LINE
  8
0
  6
CONTINUOUS
 62
     7
 10
5.950069904327393
 20
31.96954727172852
 11
5.860063552856445
 21
31.49957275390625
  0
LINE
  8
0
  6
CONTINUOUS
 62
     7
 10
5.950548648834229
 20
38.01940536499023
 11
5.860509872436523
 21
38.49956130981445
  0
LINE
  8
0
  6
CONTINUOUS
 62
     7
 10
7.766476631164551
 20
31.75372314453125
 11
10.52034568786621
 21
32.49935531616211
  0
LINE
  8
0
  6
CONTINUOUS
 62
     7
 10
7.750205516815186
 20
38.24956893920898
 11
10.52009963989258
 21
37.49959945678711
  0
LINE
  8
0
  6
CONTINUOUS
 62
     7
 10
0.000422628567321226
 20
30.38055610656738
 11
1.947599411010742
 21
31.49963760375977
  0
LINE
  8
0
  6
CONTINUOUS
 62
     7
 10
-0.0005244479398243129
 20
39.61859512329102
 11
1.937883973121643
 21
38.49945449829102
  0
LINE
  8
0
  6
CENTER
 62
     7
 10
-36
 20
43
 11
-36
 21
23
  0
LINE
  8
0
  6
CONTINUOUS
 62
     7
 10
-22
 20
8.5
 11
-22
 21
8
  0
LINE
  8
0
  6
CONTINUOUS
 62
     7
 10
28.9998779296875
 20
37.999755859375
 11
28.9998779296875
 21
10.5
  0
LINE
  8
0
  6
CONTINUOUS
 62
     7
 10
-26.99974632263184
 20
40
 11
26.9998779296875
 21
40
  0
LINE
  8
0
  6
CONTINUOUS
 62
     7
 10
26.99983596801758
 20
39.99990844726563
 11
28.99996185302734
 21
37.99977111816406
  0
LINE
  8
0
  6
CONTINUOUS
 62
     7
 10
29.00012397766113
 20
10.4995813369751
 11
27.00015830993652
 21
8.499628067016602
  0
LINE
  8
0
  6
CONTINUOUS
 62
     7
 10
11.80029296875
 20
8.5
 11
26.9998779296875
 21
8.5
  0
LINE
  8
0
  6
CONTINUOUS
 62
     7
 10
21.9998779296875
 20
8
 11
21.9998779296875
 21
8.5
  0
LINE
  8
0
  6
CONTINUOUS
 62
     7
 10
-3.998046875
 20
37.30810546875
 11
-3.998046875
 21
32.691650390625
  0
LINE
  8
0
  6
CONTINUOUS
 62
     7
 10
-3.998279809951782
 20
32.69134902954102
 11
0.00243700947612524
 21
30.38153266906738
  0
LINE
  8
0
  6
CONTINUOUS
 62
     7
 10
-3.998024225234985
 20
37.3077507019043
 11
0.002057552570477128
 21
39.6171989440918
  0
LINE
  8
0
  6
CONTINUOUS
 62
     7
 10
-29
 20
10.49986743927002
 11
-29
 21
37.99973297119141
  0
LINE
  8
0
  6
CONTINUOUS
 62
     7
 10
-26.99963188171387
 20
8.499509811401367
 11
-28.99976921081543
 21
10.49963665008545
  0
LINE
  8
0
  6
CONTINUOUS
 62
     7
 10
-26.99951171875
 20
8.5
 11
-11.7998046875
 21
8.5
  0
LINE
  8
0
  6
CONTINUOUS
 62
     7
 10
-41
 20
24
 11
-34.33837890625
 21
24
  0
LINE
  8
0
  6
DASHED
 62
     7
 10
-34.33837890625
 20
24
 11
-30.5
 21
24
  0
LINE
  8
0
  6
CENTER
 62
     7
 10
35.9998779296875
 20
43
 11
35.9998779296875
 21
23
  0
LINE
  8
0
  6
CENTER
 62
     7
 10
0
 20
43
 11
0
 21
-1
  0
LINE
  8
0
  6
DASHED
 62
     7
 10
-7
 20
26
 11
-7
 21
14
  0
LINE
  8
0
  6
DASHED
 62
     7
 10
7
 20
26
 11
7
 21
14
  0
LINE
  8
0
  6
DASHED
 62
     7
 10
4.5
 20
14
 11
4.5
 21
0.5
  0
LINE
  8
0
  6
DASHED
 62
     7
 10
-4.5
 20
14
 11
-4.5
 21
0.5
  0
LINE
  8
0
  6
DASHED
 62
     7
 10
-7
 20
14
 11
7
 21
14
  0
LINE
  8
0
  6
DASHED
 62
     7
 10
-31
 20
42
 11
-31
 21
24
  0
LINE
  8
0
  6
DASHED
 62
     7
 10
-41
 20
42
 11
-41
 21
24
  0
LINE
  8
0
  6
DASHED
 62
     7
 10
-31.75
 20
42
 11
-31.75
 21
24
  0
LINE
  8
0
  6
DASHED
 62
     7
 10
-40.25
 20
42
 11
-40.25
 21
24
  0
LINE
  8
0
  6
CENTER
 62
     7
 10
18.9998779296875
 20
9.5
 11
18.9998779296875
 21
6
  0
LINE
  8
0
  6
CENTER
 62
     7
 10
-19
 20
9.5
 11
-19
 21
6
  0
LINE
  8
0
  6
CONTINUOUS
 62
     7
 10
-21.23251914978027
 20
8.499631881713867
 11
-21.18160057067871
 21
7.91762638092041
  0
LINE
  8
0
  6
CONTINUOUS
 62
     7
 10
-16.81821632385254
 20
7.917662143707275
 11
-16.76726913452148
 21
8.5
  0
LINE
  8
0
  6
DASHED
 62
     7
 10
-30.5
 20
24
 11
-30.5
 21
16.5068359375
  0
LINE
  8
0
  6
CENTER
 62
     7
 10
-17.75
 20
34
 11
-10.25
 21
34
  0
LINE
  8
0
  6
CENTER
 62
     7
 10
-14
 20
37.75
 11
-14
 21
30.25
  0
LINE
  8
0
  6
CENTER
 62
     7
 10
10.25
 20
34
 11
17.75
 21
34
  0
LINE
  8
0
  6
CENTER
 62
     7
 10
14
 20
30.25
 11
14
 21
37.75
  0
LINE
  8
0
  6
CONTINUOUS
 62
     7
 10
-26.99983596801758
 20
39.99990844726563
 11
-28.99996185302734
 21
37.99977111816406
  0
LINE
  8
0
  6
CONTINUOUS
 62
     7
 10
100
 20
25.999755859375
 11
100
 21
0
  0
LINE
  8
0
  6
CENTER
 62
     7
 10
120
 20
26.999755859375
 11
120
 21
-1
  0
LINE
  8
0
  6
DASHED
 62
     7
 10
113
 20
26
 11
113
 21
14
  0
LINE
  8
0
  6
DASHED
 62
     7
 10
127
 20
26
 11
127
 21
14
  0
LINE
  8
0
  6
DASHED
 62
     7
 10
124.5
 20
14
 11
124.5
 21
0
  0
LINE
  8
0
  6
DASHED
 62
     7
 10
115.5
 20
14
 11
115.5
 21
0
  0
LINE
  8
0
  6
DASHED
 62
     7
 10
113
 20
14
 11
127
 21
14
  0
LINE
  8
0
  6
CONTINUOUS
 62
     7
 10
380
 20
25.999755859375
 11
380
 21
0
  0
LINE
  8
0
  6
CENTER
 62
     7
 10
200
 20
8.999755859375
 11
200
 21
-1
  0
LINE
  8
0
  6
CENTER
 62
     7
 10
280
 20
8.999755859375
 11
280
 21
-1
  0
LINE
  8
0
  6
CENTER
 62
     7
 10
360
 20
26.999755859375
 11
360
 21
-1
  0
LINE
  8
0
  6
DASHED
 62
     7
 10
219
 20
41.999755859375
 11
219
 21
23.999755859375
  0
LINE
  8
0
  6
DASHED
 62
     7
 10
209
 20
41.999755859375
 11
209
 21
23.999755859375
  0
LINE
  8
0
  6
DASHED
 62
     7
 10
218.25
 20
41.999755859375
 11
218.25
 21
23.999755859375
  0
LINE
  8
0
  6
DASHED
 62
     7
 10
209.75
 20
41.999755859375
 11
209.75
 21
23.999755859375
  0
LINE
  8
0
  6
CONTINUOUS
 62
     7
 10
100
 20
25.21451187133789
 11
190.6000061035156
 21
25.21451187133789
  0
LINE
  8
0
  6
CONTINUOUS
 62
     7
 10
100
 20
22.69049644470215
 11
190.6000061035156
 21
22.69049644470215
  0
LINE
  8
0
  6
CONTINUOUS
 62
     7
 10
100
 20
19.31001853942871
 11
190.6000061035156
 21
19.31001853942871
  0
LINE
  8
0
  6
CONTINUOUS
 62
     7
 10
100
 20
15.07944011688232
 11
190.6000061035156
 21
15.07944011688232
  0
LINE
  8
0
  6
CONTINUOUS
 62
     7
 10
100
 20
10.9996280670166
 11
190.6000061035156
 21
10.9996280670166
  0
LINE
  8
0
  6
CONTINUOUS
 62
     7
 10
100
 20
6.299749851226807
 11
380
 21
6.299749851226807
  0
LINE
  8
0
  6
CONTINUOUS
 62
     7
 10
289.4002380371094
 20
25.21451187133789
 11
380
 21
25.21451187133789
  0
LINE
  8
0
  6
CONTINUOUS
 62
     7
 10
289.4002380371094
 20
22.69049644470215
 11
380
 21
22.69049644470215
  0
LINE
  8
0
  6
CONTINUOUS
 62
     7
 10
289.4002380371094
 20
19.31001853942871
 11
380
 21
19.31001853942871
  0
LINE
  8
0
  6
CONTINUOUS
 62
     7
 10
289.4002380371094
 20
15.07944011688232
 11
380
 21
15.07944011688232
  0
LINE
  8
0
  6
CONTINUOUS
 62
     7
 10
289.4002380371094
 20
10.9996280670166
 11
380
 21
10.9996280670166
  0
LINE
  8
0
  6
CENTER
 62
     7
 10
99
 20
166.999755859375
 11
381
 21
166.999755859375
  0
LINE
  8
0
  6
CONTINUOUS
 62
     7
 10
204.800048828125
 20
121.9998779296875
 11
275.2001953125
 21
121.9998779296875
  0
LINE
  8
0
  6
CONTINUOUS
 62
     7
 10
204.800048828125
 20
211.999755859375
 11
275.2001953125
 21
211.999755859375
  0
LINE
  8
0
  6
CONTINUOUS
 62
     7
 10
204.800048828125
 20
192.799560546875
 11
275.2001953125
 21
192.799560546875
  0
LINE
  8
0
  6
CONTINUOUS
 62
     7
 10
204.800048828125
 20
177.199462890625
 11
275.2001953125
 21
177.199462890625
  0
LINE
  8
0
  6
CONTINUOUS
 62
     7
 10
204.800048828125
 20
156.799560546875
 11
275.2001953125
 21
156.799560546875
  0
LINE
  8
0
  6
CONTINUOUS
 62
     7
 10
204.800048828125
 20
141.1995849609375
 11
275.2001953125
 21
141.1995849609375
  0
LINE
  8
0
  6
CONTINUOUS
 62
     7
 10
204.800048828125
 20
211.999755859375
 11
204.800048828125
 21
121.9998779296875
  0
LINE
  8
0
  6
CONTINUOUS
 62
     7
 10
275.2001953125
 20
211.999755859375
 11
275.2001953125
 21
121.9998779296875
  0
LINE
  8
0
  6
CENTER
 62
     7
 10
220
 20
130.9998779296875
 11
208
 21
130.9998779296875
  0
LINE
  8
0
  6
CENTER
 62
     7
 10
214
 20
136.9998779296875
 11
214
 21
124.9998779296875
  0
LINE
  8
0
  6
CENTER
 62
     7
 10
266.000244140625
 20
136.9998779296875
 11
266.000244140625
 21
124.9998779296875
  0
LINE
  8
0
  6
CENTER
 62
     7
 10
260.000244140625
 20
130.9998779296875
 11
272.000244140625
 21
130.9998779296875
  0
LINE
  8
0
  6
CENTER
 62
     7
 10
260.000244140625
 20
202.9996337890625
 11
272.000244140625
 21
202.9996337890625
  0
LINE
  8
0
  6
CENTER
 62
     7
 10
214
 20
196.9996337890625
 11
214
 21
208.9996337890625
  0
LINE
  8
0
  6
CENTER
 62
     7
 10
220
 20
202.9996337890625
 11
208
 21
202.9996337890625
  0
LINE
  8
0
  6
CENTER
 62
     7
 10
266.000244140625
 20
196.9996337890625
 11
266.000244140625
 21
208.9996337890625
  0
LINE
  8
0
  6
CONTINUOUS
 62
     7
 10
190.6000061035156
 20
137.9998779296875
 11
204.800048828125
 21
137.9998779296875
  0
LINE
  8
0
  6
CONTINUOUS
 62
     7
 10
190.6000061035156
 20
195.999755859375
 11
204.800048828125
 21
195.999755859375
  0
LINE
  8
0
  6
CONTINUOUS
 62
     7
 10
193
 20
195.999755859375
 11
193
 21
137.9998779296875
  0
LINE
  8
0
  6
CONTINUOUS
 62
     7
 10
194.5
 20
195.999755859375
 11
194.5
 21
137.9998779296875
  0
LINE
  8
0
  6
CONTINUOUS
 62
     7
 10
289.4002380371094
 20
195.999755859375
 11
275.2001953125
 21
195.999755859375
  0
LINE
  8
0
  6
CONTINUOUS
 62
     7
 10
285.500244140625
 20
195.999755859375
 11
285.500244140625
 21
137.9998779296875
  0
LINE
  8
0
  6
CONTINUOUS
 62
     7
 10
287.000244140625
 20
195.999755859375
 11
287.000244140625
 21
137.9998779296875
  0
LINE
  8
0
  6
CONTINUOUS
 62
     7
 10
289.4002380371094
 20
137.9998779296875
 11
275.2001953125
 21
137.9998779296875
  0
LINE
  8
0
  6
CONTINUOUS
 62
     7
 10
100
 20
152.999755859375
 11
190.6000061035156
 21
152.999755859375
  0
LINE
  8
0
  6
CONTINUOUS
 62
     7
 10
100
 20
180.999755859375
 11
190.6000061035156
 21
180.999755859375
  0
LINE
  8
0
  6
CONTINUOUS
 62
     7
 10
100
 20
156.7844085693359
 11
182.5577239990234
 21
156.7844085693359
  0
LINE
  8
0
  6
CONTINUOUS
 62
     7
 10
100
 20
177.214599609375
 11
190.6000061035156
 21
177.214599609375
  0
LINE
  8
0
  6
CONTINUOUS
 62
     7
 10
100
 20
180.999755859375
 11
100
 21
152.999755859375
  0
LINE
  8
0
  6
CONTINUOUS
 62
     7
 10
380
 20
180.999755859375
 11
380
 21
152.999755859375
  0
LINE
  8
0
  6
CONTINUOUS
 62
     7
 10
289.4002380371094
 20
180.999755859375
 11
380
 21
180.999755859375
  0
LINE
  8
0
  6
CONTINUOUS
 62
     7
 10
289.4002380371094
 20
177.214599609375
 11
380
 21
177.214599609375
  0
LINE
  8
0
  6
CONTINUOUS
 62
     7
 10
289.4002380371094
 20
156.7844085693359
 11
380
 21
156.7844085693359
  0
LINE
  8
0
  6
CONTINUOUS
 62
     7
 10
289.4002380371094
 20
152.999755859375
 11
380
 21
152.999755859375
  0
LINE
  8
0
  6
CENTER
 62
     7
 10
120
 20
174.999755859375
 11
120
 21
158.999755859375
  0
LINE
  8
0
  6
CENTER
 62
     7
 10
200
 20
174.999755859375
 11
200
 21
158.999755859375
  0
LINE
  8
0
  6
CENTER
 62
     7
 10
280
 20
174.999755859375
 11
280
 21
158.999755859375
  0
LINE
  8
0
  6
CENTER
 62
     7
 10
360
 20
174.999755859375
 11
360
 21
158.999755859375
  0
LINE
  8
0
  6
CONTINUOUS
 62
     7
 10
190.4000091552734
 20
162.9997406005859
 11
190.4000091552734
 21
170.9997406005859
  0
LINE
  8
0
  6
CONTINUOUS
 62
     7
 10
187.10009765625
 20
170.999755859375
 11
190.4000091552734
 21
170.999755859375
  0
LINE
  8
0
  6
CONTINUOUS
 62
     7
 10
188.7201232910156
 20
162.999755859375
 11
190.4000091552734
 21
162.999755859375
  0
LINE
  8
0
  6
CONTINUOUS
 62
     7
 10
183.10009765625
 20
166.999755859375
 11
183.10009765625
 21
165.32763671875
  0
LINE
  8
0
  6
CONTINUOUS
 62
     7
 10
190.3999938964844
 20
170.999755859375
 11
190.6000061035156
 21
170.999755859375
  0
LINE
  8
0
  6
CONTINUOUS
 62
     7
 10
190.3999938964844
 20
162.999755859375
 11
190.6000061035156
 21
162.999755859375
  0
LINE
  8
0
  6
CENTER
 62
     7
 10
182.65185546875
 20
155.4776306152344
 11
187.5171661376953
 21
167.2235107421875
  0
LINE
  8
0
  6
CONTINUOUS
 62
     7
 10
180.8827819824219
 20
157.4781799316406
 11
185.3173980712891
 21
155.6413116455078
  0
LINE
  8
0
  6
CONTINUOUS
 62
     7
 10
181.0845489501953
 20
160.3170928955078
 11
187.1821441650391
 21
157.7913818359375
  0
LINE
  8
0
  6
CONTINUOUS
 62
     7
 10
180.8827819824219
 20
157.4782104492188
 11
181.0845489501953
 21
160.3170928955078
  0
LINE
  8
0
  6
CONTINUOUS
 62
     7
 10
185.3174133300781
 20
155.6413116455078
 11
187.1821594238281
 21
157.7913818359375
  0
LINE
  8
0
  6
CONTINUOUS
 62
     7
 10
181.8232727050781
 20
164.0379486083984
 11
182.2379302978516
 21
165.0390167236328
  0
LINE
  8
0
  6
CONTINUOUS
 62
     7
 10
189.2908477783203
 20
160.9447631835938
 11
189.7055053710938
 21
161.9458160400391
  0
LINE
  8
0
  6
CONTINUOUS
 62
     7
 10
183.0173645019531
 20
165.3618469238281
 11
182.2379302978516
 21
165.0389862060547
  0
LINE
  8
0
  6
CONTINUOUS
 62
     7
 10
183.4605560302734
 20
162.7103424072266
 11
184.3331298828125
 21
164.8169097900391
  0
LINE
  8
0
  6
CONTINUOUS
 62
     7
 10
187.1943359375
 20
161.1637573242188
 11
188.0669097900391
 21
163.2703247070313
  0
LINE
  8
0
  6
CONTINUOUS
 62
     7
 10
183.0173797607422
 20
165.3619079589844
 11
189.3826751708984
 21
162.7253112792969
  0
LINE
  8
0
  6
CONTINUOUS
 62
     7
 10
189.7055206298828
 20
161.9458160400391
 11
189.3826599121094
 21
162.7252807617188
  0
LINE
  8
0
  6
CONTINUOUS
 62
     7
 10
182.2148132324219
 20
161.7392425537109
 11
187.3885345458984
 21
159.59619140625
  0
LINE
  8
0
  6
CONTINUOUS
 62
     7
 10
186.3087921142578
 20
156.7844085693359
 11
190.6000061035156
 21
156.7844085693359
  0
LINE
  8
0
  6
CONTINUOUS
 62
     7
 10
182.0530548095703
 20
163.2933502197266
 11
188.6018371582031
 21
160.5807495117188
  0
LINE
  8
0
  6
CONTINUOUS
 62
     7
 10
15.33553314208984
 20
8.500002861022949
 11
11.79999923706055
 21
12.03553676605225
  0
LINE
  8
0
  6
CONTINUOUS
 62
     7
 10
11.80000305175781
 20
14.04446411132813
 11
11.80000305175781
 21
12.03553771972656
  0
LINE
  8
0
  6
CONTINUOUS
 62
     7
 10
16.5
 20
18.74447250366211
 11
11.7999963760376
 21
14.04446983337402
  0
LINE
  8
0
  6
CONTINUOUS
 62
     7
 10
-16.5
 20
23.24553680419922
 11
-16.5
 21
18.74447631835938
  0
LINE
  8
0
  6
CONTINUOUS
 62
     7
 10
-11.80000305175781
 20
14.04446411132813
 11
-11.80000305175781
 21
12.03553771972656
  0
LINE
  8
0
  6
CONTINUOUS
 62
     7
 10
-16.49999809265137
 20
23.24554061889648
 11
-11.245530128479
 21
28.50000762939453
  0
LINE
  8
0
  6
CONTINUOUS
 62
     7
 10
-15.33553409576416
 20
8.499994277954102
 11
-11.79999732971191
 21
12.03553104400635
  0
LINE
  8
0
  6
CONTINUOUS
 62
     7
 10
-16.49999809265137
 20
18.74446678161621
 11
-11.79999732971191
 21
14.04446697235107
  0
LINE
  8
0
  6
CONTINUOUS
 62
     7
 10
11.24552917480469
 20
28.50000762939453
 11
-11.24552917480469
 21
28.50000762939453
  0
LINE
  8
0
  6
CONTINUOUS
 62
     7
 10
16.5
 20
23.24553680419922
 11
16.5
 21
18.74447631835938
  0
LINE
  8
0
  6
CONTINUOUS
 62
     7
 10
16.4999942779541
 20
23.24554061889648
 11
11.24552726745606
 21
28.50000762939453
  0
LINE
  8
0
  6
CONTINUOUS
 62
     7
 10
-5
 20
40
 11
-5
 21
35
  0
LINE
  8
0
  6
CONTINUOUS
 62
     7
 10
5
 20
40
 11
5
 21
38.499755859375
  0
LINE
  8
0
  6
CONTINUOUS
 62
     7
 10
190.6000061035156
 20
39.999755859375
 11
190.6000061035156
 21
8.499755859375
  0
LINE
  8
0
  6
CONTINUOUS
 62
     7
 10
289.4002380371094
 20
8.499755859375
 11
289.4002380371094
 21
39.999755859375
  0
LINE
  8
0
  6
CONTINUOUS
 62
     7
 10
190.6000061035156
 20
195.999755859375
 11
190.6000061035156
 21
137.9998779296875
  0
LINE
  8
0
  6
CONTINUOUS
 62
     7
 10
289.4002380371094
 20
195.999755859375
 11
289.4002380371094
 21
137.9998779296875
  0
ARC
  8
0
  6
CONTINUOUS
 62
     7
 10
187.3999938964844
 20
34.999755859375
 40
3.982465744018556
 50
241.5040862782025
 51
269.9999087030627
  0
ARC
  8
0
  6
CONTINUOUS
 62
     7
 10
212
 20
12.999755859375
 40
5.999999999999999
 50
254.557342763284
 51
285.4426932088946
  0
ARC
  8
0
  6
CONTINUOUS
 62
     7
 10
213.384765625
 20
7.987548828125
 40
0.7999999523162812
 50
285.4426932088939
 51
0.8784649935446215
  0
ARC
  8
0
  6
CONTINUOUS
 62
     7
 10
210.61572265625
 20
7.987548828125
 40
0.7999999523162926
 50
179.121492417531
 51
254.5573254604404
  0
ARC
  8
0
  6
CONTINUOUS
 62
     7
 10
192.2998962402344
 20
38.58984375
 40
1.900939941406257
 50
181.8086700643979
 51
206.5886373543395
  0
ARC
  8
0
  6
CONTINUOUS
 62
     7
 10
193.7002868652344
 20
35.52978515625
 40
3.317878723144524
 50
159.1346786795378
 51
173.9458482720621
  0
ARC
  8
0
  6
CONTINUOUS
 62
     7
 10
193.7002868652344
 20
34.4697265625
 40
3.318496704101556
 50
186.054315652478
 51
200.8932977753026
  0
ARC
  8
0
  6
CONTINUOUS
 62
     7
 10
192.3003845214844
 20
31.409912109375
 40
1.896939277648921
 50
153.6870700616972
 51
178.1912206525752
  0
ARC
  8
0
  6
CONTINUOUS
 62
     7
 10
187.3999938964844
 20
34.999755859375
 40
3.999999999999998
 50
89.99998201391055
 51
118.4958044387709
  0
ARC
  8
0
  6
CONTINUOUS
 62
     7
 10
-13.869140625
 20
25.559814453125
 40
2.889999389648439
 50
276.8601507054235
 51
353.139891186328
  0
ARC
  8
0
  6
CONTINUOUS
 62
     7
 10
-13.869140625
 20
16.43994140625
 40
2.889999389648437
 50
6.746867692327753
 51
83.25312115177206
  0
ARC
  8
0
  6
CONTINUOUS
 62
     7
 10
13.86962890625
 20
25.559814453125
 40
2.889999389648437
 50
186.8601140499994
 51
263.1398852667552
  0
ARC
  8
0
  6
CONTINUOUS
 62
     7
 10
13.86962890625
 20
16.43994140625
 40
2.889999389648437
 50
96.74684287604927
 51
173.2531031656828
  0
ARC
  8
0
  6
CONTINUOUS
 62
     7
 10
-41
 20
27
 40
3.000000000000001
 50
179.9999640278213
 51
270.0000006832453
  0
ARC
  8
0
  6
CONTINUOUS
 62
     7
 10
40.9998779296875
 20
27
 40
2.999999999999999
 50
270.0000179860893
 51
0
  0
ARC
  8
0
  6
CONTINUOUS
 62
     7
 10
-44
 20
32
 40
0.9999999999999981
 50
179.9999640278211
 51
239.999952037095
  0
ARC
  8
0
  6
CONTINUOUS
 62
     7
 10
-34.33837890625
 20
21
 40
3.000000000000001
 50
9.999950190221457
 51
89.99970880634389
  0
ARC
  8
0
  6
CONTINUOUS
 62
     7
 10
34.3387451171875
 20
21
 40
3.000000000000001
 50
90.00020057996414
 51
170.000020667789
  0
ARC
  8
0
  6
CONTINUOUS
 62
     7
 10
-45
 20
30.267822265625
 40
0.9999999999999968
 50
359.9999949509801
 51
59.99998800927364
  0
ARC
  8
0
  6
CONTINUOUS
 62
     7
 10
43.9998779296875
 20
32
 40
1.000000000000002
 50
300.0000119907264
 51
0
  0
ARC
  8
0
  6
CONTINUOUS
 62
     7
 10
44.9998779296875
 20
30.267822265625
 40
1
 50
119.9999760185477
 51
180.0000186693347
  0
ARC
  8
0
  6
CONTINUOUS
 62
     7
 10
26.4827880859375
 20
11
 40
3
 50
269.999963344576
 51
349.9999951682652
  0
ARC
  8
0
  6
CONTINUOUS
 62
     7
 10
-26.482421875
 20
11
 40
2.999999999999999
 50
190.0000339737243
 51
270.000127269116
  0
ARC
  8
0
  6
CONTINUOUS
 62
     7
 10
7.6103515625
 20
32.7099609375
 40
0.9683421850204466
 50
215.3314570768741
 51
278.2972225067941
  0
ARC
  8
0
  6
CONTINUOUS
 62
     7
 10
6.6201171875
 20
30.919921875
 40
1.246148109436035
 50
80.76452806729958
 51
142.1250351177266
  0
ARC
  8
0
  6
CONTINUOUS
 62
     7
 10
6.6201171875
 20
39.079833984375
 40
1.254199028015138
 50
217.8749648822736
 51
279.2353626496737
  0
ARC
  8
0
  6
CONTINUOUS
 62
     7
 10
7.6103515625
 20
37.289794921875
 40
0.9701610803604147
 50
81.70288677623263
 51
144.6685429231259
  0
ARC
  8
0
  6
CONTINUOUS
 62
     7
 10
0
 20
34.999755859375
 40
4
 50
240.0000239814524
 51
241.0449882829511
  0
ARC
  8
0
  6
CONTINUOUS
 62
     7
 10
0
 20
34.999755859375
 40
3.998106002807619
 50
61.09402038976974
 51
298.9059076658729
  0
ARC
  8
0
  6
CONTINUOUS
 62
     7
 10
-19
 20
13
 40
6.000000000000001
 50
254.557342763284
 51
285.4426932088946
  0
ARC
  8
0
  6
CONTINUOUS
 62
     7
 10
-17.615234375
 20
7.987548828125
 40
0.7999999523162841
 50
285.4426932088946
 51
355.0000044143218
  0
ARC
  8
0
  6
CONTINUOUS
 62
     7
 10
-20.38427734375
 20
7.987548828125
 40
0.7999999523162842
 50
185.0000076521948
 51
254.5573427632839
  0
CIRCLE
  8
0
  6
CONTINUOUS
 62
     7
 10
214
 20
130.9998779296875
 40
4.25
  0
CIRCLE
  8
0
  6
CONTINUOUS
 62
     7
 10
214
 20
130.9998779296875
 40
5
  0
CIRCLE
  8
0
  6
CONTINUOUS
 62
     7
 10
120
 20
166.999755859375
 40
4.5
  0
CIRCLE
  8
0
  6
CONTINUOUS
 62
     7
 10
120
 20
166.999755859375
 40
7
  0
ARC
  8
0
  6
CONTINUOUS
 62
     7
 10
184.1333465576172
 20
159.0542297363281
 40
3.299999237060546
 50
131.5803705110077
 51
157.4999548639651
  0
ARC
  8
0
  6
CONTINUOUS
 62
     7
 10
184.1333465576172
 20
159.0542297363281
 40
3.299999237060545
 50
337.5000181569009
 51
3.419602296415186
  0
ARC
  8
0
  6
CONTINUOUS
 62
     7
 10
176.2169952392578
 20
161.9003295898438
 40
6.00000000000001
 50
2.43365082934552
 51
20.87173987704925
  0
ARC
  8
0
  6
CONTINUOUS
 62
     7
 10
191.7435302734375
 20
155.4690246582031
 40
6.000000000000011
 50
114.1278165022775
 51
132.5663219780772
  0
ARC
  8
0
  6
CONTINUOUS
 62
     7
 10
181.4122924804688
 20
162.1211242675781
 40
0.7999999523162822
 50
311.5798327472963
 51
2.433049772698627
  0
ARC
  8
0
  6
CONTINUOUS
 62
     7
 10
188.2260284423828
 20
159.2987823486328
 40
0.7999999523162747
 50
132.5669776762372
 51
183.4201402735692
  0
ARC
  8
0
  6
CONTINUOUS
 62
     7
 10
187.10009765625
 20
166.999755859375
 40
3.999999999999998
 50
89.99998201391055
 51
180.0000186693345
  0
CIRCLE
  8
0
  6
CONTINUOUS
 62
     7
 10
-14
 20
34
 40
3.25
  0
ARC
  8
0
  6
CONTINUOUS
 62
     7
 10
14
 20
34
 40
3.250000000000001
 50
201.525541066014
 51
143.1610245506557
  0
CIRCLE
  8
0
  6
CONTINUOUS
 62
     7
 10
-20
 20
34
 40
2.25
  0
CIRCLE
  8
0
  6
CONTINUOUS
 62
     7
 10
20
 20
34
 40
2.25
  0
ARC
  8
0
  6
CONTINUOUS
 62
     7
 10
0
 20
35
 40
5
 50
179.999991348578
 51
315.5690830518461
  0
POLYLINE
  8
0
  6
CONTINUOUS
 62
     7
 66
     1
 10
0
 20
0
  0
VERTEX
  8
0
  6
CONTINUOUS
 62
     7
 10
181.9762169041035
 20
32.81864073998824
 42
0.06283216350303082
  0
VERTEX
  8
0
  6
CONTINUOUS
 62
     7
 10
182.540515743553
 20
32.29246883217311
 42
0.06649712368639636
  0
VERTEX
  8
0
  6
CONTINUOUS
 62
     7
 10
183.2205162753434
 20
31.92796477402922
 42
0.06915554882363358
  0
VERTEX
  8
0
  6
CONTINUOUS
 62
     7
 10
183.9728709822112
 20
31.75910697919825
 42
0.06975243727146259
  0
VERTEX
  8
0
  6
CONTINUOUS
 62
     7
 10
184.741625786121
 20
31.80310470824922
 42
0.06816367987917105
  0
VERTEX
  8
0
  6
CONTINUOUS
 62
     7
 10
185.4694690958896
 20
32.05492625958843
 42
0.06499589504563687
  0
VERTEX
  8
0
  6
CONTINUOUS
 62
     7
 10
186.1060345251614
 20
32.48975786473494
 42
0.0612907681778497
  0
VERTEX
  8
0
  6
CONTINUOUS
 62
     7
 10
186.6140918465001
 20
33.06985885889954
 42
0.05807941666048633
  0
VERTEX
  8
0
  6
CONTINUOUS
 62
     7
 10
186.9710892349068
 20
33.7538525471025
 42
0.05590519834451431
  0
VERTEX
  8
0
  6
CONTINUOUS
 62
     7
 10
187.1647488136867
 20
34.50099615474562
 42
0.05496451450259397
  0
VERTEX
  8
0
  6
CONTINUOUS
 62
     7
 10
187.1897643741199
 20
35.27171848089386
 42
0.05547380488108681
  0
VERTEX
  8
0
  6
CONTINUOUS
 62
     7
 10
187.0456850634619
 20
36.02960758339528
 42
0.05728029168171261
  0
VERTEX
  8
0
  6
CONTINUOUS
 62
     7
 10
186.7362754437254
 20
36.73604913976057
 42
0.06026812643050024
  0
VERTEX
  8
0
  6
CONTINUOUS
 62
     7
 10
186.2710368507904
 20
37.35135832597527
 42
0.06395226429952129
  0
VERTEX
  8
0
  6
CONTINUOUS
 62
     7
 10
185.6688310326207
 20
37.833737465287
 42
0.06744483676379014
  0
VERTEX
  8
0
  6
CONTINUOUS
 62
     7
 10
184.9621743238559
 20
38.14320047085776
 42
0.06944160058113802
  0
VERTEX
  8
0
  6
CONTINUOUS
 62
     7
 10
184.2002868652344
 20
38.249755859375
 42
0
  0
SEQEND
  8
0
  0
POLYLINE
  8
0
  6
CONTINUOUS
 62
     7
 66
     1
 10
0
 20
0
 70
     1
  0
VERTEX
  8
0
  6
CONTINUOUS
 62
     7
 10
10.52001953125
 20
37.499755859375
 42
0.2551554762438217
  0
VERTEX
  8
0
  6
CONTINUOUS
 62
     7
 10
9.990206009134761
 20
37.07486847843401
 42
0.06319180796813131
  0
VERTEX
  8
0
  6
CONTINUOUS
 62
     7
 10
9.736105006708913
 20
36.41198245764517
 42
0.03518717185968149
  0
VERTEX
  8
0
  6
CONTINUOUS
 62
     7
 10
9.609371143130101
 20
35.71193189593705
 42
0.02798629271311547
  0
VERTEX
  8
0
  6
CONTINUOUS
 62
     7
 10
9.57000732421875
 20
34.999755859375
 42
0.02790033163594726
  0
VERTEX
  8
0
  6
CONTINUOUS
 62
     7
 10
9.609142413597807
 20
34.28960685201113
 42
0.03516087829562964
  0
VERTEX
  8
0
  6
CONTINUOUS
 62
     7
 10
9.735640131211708
 20
33.58931547658294
 42
0.06315614608531162
  0
VERTEX
  8
0
  6
CONTINUOUS
 62
     7
 10
9.989677567277459
 20
32.92557569256874
 42
0.2552829221514735
  0
VERTEX
  8
0
  6
CONTINUOUS
 62
     7
 10
10.52001953125
 20
32.499755859375
 42
0.2551578350953497
  0
VERTEX
  8
0
  6
CONTINUOUS
 62
     7
 10
11.04983411833881
 20
32.92464103344489
 42
0.06319203025242098
  0
VERTEX
  8
0
  6
CONTINUOUS
 62
     7
 10
11.30393491672499
 20
33.58752711308824
 42
0.03518717678833777
  0
VERTEX
  8
0
  6
CONTINUOUS
 62
     7
 10
11.43066831846424
 20
34.28757775631694
 42
0.02798632226806054
  0
VERTEX
  8
0
  6
CONTINUOUS
 62
     7
 10
11.47003173828125
 20
34.999755859375
 42
0.02790047984932673
  0
VERTEX
  8
0
  6
CONTINUOUS
 62
     7
 10
11.43089698591074
 20
35.70990488298521
 42
0.03516106040170879
  0
VERTEX
  8
0
  6
CONTINUOUS
 62
     7
 10
11.30439914350767
 20
36.41019622840341
 42
0.06315637351381666
  0
VERTEX
  8
0
  6
CONTINUOUS
 62
     7
 10
11.05036104815231
 20
37.07393573913803
 42
0.2552808125226034
  0
SEQEND
  8
0
  0
POLYLINE
  8
0
  6
CONTINUOUS
 62
     7
 66
     1
 10
0
 20
0
  0
VERTEX
  8
0
  6
CONTINUOUS
 62
     7
 10
184.2002868652344
 20
38.249755859375
 42
0.01434917184668495
  0
VERTEX
  8
0
  6
CONTINUOUS
 62
     7
 10
184.0414058605725
 20
38.24519467979242
 42
0.01426051769491396
  0
VERTEX
  8
0
  6
CONTINUOUS
 62
     7
 10
183.8837948461548
 20
38.23161917920771
 42
0.0141756378450189
  0
VERTEX
  8
0
  6
CONTINUOUS
 62
     7
 10
183.7276958200782
 20
38.20917638910317
 42
0.01415083188693543
  0
VERTEX
  8
0
  6
CONTINUOUS
 62
     7
 10
183.5727336926998
 20
38.17785302740604
 42
0.01410154647543313
  0
VERTEX
  8
0
  6
CONTINUOUS
 62
     7
 10
183.4194717316776
 20
38.13774537506493
 42
0.01402954589369014
  0
VERTEX
  8
0
  6
CONTINUOUS
 62
     7
 10
183.2684549211399
 20
38.08900125219073
 42
0.01393696926055972
  0
VERTEX
  8
0
  6
CONTINUOUS
 62
     7
 10
183.120204482094
 20
38.03181580492745
 42
0.01382625342189486
  0
VERTEX
  8
0
  6
CONTINUOUS
 62
     7
 10
182.9752132526866
 20
37.96642651535463
 42
0.01370004825875908
  0
VERTEX
  8
0
  6
CONTINUOUS
 62
     7
 10
182.8339420456433
 20
37.89310765194564
 42
0.01356113008532274
  0
VERTEX
  8
0
  6
CONTINUOUS
 62
     7
 10
182.6968170468417
 20
37.81216439478693
 42
0.01332237682866891
  0
VERTEX
  8
0
  6
CONTINUOUS
 62
     7
 10
182.5651069483341
 20
37.72454596189099
 42
0.01328780966557004
  0
VERTEX
  8
0
  6
CONTINUOUS
 62
     7
 10
182.4370859618846
 20
37.62918275170902
 42
0.0131548763881595
  0
VERTEX
  8
0
  6
CONTINUOUS
 62
     7
 10
182.3140335907527
 20
37.526977319855
 42
0.01293834043130668
  0
VERTEX
  8
0
  6
CONTINUOUS
 62
     7
 10
182.196989247701
 20
37.41896290121624
 42
0.0127803527832328
  0
VERTEX
  8
0
  6
CONTINUOUS
 62
     7
 10
182.0856527693226
 20
37.3050738297924
 42
0.01262534591954303
  0
VERTEX
  8
0
  6
CONTINUOUS
 62
     7
 10
181.9802432779814
 20
37.18567667461882
 42
0
  0
SEQEND
  8
0
  0
POLYLINE
  8
0
  6
CONTINUOUS
 62
     7
 66
     1
 10
0
 20
0
  0
VERTEX
  8
0
  6
CONTINUOUS
 62
     7
 10
6.8203125
 20
37.84974670410156
 42
0.1885754046345939
  0
VERTEX
  8
0
  6
CONTINUOUS
 62
     7
 10
6.460584125474639
 20
37.69005725136918
 42
0.07574484704559528
  0
VERTEX
  8
0
  6
CONTINUOUS
 62
     7
 10
6.216352638959066
 20
37.37222047301793
 42
0.03933577191758048
  0
VERTEX
  8
0
  6
CONTINUOUS
 62
     7
 10
6.046494008041988
 20
37.00688721543917
 42
0.02577098815909317
  0
VERTEX
  8
0
  6
CONTINUOUS
 62
     7
 10
5.924342211268118
 20
36.62273736355429
 42
0.01950490589526488
  0
VERTEX
  8
0
  6
CONTINUOUS
 62
     7
 10
5.836853661891482
 20
36.22852670864047
 42
0.01621426289610866
  0
VERTEX
  8
0
  6
CONTINUOUS
 62
     7
 10
5.777495135863223
 20
35.82893706782394
 42
0.0144661465689052
  0
VERTEX
  8
0
  6
CONTINUOUS
 62
     7
 10
5.742628466075759
 20
35.42641386294118
 42
0.0136908174638847
  0
VERTEX
  8
0
  6
CONTINUOUS
 62
     7
 10
5.730380623148967
 20
35.0222712561906
 42
0.01360348655264262
  0
VERTEX
  8
0
  6
CONTINUOUS
 62
     7
 10
5.740096304712899
 20
34.61942759780985
 42
0.01431405740125332
  0
VERTEX
  8
0
  6
CONTINUOUS
 62
     7
 10
5.772243364128138
 20
34.21717754815534
 42
0.01598078067188615
  0
VERTEX
  8
0
  6
CONTINUOUS
 62
     7
 10
5.828749846459257
 20
33.81636044796031
 42
0.01902579425549634
  0
VERTEX
  8
0
  6
CONTINUOUS
 62
     7
 10
5.912805418945523
 20
33.42120737658151
 42
0.02487896475955752
  0
VERTEX
  8
0
  6
CONTINUOUS
 62
     7
 10
6.030813666473904
 20
33.03481068690211
 42
0.0372957099264757
  0
VERTEX
  8
0
  6
CONTINUOUS
 62
     7
 10
6.194880410109191
 20
32.66562530838199
 42
0.06998393217353374
  0
VERTEX
  8
0
  6
CONTINUOUS
 62
     7
 10
6.430458490508597
 20
32.33829138743393
 42
0.1738270911093547
  0
VERTEX
  8
0
  6
CONTINUOUS
 62
     7
 10
6.780222945665374
 20
32.1516926163579
 42
0
  0
SEQEND
  8
0
  0
POLYLINE
  8
0
  6
CONTINUOUS
 62
     7
 66
     1
 10
0
 20
0
 70
     1
  0
VERTEX
  8
0
  6
CONTINUOUS
 62
     7
 10
183.1001586914063
 20
37.499755859375
 42
0.1103774522028133
  0
VERTEX
  8
0
  6
CONTINUOUS
 62
     7
 10
182.1880016142391
 20
37.29473876757547
 42
0.1025060084538837
  0
VERTEX
  8
0
  6
CONTINUOUS
 62
     7
 10
181.4406671135273
 20
36.73073132305011
 42
0.09329005926245412
  0
VERTEX
  8
0
  6
CONTINUOUS
 62
     7
 10
180.9630613191283
 20
35.92383952853101
 42
0.08782113043247358
  0
VERTEX
  8
0
  6
CONTINUOUS
 62
     7
 10
180.8001708984375
 20
34.99974060058594
 42
0.08777239875610111
  0
VERTEX
  8
0
  6
CONTINUOUS
 62
     7
 10
180.9628967136656
 20
34.07612227705135
 42
0.09326081159812102
  0
VERTEX
  8
0
  6
CONTINUOUS
 62
     7
 10
181.4401933523909
 20
33.26931594587807
 42
0.1026312542819782
  0
VERTEX
  8
0
  6
CONTINUOUS
 62
     7
 10
182.1883999554192
 20
32.70458459840605
 42
0.1103321203833904
  0
VERTEX
  8
0
  6
CONTINUOUS
 62
     7
 10
183.1001892089844
 20
32.499755859375
 42
0.1103785363109441
  0
VERTEX
  8
0
  6
CONTINUOUS
 62
     7
 10
184.0123463047918
 20
32.70477201445597
 42
0.102506192805101
  0
VERTEX
  8
0
  6
CONTINUOUS
 62
     7
 10
184.759679888868
 20
33.26878061929353
 42
0.0932895505995217
  0
VERTEX
  8
0
  6
CONTINUOUS
 62
     7
 10
185.2372850563409
 20
34.07567284157116
 42
0.08782043122531839
  0
VERTEX
  8
0
  6
CONTINUOUS
 62
     7
 10
185.4001770019531
 20
34.99977111816406
 42
0.08777236859928631
  0
VERTEX
  8
0
  6
CONTINUOUS
 62
     7
 10
185.2374482934276
 20
35.92338893085459
 42
0.09326035863120634
  0
VERTEX
  8
0
  6
CONTINUOUS
 62
     7
 10
184.7601498894987
 20
36.73019427372009
 42
0.1026306547810023
  0
VERTEX
  8
0
  6
CONTINUOUS
 62
     7
 10
184.0119432168089
 20
37.29492573620716
 42
0.1103315608438913
  0
SEQEND
  8
0
  0
TEXT
  8
0
  6
CONTINUOUS
 62
     7
 10
-11.28550004959106
 20
-31.79999995231628
 40
3.599999904632568
 41
0.8455426207593617
  1
ＨＳＲ３０Ｍ１Ａ
  0
ENDSEC
  0
EOF
