  0
SECTION
  2
HEADER
  0
ENDSEC
  0
SECTION
  2
TABLES
  0
TABLE
  2
LTYPE
 70
    22
  0
LTYPE
  2
CONTINUOUS
 70
    64
  3
Solid line
 72
    65
 73
     0
 40
0.000000
  0
LTYPE
  2
DASHED
 70
    64
  3
__ __ __ __ __ __ __ __ __ __ __ __ __ __ __
 72
    65
 73
     2
 40
3.500000
 49
2.000000
 49
-1.500000
  0
LTYPE
  2
CENTER
 70
    64
  3
____ _ ____ _ ____ _ ____ _ ____ _ ____ _ ____
 72
    65
 73
     4
 40
17.500000
 49
13.000000
 49
-1.500000
 49
1.500000
 49
-1.500000
  0
LTYPE
  2
PHANTOM
 70
    64
  3
_____ _ _ _____ _ _ _____ _ _ _____ _ _ ____  
 72
    65
 73
     6
 40
15.500000
 49
8.000000
 49
-1.500000
 49
1.500000
 49
-1.500000
 49
1.500000
 49
-1.500000
  0
LTYPE
  2
DOT
 70
    64
  3
. . . . . . . . . . . . . . . . . . . . . . . .
 72
    65
 73
     2
 40
0.25
 49
0.0
 49
-0.25
  0
ENDTAB
  0
TABLE
  2
LAYER
 70
     1
  0
LAYER
  2
0
 70
     0
 62
     7
  6
CONTINUOUS
  0
ENDTAB
  0
TABLE
  2
STYLE
 70
     1
  0
STYLE
  2
STANDARD
 70
     0
 40
0.000000
 41
1.000000
 50
0.000000
 71
     0
 42
0.200000
  3
txt
  4
BIGFONT
  0
ENDTAB
  0
TABLE
  2
VIEW
 70
     0
  0
ENDTAB
  0
ENDSEC
  0
SECTION
  2
BLOCKS
  0
ENDSEC
  0
SECTION
  2
ENTITIES
  0
LINE
  8
0
  6
CENTER
 62
     7
 10
267.9997253417969
 20
6.431884765625
 11
267.9997253417969
 21
9.13232421875
  0
LINE
  8
0
  6
CONTINUOUS
 62
     7
 10
12.5
 20
0
 11
7.75
 21
0
  0
LINE
  8
0
  6
CONTINUOUS
 62
     7
 10
195.4998321533203
 20
40.99964141845703
 11
194.4999389648438
 21
39.99974822998047
  0
LINE
  8
0
  6
CONTINUOUS
 62
     7
 10
194.4997253417969
 20
7.999755859375
 11
204.7997741699219
 21
7.999755859375
  0
LINE
  8
0
  6
CONTINUOUS
 62
     7
 10
195.4997253417969
 20
40.999755859375
 11
204.7997741699219
 21
40.999755859375
  0
LINE
  8
0
  6
CONTINUOUS
 62
     7
 10
191
 20
26.69967842102051
 11
192.9997863769531
 21
28.69946479797363
  0
LINE
  8
0
  6
CONTINUOUS
 62
     7
 10
190.9997253417969
 20
8.499755859375
 11
194.4997253417969
 21
8.499755859375
  0
LINE
  8
0
  6
CONTINUOUS
 62
     7
 10
192.9997253417969
 20
39.999755859375
 11
194.4997253417969
 21
39.999755859375
  0
LINE
  8
0
  6
CONTINUOUS
 62
     7
 10
192.9997253417969
 20
39.999755859375
 11
192.9997253417969
 21
8.499755859375
  0
LINE
  8
0
  6
CONTINUOUS
 62
     7
 10
190.9997253417969
 20
26.69970703125
 11
190.9997253417969
 21
8.499755859375
  0
LINE
  8
0
  6
CONTINUOUS
 62
     7
 10
194.4997253417969
 20
39.999755859375
 11
194.4997253417969
 21
7.999755859375
  0
LINE
  8
0
  6
CONTINUOUS
 62
     7
 10
187.9997253417969
 20
30.99951171875
 11
190.9997253417969
 21
30.99951171875
  0
LINE
  8
0
  6
CONTINUOUS
 62
     7
 10
190.599853515625
 20
34.99977111816406
 11
189.0999603271484
 21
38.4995231628418
  0
LINE
  8
0
  6
CONTINUOUS
 62
     7
 10
189.7000885009766
 20
34.99976348876953
 11
188.0999755859375
 21
38.49999237060547
  0
LINE
  8
0
  6
CONTINUOUS
 62
     7
 10
189.0998229980469
 20
38.49951171875
 11
183.8996276855469
 21
38.49951171875
  0
LINE
  8
0
  6
CONTINUOUS
 62
     7
 10
183.8997802734375
 20
38.49961853027344
 11
183.499755859375
 21
37.91958999633789
  0
LINE
  8
0
  6
CONTINUOUS
 62
     7
 10
183.9000549316406
 20
31.4997444152832
 11
183.5000305175781
 21
32.07977676391602
  0
LINE
  8
0
  6
CONTINUOUS
 62
     7
 10
189.6999053955078
 20
34.99978637695313
 11
188.0998992919922
 21
31.49977874755859
  0
LINE
  8
0
  6
CONTINUOUS
 62
     7
 10
190.5999450683594
 20
34.99972534179688
 11
189.0999603271484
 21
31.49974822998047
  0
LINE
  8
0
  6
CONTINUOUS
 62
     7
 10
189.0998229980469
 20
31.45947265625
 11
189.0998229980469
 21
31.49951171875
  0
LINE
  8
0
  6
CONTINUOUS
 62
     7
 10
189.0998229980469
 20
31.49951171875
 11
183.8996276855469
 21
31.49951171875
  0
LINE
  8
0
  6
CONTINUOUS
 62
     7
 10
190.9998779296875
 20
39.1197509765625
 11
191.4998168945313
 21
39.61969757080078
  0
LINE
  8
0
  6
CONTINUOUS
 62
     7
 10
191.4998321533203
 20
30.37967491149902
 11
190.9998779296875
 21
30.87962150573731
  0
LINE
  8
0
  6
CONTINUOUS
 62
     7
 10
192.0497741699219
 20
32.689453125
 11
191.4997253417969
 21
32.689453125
  0
LINE
  8
0
  6
CONTINUOUS
 62
     7
 10
192.9997253417969
 20
30.379638671875
 11
191.4997253417969
 21
30.379638671875
  0
LINE
  8
0
  6
CONTINUOUS
 62
     7
 10
192.9997253417969
 20
37.3095703125
 11
191.4997253417969
 21
37.3095703125
  0
LINE
  8
0
  6
CONTINUOUS
 62
     7
 10
192.9997253417969
 20
39.619384765625
 11
191.4997253417969
 21
39.619384765625
  0
LINE
  8
0
  6
CONTINUOUS
 62
     7
 10
187.9997253417969
 20
38.99951171875
 11
190.9997253417969
 21
38.99951171875
  0
LINE
  8
0
  6
CONTINUOUS
 62
     7
 10
190.9997253417969
 20
30.879638671875
 11
190.9997253417969
 21
39.119384765625
  0
LINE
  8
0
  6
CENTER
 62
     7
 10
179.8000183105469
 20
34.99951171875
 11
195.7282409667969
 21
34.99951171875
  0
LINE
  8
0
  6
CONTINUOUS
 62
     7
 10
285.4998168945313
 20
39.99980163574219
 11
284.4999084472656
 21
40.99969482421875
  0
LINE
  8
0
  6
CONTINUOUS
 62
     7
 10
275.1999206542969
 20
7.999755859375
 11
285.4999694824219
 21
7.999755859375
  0
LINE
  8
0
  6
CONTINUOUS
 62
     7
 10
275.1999206542969
 20
40.999755859375
 11
284.4999694824219
 21
40.999755859375
  0
LINE
  8
0
  6
CONTINUOUS
 62
     7
 10
287
 20
28.6995735168457
 11
288.9997863769531
 21
26.69978713989258
  0
LINE
  8
0
  6
CONTINUOUS
 62
     7
 10
285.4999694824219
 20
8.499755859375
 11
288.9999694824219
 21
8.499755859375
  0
LINE
  8
0
  6
CONTINUOUS
 62
     7
 10
285.4999694824219
 20
39.999755859375
 11
286.9999694824219
 21
39.999755859375
  0
LINE
  8
0
  6
CONTINUOUS
 62
     7
 10
286.9999694824219
 20
8.499755859375
 11
286.9999694824219
 21
39.999755859375
  0
LINE
  8
0
  6
CONTINUOUS
 62
     7
 10
288.9999694824219
 20
8.499755859375
 11
288.9999694824219
 21
26.69970703125
  0
LINE
  8
0
  6
CONTINUOUS
 62
     7
 10
285.4999694824219
 20
7.999755859375
 11
285.4999694824219
 21
39.999755859375
  0
LINE
  8
0
  6
CONTINUOUS
 62
     7
 10
275.1996765136719
 20
43.349609375
 11
275.1996765136719
 21
7.99951171875
  0
LINE
  8
0
  6
CONTINUOUS
 62
     7
 10
204.7997741699219
 20
43.349609375
 11
204.7997741699219
 21
7.99951171875
  0
LINE
  8
0
  6
CONTINUOUS
 62
     7
 10
99.99984741210938
 20
25.999755859375
 11
190.9997253417969
 21
25.999755859375
  0
LINE
  8
0
  6
CONTINUOUS
 62
     7
 10
99.99984741210938
 20
0
 11
379.9998474121094
 21
0
  0
LINE
  8
0
  6
CONTINUOUS
 62
     7
 10
288.9999694824219
 20
25.999755859375
 11
379.9998474121094
 21
25.999755859375
  0
LINE
  8
0
  6
CONTINUOUS
 62
     7
 10
273.5495300292969
 20
44.99951171875
 11
206.4504089355469
 21
44.99951171875
  0
LINE
  8
0
  6
CONTINUOUS
 62
     7
 10
275.1996765136719
 20
7.99951171875
 11
204.7997741699219
 21
7.99951171875
  0
LINE
  8
0
  6
CONTINUOUS
 62
     7
 10
273.550048828125
 20
44.99904632568359
 11
275.1999206542969
 21
43.34918594360352
  0
LINE
  8
0
  6
CONTINUOUS
 62
     7
 10
275.1996765136719
 20
35.99951171875
 11
204.7997741699219
 21
35.99951171875
  0
LINE
  8
0
  6
CONTINUOUS
 62
     7
 10
206.4500885009766
 20
44.99910736083984
 11
204.8002471923828
 21
43.3492431640625
  0
LINE
  8
0
  6
CENTER
 62
     7
 10
211.9999694824219
 20
6.431884765625
 11
211.9999694824219
 21
9.13232421875
  0
LINE
  8
0
  6
CONTINUOUS
 62
     7
 10
287.9498901367188
 20
32.49951171875
 11
287.9498901367188
 21
35.49951171875
  0
LINE
  8
0
  6
CONTINUOUS
 62
     7
 10
192.0498046875
 20
35.49949645996094
 11
192.0498046875
 21
32.49974060058594
  0
LINE
  8
0
  6
CENTER
 62
     7
 10
196.618408203125
 20
33.99949645996094
 11
191.681396484375
 21
33.99949645996094
  0
LINE
  8
0
  6
CONTINUOUS
 62
     7
 10
-10.21484375
 20
26
 11
10.215087890625
 21
26
  0
LINE
  8
0
  6
CONTINUOUS
 62
     7
 10
14
 20
22.21484375
 11
14
 21
19.77978515625
  0
LINE
  8
0
  6
CONTINUOUS
 62
     7
 10
-14
 20
22.21484375
 11
-14
 21
19.77978515625
  0
LINE
  8
0
  6
CONTINUOUS
 62
     7
 10
9.300048828125
 20
15.079833984375
 11
9.300048828125
 21
10.999755859375
  0
LINE
  8
0
  6
CONTINUOUS
 62
     7
 10
-9.2998046875
 20
15.079833984375
 11
-9.2998046875
 21
10.999755859375
  0
LINE
  8
0
  6
CONTINUOUS
 62
     7
 10
10.21505546569824
 20
25.99979782104492
 11
11.00019264221191
 21
25.21466255187988
  0
LINE
  8
0
  6
CONTINUOUS
 62
     7
 10
-13.99989891052246
 20
19.77981567382813
 11
-13.52981758117676
 21
19.30973434448242
  0
LINE
  8
0
  6
CONTINUOUS
 62
     7
 10
9.299947738647461
 20
10.99986934661865
 11
14.00006675720215
 21
6.299750328063965
  0
LINE
  8
0
  6
CONTINUOUS
 62
     7
 10
9.299881935119629
 20
15.07982444763184
 11
10.9994592666626
 21
16.77940177917481
  0
LINE
  8
0
  6
CONTINUOUS
 62
     7
 10
-13.99987697601318
 20
6.2998366355896
 11
-9.299930572509766
 21
10.99978351593018
  0
LINE
  8
0
  6
CONTINUOUS
 62
     7
 10
-14.00009250640869
 20
22.21478843688965
 11
-13.52431488037109
 21
22.69056701660156
  0
LINE
  8
0
  6
CONTINUOUS
 62
     7
 10
-14
 20
6.2998046875
 11
-14
 21
1.5
  0
LINE
  8
0
  6
CONTINUOUS
 62
     7
 10
14
 20
6.2998046875
 11
14
 21
1.5
  0
LINE
  8
0
  6
CONTINUOUS
 62
     7
 10
-14.00010299682617
 20
1.499841570854187
 11
-12.50009059906006
 21
-0.0001709054631646723
  0
LINE
  8
0
  6
CONTINUOUS
 62
     7
 10
14.00003433227539
 20
1.499771475791931
 11
12.50002193450928
 21
-0.0002410378219792619
  0
LINE
  8
0
  6
CONTINUOUS
 62
     7
 10
-10.99935531616211
 20
16.77927207946777
 11
-9.299951553344727
 21
15.07986831665039
  0
LINE
  8
0
  6
CONTINUOUS
 62
     7
 10
-11.00024032592773
 20
25.21464157104492
 11
-10.21493053436279
 21
25.99995040893555
  0
LINE
  8
0
  6
CONTINUOUS
 62
     7
 10
13.52426719665527
 20
22.69058799743652
 11
14.00004482269287
 21
22.21480941772461
  0
LINE
  8
0
  6
CONTINUOUS
 62
     7
 10
13.52992057800293
 20
19.30986213684082
 11
14.00000190734863
 21
19.77994346618652
  0
LINE
  8
0
  6
CONTINUOUS
 62
     7
 10
-7.25
 20
0.5
 11
-3.75
 21
0.5
  0
LINE
  8
0
  6
CONTINUOUS
 62
     7
 10
3.75
 20
0.5
 11
7.25
 21
0.5
  0
LINE
  8
0
  6
CONTINUOUS
 62
     7
 10
-7.749755859375
 20
0
 11
-12.50026226043701
 21
0
  0
LINE
  8
0
  6
CONTINUOUS
 62
     7
 10
-3.249755859375
 20
0
 11
3.25
 21
0
  0
LINE
  8
0
  6
CONTINUOUS
 62
     7
 10
-7.74985408782959
 20
-0.0002501836861483753
 11
-7.249907493591309
 21
0.4996964037418366
  0
LINE
  8
0
  6
CONTINUOUS
 62
     7
 10
3.250007152557373
 20
-0.0002503522846382111
 11
3.750126361846924
 21
0.4998688697814941
  0
LINE
  8
0
  6
CONTINUOUS
 62
     7
 10
7.250075817108154
 20
0.4999337792396545
 11
7.750195026397705
 21
-0.0001854461297625676
  0
LINE
  8
0
  6
CONTINUOUS
 62
     7
 10
-3.750022172927856
 20
0.4997825622558594
 11
-3.250075578689575
 21
-0.0001640355330891907
  0
LINE
  8
0
  6
CONTINUOUS
 62
     7
 10
-28.199951171875
 20
8
 11
-22
 21
8
  0
LINE
  8
0
  6
CONTINUOUS
 62
     7
 10
22
 20
8
 11
28.2001953125
 21
8
  0
LINE
  8
0
  6
CENTER
 62
     7
 10
-5
 20
35
 11
13.353759765625
 21
35
  0
LINE
  8
0
  6
CONTINUOUS
 62
     7
 10
1.780029296875
 20
38.499755859375
 11
5.860107421875
 21
38.499755859375
  0
LINE
  8
0
  6
CONTINUOUS
 62
     7
 10
1.780029296875
 20
31.499755859375
 11
5.860107421875
 21
31.499755859375
  0
LINE
  8
0
  6
CONTINUOUS
 62
     7
 10
1.129891514778137
 20
34.99967956542969
 11
1.779880046844482
 21
31.49970626831055
  0
LINE
  8
0
  6
CONTINUOUS
 62
     7
 10
1.130052328109741
 20
34.99972152709961
 11
1.780040621757507
 21
38.49969100952148
  0
LINE
  8
0
  6
CONTINUOUS
 62
     7
 10
3.440003156661987
 20
34.99969482421875
 11
4.090000152587891
 21
31.49975967407227
  0
LINE
  8
0
  6
CONTINUOUS
 62
     7
 10
3.440180540084839
 20
34.99980163574219
 11
4.090183258056641
 21
38.49977111816406
  0
LINE
  8
0
  6
CONTINUOUS
 62
     7
 10
5.950094699859619
 20
31.96969413757324
 11
5.860087871551514
 21
31.49971961975098
  0
LINE
  8
0
  6
CONTINUOUS
 62
     7
 10
5.949986934661865
 20
38.01979064941406
 11
5.85999345779419
 21
38.49970626831055
  0
LINE
  8
0
  6
CONTINUOUS
 62
     7
 10
7.766048431396484
 20
31.75416564941406
 11
10.52009582519531
 21
32.49984359741211
  0
LINE
  8
0
  6
CONTINUOUS
 62
     7
 10
7.749915599822998
 20
38.24987030029297
 11
10.52004528045654
 21
37.49983596801758
  0
LINE
  8
0
  6
CONTINUOUS
 62
     7
 10
0.0004483071097638458
 20
30.38079071044922
 11
1.947625041007996
 21
31.4998722076416
  0
LINE
  8
0
  6
CONTINUOUS
 62
     7
 10
-0.0004830976249650121
 20
39.61874389648438
 11
1.937713980674744
 21
38.49972534179688
  0
LINE
  8
0
  6
CONTINUOUS
 62
     7
 10
-22
 20
8.5
 11
-22
 21
8
  0
LINE
  8
0
  6
CONTINUOUS
 62
     7
 10
29
 20
37.999755859375
 11
29
 21
10.5
  0
LINE
  8
0
  6
CONTINUOUS
 62
     7
 10
-26.99995994567871
 20
40
 11
27
 21
40
  0
LINE
  8
0
  6
CONTINUOUS
 62
     7
 10
27.00007820129395
 20
39.9998779296875
 11
29.00002861022949
 21
37.99991226196289
  0
LINE
  8
0
  6
CONTINUOUS
 62
     7
 10
29.00010490417481
 20
10.49979591369629
 11
26.99996948242188
 21
8.499670028686523
  0
LINE
  8
0
  6
CONTINUOUS
 62
     7
 10
11.800048828125
 20
8.5
 11
27
 21
8.5
  0
LINE
  8
0
  6
CONTINUOUS
 62
     7
 10
-11.342529296875
 20
28.699951171875
 11
11.3427734375
 21
28.699951171875
  0
LINE
  8
0
  6
CONTINUOUS
 62
     7
 10
11.34261131286621
 20
28.69978713989258
 11
16.6999454498291
 21
23.34245109558106
  0
LINE
  8
0
  6
CONTINUOUS
 62
     7
 10
16.7001953125
 20
23.342529296875
 11
16.7001953125
 21
18.857177734375
  0
LINE
  8
0
  6
CONTINUOUS
 62
     7
 10
11.85006713867188
 20
14.00703620910645
 11
16.70003318786621
 21
18.85700225830078
  0
LINE
  8
0
  6
CONTINUOUS
 62
     7
 10
11.85009765625
 20
14.00732421875
 11
11.85009765625
 21
12.25244140625
  0
LINE
  8
0
  6
CONTINUOUS
 62
     7
 10
11.8499813079834
 20
12.25247573852539
 11
15.60268783569336
 21
8.49976921081543
  0
LINE
  8
0
  6
CONTINUOUS
 62
     7
 10
22
 20
8
 11
22
 21
8.5
  0
LINE
  8
0
  6
CONTINUOUS
 62
     7
 10
-3.998046875
 20
37.30810546875
 11
-3.998046875
 21
32.691650390625
  0
LINE
  8
0
  6
CONTINUOUS
 62
     7
 10
-3.998025178909302
 20
32.69137573242188
 11
0.002479441231116653
 21
30.38168525695801
  0
LINE
  8
0
  6
CONTINUOUS
 62
     7
 10
-3.998291015625
 20
37.30819320678711
 11
0.001791545888409019
 21
39.61764144897461
  0
LINE
  8
0
  6
CONTINUOUS
 62
     7
 10
-29
 20
10.5
 11
-29
 21
37.99994659423828
  0
LINE
  8
0
  6
CONTINUOUS
 62
     7
 10
-27.00001525878906
 20
8.499876976013184
 11
-28.99997901916504
 21
10.49983024597168
  0
LINE
  8
0
  6
CONTINUOUS
 62
     7
 10
-26.999755859375
 20
8.5
 11
-11.7998046875
 21
8.5
  0
LINE
  8
0
  6
CONTINUOUS
 62
     7
 10
-16.70008087158203
 20
23.34243011474609
 11
-11.34257221221924
 21
28.69993782043457
  0
LINE
  8
0
  6
CONTINUOUS
 62
     7
 10
-16.699951171875
 20
18.857177734375
 11
-16.699951171875
 21
23.342529296875
  0
LINE
  8
0
  6
CONTINUOUS
 62
     7
 10
-16.69986534118652
 20
18.85719680786133
 11
-11.84989929199219
 21
14.00723075866699
  0
LINE
  8
0
  6
CONTINUOUS
 62
     7
 10
-11.849853515625
 20
12.25244140625
 11
-11.849853515625
 21
14.00732421875
  0
LINE
  8
0
  6
CONTINUOUS
 62
     7
 10
-15.60243320465088
 20
8.499705314636231
 11
-11.84989929199219
 21
12.25223922729492
  0
LINE
  8
0
  6
CENTER
 62
     7
 10
0
 20
46
 11
0
 21
-1
  0
LINE
  8
0
  6
DASHED
 62
     7
 10
-7
 20
26
 11
-7
 21
14
  0
LINE
  8
0
  6
DASHED
 62
     7
 10
7
 20
26
 11
7
 21
14
  0
LINE
  8
0
  6
DASHED
 62
     7
 10
4.5
 20
14
 11
4.5
 21
0.5
  0
LINE
  8
0
  6
DASHED
 62
     7
 10
-4.5
 20
14
 11
-4.5
 21
0.5
  0
LINE
  8
0
  6
DASHED
 62
     7
 10
-7
 20
14
 11
7
 21
14
  0
LINE
  8
0
  6
CENTER
 62
     7
 10
19
 20
9.5
 11
19
 21
6
  0
LINE
  8
0
  6
CENTER
 62
     7
 10
-19
 20
9.5
 11
-19
 21
6
  0
LINE
  8
0
  6
CONTINUOUS
 62
     7
 10
-21.2326831817627
 20
8.499733924865723
 11
-21.18178558349609
 21
7.917972087860107
  0
LINE
  8
0
  6
CONTINUOUS
 62
     7
 10
-16.81829261779785
 20
7.917903900146484
 11
-16.76736450195313
 21
8.5
  0
LINE
  8
0
  6
CONTINUOUS
 62
     7
 10
-28
 20
45
 11
-10.14990234375
 21
45
  0
LINE
  8
0
  6
CONTINUOUS
 62
     7
 10
30
 20
42.999755859375
 11
30
 21
37
  0
LINE
  8
0
  6
CONTINUOUS
 62
     7
 10
-30
 20
42.999755859375
 11
-30
 21
37
  0
LINE
  8
0
  6
CONTINUOUS
 62
     7
 10
-29.699951171875
 20
36.7001953125
 11
-29.699951171875
 21
9.5
  0
LINE
  8
0
  6
CONTINUOUS
 62
     7
 10
29.7001953125
 20
36.7001953125
 11
29.7001953125
 21
9.5
  0
LINE
  8
0
  6
CONTINUOUS
 62
     7
 10
-9.7998046875
 20
44.64990234375
 11
9.800048828125
 21
44.64990234375
  0
LINE
  8
0
  6
CONTINUOUS
 62
     7
 10
-28.00003242492676
 20
44.99972152709961
 11
-29.9999885559082
 21
42.99975967407227
  0
LINE
  8
0
  6
CONTINUOUS
 62
     7
 10
27.99996185302734
 20
44.9997444152832
 11
29.99991798400879
 21
42.99978256225586
  0
LINE
  8
0
  6
CONTINUOUS
 62
     7
 10
-29.69989204406738
 20
9.499766349792481
 11
-28.19987869262695
 21
7.999753952026367
  0
LINE
  8
0
  6
CONTINUOUS
 62
     7
 10
29.69999504089356
 20
9.499932289123535
 11
28.19998168945313
 21
7.99992036819458
  0
LINE
  8
0
  6
CONTINUOUS
 62
     7
 10
-29.70001029968262
 20
36.69998550415039
 11
-30.00004577636719
 21
37.00002288818359
  0
LINE
  8
0
  6
CONTINUOUS
 62
     7
 10
10.150146484375
 20
45
 11
28
 21
45
  0
LINE
  8
0
  6
CONTINUOUS
 62
     7
 10
-9.799949645996094
 20
44.64982986450195
 11
-10.15005970001221
 21
44.99991989135742
  0
LINE
  8
0
  6
CONTINUOUS
 62
     7
 10
9.800093650817871
 20
44.64984130859375
 11
10.15003108978272
 21
44.99975967407227
  0
LINE
  8
0
  6
CONTINUOUS
 62
     7
 10
29.6999397277832
 20
36.70016098022461
 11
29.99997520446777
 21
37.00019836425781
  0
LINE
  8
0
  6
CENTER
 62
     7
 10
-20
 20
46
 11
-20
 21
30.18679428100586
  0
LINE
  8
0
  6
DASHED
 62
     7
 10
-16
 20
45
 11
-16
 21
35
  0
LINE
  8
0
  6
DASHED
 62
     7
 10
-24
 20
45
 11
-24
 21
35
  0
LINE
  8
0
  6
DASHED
 62
     7
 10
-16.599853515625
 20
45
 11
-16.599853515625
 21
33.14990234375
  0
LINE
  8
0
  6
DASHED
 62
     7
 10
-23.39990234375
 20
45
 11
-23.39990234375
 21
33.14990234375
  0
LINE
  8
0
  6
DASHED
 62
     7
 10
-24
 20
35
 11
-16
 21
35
  0
LINE
  8
0
  6
DASHED
 62
     7
 10
-23.39990234375
 20
33.14990234375
 11
-16.599853515625
 21
33.14990234375
  0
LINE
  8
0
  6
DASHED
 62
     7
 10
-16.60006332397461
 20
33.14989852905273
 11
-20.00010108947754
 21
31.18688583374023
  0
LINE
  8
0
  6
DASHED
 62
     7
 10
-15.99986362457275
 20
34.99986267089844
 11
-16.59995651245117
 21
33.9604606628418
  0
LINE
  8
0
  6
DASHED
 62
     7
 10
-24.00000381469727
 20
34.99981689453125
 11
-23.40005683898926
 21
33.9606819152832
  0
LINE
  8
0
  6
DASHED
 62
     7
 10
-23.39996719360352
 20
33.14981842041016
 11
-19.99993515014648
 21
31.18679428100586
  0
LINE
  8
0
  6
CENTER
 62
     7
 10
20
 20
30.18679428100586
 11
20
 21
46
  0
LINE
  8
0
  6
CENTER
 62
     7
 10
18
 20
34
 11
10
 21
34
  0
LINE
  8
0
  6
CENTER
 62
     7
 10
14
 20
38
 11
14
 21
30
  0
LINE
  8
0
  6
CONTINUOUS
 62
     7
 10
-26.99995803833008
 20
40
 11
-28.99999809265137
 21
37.99994277954102
  0
LINE
  8
0
  6
CENTER
 62
     7
 10
-18
 20
34
 11
-10
 21
34
  0
LINE
  8
0
  6
CENTER
 62
     7
 10
-14
 20
38
 11
-14
 21
30
  0
LINE
  8
0
  6
CONTINUOUS
 62
     7
 10
99.99984741210938
 20
25.999755859375
 11
99.99984741210938
 21
0
  0
LINE
  8
0
  6
CONTINUOUS
 62
     7
 10
379.9998474121094
 20
25.999755859375
 11
379.9998474121094
 21
0
  0
LINE
  8
0
  6
CENTER
 62
     7
 10
119.9998474121094
 20
26.999755859375
 11
119.9998474121094
 21
-1
  0
LINE
  8
0
  6
DASHED
 62
     7
 10
112.9998474121094
 20
26
 11
112.9998474121094
 21
14
  0
LINE
  8
0
  6
DASHED
 62
     7
 10
126.9998474121094
 20
26
 11
126.9998474121094
 21
14
  0
LINE
  8
0
  6
DASHED
 62
     7
 10
124.4998474121094
 20
14
 11
124.4998474121094
 21
0
  0
LINE
  8
0
  6
DASHED
 62
     7
 10
115.4998474121094
 20
14
 11
115.4998474121094
 21
0
  0
LINE
  8
0
  6
DASHED
 62
     7
 10
112.9998474121094
 20
14
 11
126.9998474121094
 21
14
  0
LINE
  8
0
  6
CENTER
 62
     7
 10
199.9998474121094
 20
8.99951171875
 11
199.9998474121094
 21
-1
  0
LINE
  8
0
  6
CENTER
 62
     7
 10
279.9998474121094
 20
8.99951171875
 11
279.9998474121094
 21
-1
  0
LINE
  8
0
  6
CENTER
 62
     7
 10
359.9998474121094
 20
26.999755859375
 11
359.9998474121094
 21
-1
  0
LINE
  8
0
  6
CENTER
 62
     7
 10
219.9999694824219
 20
45.99951171875
 11
219.9999694824219
 21
30.18630599975586
  0
LINE
  8
0
  6
DASHED
 62
     7
 10
223.9999694824219
 20
44.99951171875
 11
223.9999694824219
 21
34.99951171875
  0
LINE
  8
0
  6
DASHED
 62
     7
 10
215.9999694824219
 20
44.99951171875
 11
215.9999694824219
 21
34.99951171875
  0
LINE
  8
0
  6
DASHED
 62
     7
 10
223.4001159667969
 20
44.99951171875
 11
223.4001159667969
 21
33.1494140625
  0
LINE
  8
0
  6
DASHED
 62
     7
 10
216.6000671386719
 20
44.99951171875
 11
216.6000671386719
 21
33.1494140625
  0
LINE
  8
0
  6
DASHED
 62
     7
 10
215.9999694824219
 20
34.99951171875
 11
223.9999694824219
 21
34.99951171875
  0
LINE
  8
0
  6
DASHED
 62
     7
 10
216.6000671386719
 20
33.1494140625
 11
223.4001159667969
 21
33.1494140625
  0
LINE
  8
0
  6
DASHED
 62
     7
 10
223.39990234375
 20
33.14941024780273
 11
219.9998626708984
 21
31.1863956451416
  0
LINE
  8
0
  6
DASHED
 62
     7
 10
224.0001068115234
 20
34.99936676025391
 11
223.4000244140625
 21
33.95996475219727
  0
LINE
  8
0
  6
DASHED
 62
     7
 10
215.9999694824219
 20
34.99932861328125
 11
216.5999145507813
 21
33.9601936340332
  0
LINE
  8
0
  6
DASHED
 62
     7
 10
216.6000061035156
 20
33.14932250976563
 11
220.0000305175781
 21
31.18630027770996
  0
LINE
  8
0
  6
CENTER
 62
     7
 10
259.9997253417969
 20
45.99951171875
 11
259.9997253417969
 21
30.18630599975586
  0
LINE
  8
0
  6
CONTINUOUS
 62
     7
 10
182.6527862548828
 20
151.2931213378906
 11
189.2015686035156
 21
148.5805206298828
  0
LINE
  8
0
  6
CONTINUOUS
 62
     7
 10
190.9997406005859
 20
150.9994964599609
 11
190.9997406005859
 21
158.9994964599609
  0
LINE
  8
0
  6
CONTINUOUS
 62
     7
 10
187.6998291015625
 20
158.99951171875
 11
190.9997406005859
 21
158.99951171875
  0
LINE
  8
0
  6
CONTINUOUS
 62
     7
 10
189.3198547363281
 20
150.99951171875
 11
190.9997406005859
 21
150.99951171875
  0
LINE
  8
0
  6
CONTINUOUS
 62
     7
 10
183.6998291015625
 20
154.99951171875
 11
183.6998291015625
 21
153.327392578125
  0
LINE
  8
0
  6
CONTINUOUS
 62
     7
 10
190.9997253417969
 20
158.99951171875
 11
192.9997253417969
 21
158.99951171875
  0
LINE
  8
0
  6
CONTINUOUS
 62
     7
 10
190.9997253417969
 20
150.99951171875
 11
192.9997253417969
 21
150.99951171875
  0
LINE
  8
0
  6
CENTER
 62
     7
 10
183.2515869140625
 20
143.4773864746094
 11
188.1168823242188
 21
155.2232666015625
  0
LINE
  8
0
  6
CONTINUOUS
 62
     7
 10
181.4825134277344
 20
145.4779510498047
 11
185.9171295166016
 21
143.6410675048828
  0
LINE
  8
0
  6
CONTINUOUS
 62
     7
 10
181.6842803955078
 20
148.3168487548828
 11
187.7818756103516
 21
145.7911376953125
  0
LINE
  8
0
  6
CONTINUOUS
 62
     7
 10
181.4825134277344
 20
145.4779510498047
 11
181.6842803955078
 21
148.3168487548828
  0
LINE
  8
0
  6
CONTINUOUS
 62
     7
 10
185.9171447753906
 20
143.6410675048828
 11
187.7818908691406
 21
145.7911529541016
  0
LINE
  8
0
  6
CONTINUOUS
 62
     7
 10
182.4229888916016
 20
152.0377044677734
 11
182.8376617431641
 21
153.0387725830078
  0
LINE
  8
0
  6
CONTINUOUS
 62
     7
 10
189.8905792236328
 20
148.9445190429688
 11
190.3052368164063
 21
149.9455718994141
  0
LINE
  8
0
  6
CONTINUOUS
 62
     7
 10
183.6170806884766
 20
153.3616027832031
 11
182.837646484375
 21
153.0387420654297
  0
LINE
  8
0
  6
CONTINUOUS
 62
     7
 10
184.0602874755859
 20
150.7100830078125
 11
184.932861328125
 21
152.816650390625
  0
LINE
  8
0
  6
CONTINUOUS
 62
     7
 10
187.7940521240234
 20
149.1635131835938
 11
188.6666259765625
 21
151.2700805664063
  0
LINE
  8
0
  6
CONTINUOUS
 62
     7
 10
183.6170959472656
 20
153.3616638183594
 11
189.9824066162109
 21
150.7250671386719
  0
LINE
  8
0
  6
CONTINUOUS
 62
     7
 10
190.3052520751953
 20
149.9455718994141
 11
189.9823913574219
 21
150.7250213623047
  0
LINE
  8
0
  6
CONTINUOUS
 62
     7
 10
182.8145446777344
 20
149.7389984130859
 11
187.9882659912109
 21
147.5959625244141
  0
LINE
  8
0
  6
CENTER
 62
     7
 10
196.6183776855469
 20
140.99951171875
 11
191.6813659667969
 21
140.99951171875
  0
LINE
  8
0
  6
CONTINUOUS
 62
     7
 10
288.9999694824219
 20
144.7841644287109
 11
379.9997253417969
 21
144.7841644287109
  0
LINE
  8
0
  6
CONTINUOUS
 62
     7
 10
288.9999694824219
 20
169.69921875
 11
288.9999694824219
 21
140.2993469238281
  0
LINE
  8
0
  6
CONTINUOUS
 62
     7
 10
99.99972534179688
 20
165.21435546875
 11
190.9997253417969
 21
165.21435546875
  0
LINE
  8
0
  6
CONTINUOUS
 62
     7
 10
99.99972534179688
 20
168.99951171875
 11
99.99972534179688
 21
140.99951171875
  0
LINE
  8
0
  6
CONTINUOUS
 62
     7
 10
99.99972534179688
 20
144.7841644287109
 11
183.1574859619141
 21
144.7841644287109
  0
LINE
  8
0
  6
CONTINUOUS
 62
     7
 10
286.9999694824219
 20
125.9996337890625
 11
275.1999206542969
 21
125.9996337890625
  0
LINE
  8
0
  6
CONTINUOUS
 62
     7
 10
286.9999694824219
 20
183.99951171875
 11
286.9999694824219
 21
125.9996337890625
  0
LINE
  8
0
  6
CONTINUOUS
 62
     7
 10
285.4999694824219
 20
183.99951171875
 11
285.4999694824219
 21
125.9996337890625
  0
LINE
  8
0
  6
CONTINUOUS
 62
     7
 10
286.9999694824219
 20
183.99951171875
 11
275.1999206542969
 21
183.99951171875
  0
LINE
  8
0
  6
CONTINUOUS
 62
     7
 10
287.9499206542969
 20
142.49951171875
 11
287.9499206542969
 21
139.49951171875
  0
LINE
  8
0
  6
CONTINUOUS
 62
     7
 10
288.9999694824219
 20
169.69921875
 11
286.9999694824219
 21
171.69921875
  0
LINE
  8
0
  6
CENTER
 62
     7
 10
283.3813171386719
 20
168.99951171875
 11
288.3183288574219
 21
168.99951171875
  0
LINE
  8
0
  6
CONTINUOUS
 62
     7
 10
288.9999694824219
 20
140.2993469238281
 11
286.9999694824219
 21
138.2993469238281
  0
LINE
  8
0
  6
CONTINUOUS
 62
     7
 10
287.9499206542969
 20
167.49951171875
 11
287.9499206542969
 21
170.49951171875
  0
LINE
  8
0
  6
CENTER
 62
     7
 10
283.3813171386719
 20
140.99951171875
 11
288.3183288574219
 21
140.99951171875
  0
LINE
  8
0
  6
CONTINUOUS
 62
     7
 10
99.99972534179688
 20
168.99951171875
 11
190.9997253417969
 21
168.99951171875
  0
LINE
  8
0
  6
CONTINUOUS
 62
     7
 10
192.0497741699219
 20
167.49951171875
 11
192.0497741699219
 21
170.49951171875
  0
LINE
  8
0
  6
CONTINUOUS
 62
     7
 10
190.9997253417969
 20
140.2993469238281
 11
192.9997253417969
 21
138.2993469238281
  0
LINE
  8
0
  6
CENTER
 62
     7
 10
196.6183776855469
 20
168.99951171875
 11
191.6813659667969
 21
168.99951171875
  0
LINE
  8
0
  6
CONTINUOUS
 62
     7
 10
190.9997406005859
 20
169.6992340087891
 11
192.9997100830078
 21
171.6992034912109
  0
LINE
  8
0
  6
CONTINUOUS
 62
     7
 10
288.9999694824219
 20
165.21435546875
 11
379.9997253417969
 21
165.21435546875
  0
LINE
  8
0
  6
CONTINUOUS
 62
     7
 10
288.9999694824219
 20
168.99951171875
 11
379.9997253417969
 21
168.99951171875
  0
LINE
  8
0
  6
CONTINUOUS
 62
     7
 10
192.0497741699219
 20
142.49951171875
 11
192.0497741699219
 21
139.49951171875
  0
LINE
  8
0
  6
CONTINUOUS
 62
     7
 10
288.9999694824219
 20
140.99951171875
 11
379.9997253417969
 21
140.99951171875
  0
LINE
  8
0
  6
CONTINUOUS
 62
     7
 10
379.9997253417969
 20
168.99951171875
 11
379.9997253417969
 21
140.99951171875
  0
LINE
  8
0
  6
CONTINUOUS
 62
     7
 10
192.9997253417969
 20
183.99951171875
 11
204.7997741699219
 21
183.99951171875
  0
LINE
  8
0
  6
CONTINUOUS
 62
     7
 10
194.4997253417969
 20
183.99951171875
 11
194.4997253417969
 21
125.9996337890625
  0
LINE
  8
0
  6
CONTINUOUS
 62
     7
 10
99.99972534179688
 20
140.99951171875
 11
190.9997253417969
 21
140.99951171875
  0
LINE
  8
0
  6
CONTINUOUS
 62
     7
 10
192.9997253417969
 20
183.99951171875
 11
192.9997253417969
 21
125.9996337890625
  0
LINE
  8
0
  6
CENTER
 62
     7
 10
119.9997253417969
 20
162.99951171875
 11
119.9997253417969
 21
146.99951171875
  0
LINE
  8
0
  6
CONTINUOUS
 62
     7
 10
190.9997253417969
 20
150.99951171875
 11
190.9997253417969
 21
140.2993469238281
  0
LINE
  8
0
  6
CENTER
 62
     7
 10
98.99972534179688
 20
154.99951171875
 11
380.9997253417969
 21
154.99951171875
  0
LINE
  8
0
  6
CONTINUOUS
 62
     7
 10
190.9997253417969
 20
169.69921875
 11
190.9997253417969
 21
158.99951171875
  0
LINE
  8
0
  6
CONTINUOUS
 62
     7
 10
186.9085235595703
 20
144.7841644287109
 11
190.9997253417969
 21
144.7841644287109
  0
LINE
  8
0
  6
CONTINUOUS
 62
     7
 10
192.9997253417969
 20
125.9996337890625
 11
204.7997741699219
 21
125.9996337890625
  0
LINE
  8
0
  6
CENTER
 62
     7
 10
359.9997253417969
 20
162.99951171875
 11
359.9997253417969
 21
146.99951171875
  0
LINE
  8
0
  6
CENTER
 62
     7
 10
279.9997253417969
 20
162.99951171875
 11
279.9997253417969
 21
146.99951171875
  0
LINE
  8
0
  6
CENTER
 62
     7
 10
199.9997253417969
 20
162.99951171875
 11
199.9997253417969
 21
146.99951171875
  0
LINE
  8
0
  6
CONTINUOUS
 62
     7
 10
204.7997741699219
 20
184.99951171875
 11
275.1996765136719
 21
184.99951171875
  0
LINE
  8
0
  6
CONTINUOUS
 62
     7
 10
204.7997741699219
 20
124.99951171875
 11
275.1996765136719
 21
124.99951171875
  0
LINE
  8
0
  6
CONTINUOUS
 62
     7
 10
204.7997741699219
 20
144.8494873046875
 11
275.1996765136719
 21
144.8494873046875
  0
LINE
  8
0
  6
CONTINUOUS
 62
     7
 10
204.7997741699219
 20
165.1494140625
 11
275.1996765136719
 21
165.1494140625
  0
LINE
  8
0
  6
CONTINUOUS
 62
     7
 10
204.7997741699219
 20
184.99951171875
 11
204.7997741699219
 21
124.99951171875
  0
LINE
  8
0
  6
CONTINUOUS
 62
     7
 10
275.1996765136719
 20
184.99951171875
 11
275.1996765136719
 21
124.99951171875
  0
LINE
  8
0
  6
CENTER
 62
     7
 10
224.9999694824219
 20
134.99951171875
 11
214.9999694824219
 21
134.99951171875
  0
LINE
  8
0
  6
CENTER
 62
     7
 10
219.9999694824219
 20
139.99951171875
 11
219.9999694824219
 21
129.99951171875
  0
LINE
  8
0
  6
CENTER
 62
     7
 10
259.9994812011719
 20
139.99951171875
 11
259.9994812011719
 21
129.99951171875
  0
LINE
  8
0
  6
CENTER
 62
     7
 10
254.9994812011719
 20
134.99951171875
 11
264.9994812011719
 21
134.99951171875
  0
LINE
  8
0
  6
CENTER
 62
     7
 10
254.9994812011719
 20
174.99951171875
 11
264.9994812011719
 21
174.99951171875
  0
LINE
  8
0
  6
CENTER
 62
     7
 10
219.9999694824219
 20
169.99951171875
 11
219.9999694824219
 21
179.99951171875
  0
LINE
  8
0
  6
CENTER
 62
     7
 10
224.9999694824219
 20
174.99951171875
 11
214.9999694824219
 21
174.99951171875
  0
LINE
  8
0
  6
CENTER
 62
     7
 10
259.9994812011719
 20
169.99951171875
 11
259.9994812011719
 21
179.99951171875
  0
LINE
  8
0
  6
CENTER
 62
     7
 10
283.3812866210938
 20
33.99949645996094
 11
288.3182983398438
 21
33.99949645996094
  0
LINE
  8
0
  6
CONTINUOUS
 62
     7
 10
99.99984741210938
 20
25.21452331542969
 11
190.9997253417969
 21
25.21452331542969
  0
LINE
  8
0
  6
CONTINUOUS
 62
     7
 10
99.99984741210938
 20
22.69051742553711
 11
190.9997253417969
 21
22.69051742553711
  0
LINE
  8
0
  6
CONTINUOUS
 62
     7
 10
99.99984741210938
 20
19.30991172790527
 11
190.9997253417969
 21
19.30991172790527
  0
LINE
  8
0
  6
CONTINUOUS
 62
     7
 10
99.99984741210938
 20
15.07999038696289
 11
190.9997253417969
 21
15.07999038696289
  0
LINE
  8
0
  6
CONTINUOUS
 62
     7
 10
99.99984741210938
 20
10.99986934661865
 11
190.9997253417969
 21
10.99986934661865
  0
LINE
  8
0
  6
CONTINUOUS
 62
     7
 10
99.99984741210938
 20
6.2998046875
 11
379.9998474121094
 21
6.2998046875
  0
LINE
  8
0
  6
CONTINUOUS
 62
     7
 10
288.9999694824219
 20
25.21452331542969
 11
379.9998474121094
 21
25.21452331542969
  0
LINE
  8
0
  6
CONTINUOUS
 62
     7
 10
288.9999694824219
 20
22.69051742553711
 11
379.9998474121094
 21
22.69051742553711
  0
LINE
  8
0
  6
CONTINUOUS
 62
     7
 10
288.9999694824219
 20
19.30991172790527
 11
379.9998474121094
 21
19.30991172790527
  0
LINE
  8
0
  6
CONTINUOUS
 62
     7
 10
288.9999694824219
 20
15.07999038696289
 11
379.9998474121094
 21
15.07999038696289
  0
LINE
  8
0
  6
CONTINUOUS
 62
     7
 10
288.9999694824219
 20
10.99986934661865
 11
379.9998474121094
 21
10.99986934661865
  0
ARC
  8
0
  6
CONTINUOUS
 62
     7
 10
192.8996276855469
 20
38.58984375
 40
1.900939941406257
 50
181.8086700643979
 51
222.4362198515213
  0
ARC
  8
0
  6
CONTINUOUS
 62
     7
 10
210.6152038574219
 20
7.9873046875
 40
0.7999999523162926
 50
179.121492417531
 51
254.557270818926
  0
ARC
  8
0
  6
CONTINUOUS
 62
     7
 10
213.3844909667969
 20
7.9873046875
 40
0.7999999523162881
 50
285.4427478504089
 51
0.8785074687834845
  0
ARC
  8
0
  6
CONTINUOUS
 62
     7
 10
211.9999694824219
 20
12.999755859375
 40
5.999999999999999
 50
254.557342763284
 51
285.4426932088946
  0
ARC
  8
0
  6
CONTINUOUS
 62
     7
 10
187.9997253417969
 20
34.999755859375
 40
3.999999999999998
 50
89.99998201391055
 51
118.4958044387709
  0
ARC
  8
0
  6
CONTINUOUS
 62
     7
 10
194.6506042480469
 20
33.994873046875
 40
2.999999999999996
 50
209.8970307241319
 51
236.6149822287941
  0
ARC
  8
0
  6
CONTINUOUS
 62
     7
 10
187.9997253417969
 20
34.999755859375
 40
3.982465744018556
 50
241.5040862782025
 51
269.9999087030627
  0
ARC
  8
0
  6
CONTINUOUS
 62
     7
 10
192.9001159667969
 20
31.409912109375
 40
1.896939277648928
 50
137.5635615824254
 51
178.1912206525752
  0
ARC
  8
0
  6
CONTINUOUS
 62
     7
 10
194.3000183105469
 20
34.4697265625
 40
3.318496704101556
 50
186.054315652478
 51
212.4448005675732
  0
ARC
  8
0
  6
CONTINUOUS
 62
     7
 10
194.3000183105469
 20
35.52978515625
 40
3.317878723144528
 50
147.5550901493999
 51
173.9458482720621
  0
ARC
  8
0
  6
CONTINUOUS
 62
     7
 10
194.6506042480469
 20
34.00439453125
 40
2.999999999999996
 50
123.3850177712058
 51
150.1029692758681
  0
ARC
  8
0
  6
CONTINUOUS
 62
     7
 10
285.3490905761719
 20
33.994873046875
 40
2.999999999999994
 50
303.3850195924385
 51
330.102971097101
  0
ARC
  8
0
  6
CONTINUOUS
 62
     7
 10
285.3490905761719
 20
34.00439453125
 40
2.999999999999998
 50
29.89702890289898
 51
56.61498040756148
  0
ARC
  8
0
  6
CONTINUOUS
 62
     7
 10
-13.869384765625
 20
25.559814453125
 40
2.889999389648439
 50
276.8601507054235
 51
353.139891186328
  0
ARC
  8
0
  6
CONTINUOUS
 62
     7
 10
-13.869384765625
 20
16.43994140625
 40
2.889999389648437
 50
6.746867692327753
 51
83.25312115177206
  0
ARC
  8
0
  6
CONTINUOUS
 62
     7
 10
13.86962890625
 20
25.559814453125
 40
2.889999389648437
 50
186.8601140499994
 51
263.1398852667552
  0
ARC
  8
0
  6
CONTINUOUS
 62
     7
 10
13.86962890625
 20
16.43994140625
 40
2.889999389648437
 50
96.74684287604927
 51
173.2531031656828
  0
ARC
  8
0
  6
CONTINUOUS
 62
     7
 10
7.610107421875
 20
32.7099609375
 40
0.9683421850204466
 50
215.3314570768741
 51
278.2972225067941
  0
ARC
  8
0
  6
CONTINUOUS
 62
     7
 10
6.6201171875
 20
30.919921875
 40
1.246148109436035
 50
80.76452806729958
 51
142.1250351177266
  0
ARC
  8
0
  6
CONTINUOUS
 62
     7
 10
6.6201171875
 20
39.079833984375
 40
1.254199028015138
 50
217.8749648822736
 51
279.2353626496737
  0
ARC
  8
0
  6
CONTINUOUS
 62
     7
 10
7.610107421875
 20
37.289794921875
 40
0.9701611399650598
 50
81.70288677623263
 51
144.668542923126
  0
ARC
  8
0
  6
CONTINUOUS
 62
     7
 10
0
 20
34.999755859375
 40
4
 50
240.0000239814524
 51
241.0449882829511
  0
ARC
  8
0
  6
CONTINUOUS
 62
     7
 10
0
 20
34.999755859375
 40
3.998106002807619
 50
61.09402038976974
 51
298.9059076658729
  0
ARC
  8
0
  6
CONTINUOUS
 62
     7
 10
-19
 20
13
 40
6.000000000000001
 50
254.557342763284
 51
285.4426932088946
  0
ARC
  8
0
  6
CONTINUOUS
 62
     7
 10
-17.615234375
 20
7.987548828125
 40
0.7999999523162841
 50
285.4426932088946
 51
355.0000044143218
  0
ARC
  8
0
  6
CONTINUOUS
 62
     7
 10
-20.384521484375
 20
7.987548828125
 40
0.7999999523162842
 50
185.0000076521948
 51
254.5573427632839
  0
ARC
  8
0
  6
CONTINUOUS
 62
     7
 10
14
 20
34
 40
2.849999427795411
 50
193.4936484134291
 51
152.8869543815654
  0
CIRCLE
  8
0
  6
CONTINUOUS
 62
     7
 10
-14
 20
34
 40
2.84999942779541
  0
ARC
  8
0
  6
CONTINUOUS
 62
     7
 10
195.2494812011719
 20
156.99951171875
 40
4.249771118164061
 50
151.9258648030746
 51
208.0741178940814
  0
ARC
  8
0
  6
CONTINUOUS
 62
     7
 10
195.2496032714844
 20
152.99951171875
 40
4.24988555908202
 50
151.9264658597215
 51
208.0735168374343
  0
ARC
  8
0
  6
CONTINUOUS
 62
     7
 10
188.7499084472656
 20
156.99951171875
 40
4.24977111816405
 50
331.9258836997802
 51
28.07413337569262
  0
ARC
  8
0
  6
CONTINUOUS
 62
     7
 10
188.7497863769531
 20
152.99951171875
 40
4.249885559082024
 50
331.9264847564272
 51
28.07353231904542
  0
ARC
  8
0
  6
CONTINUOUS
 62
     7
 10
184.7330780029297
 20
147.0539855957031
 40
3.299999237060546
 50
131.5803705110077
 51
157.4999548639651
  0
ARC
  8
0
  6
CONTINUOUS
 62
     7
 10
184.7330780029297
 20
147.0539855957031
 40
3.299999237060545
 50
337.5000181569009
 51
3.419602296415186
  0
ARC
  8
0
  6
CONTINUOUS
 62
     7
 10
176.8167266845703
 20
149.9000854492188
 40
6.00000000000001
 50
2.43365082934552
 51
20.87173987704925
  0
ARC
  8
0
  6
CONTINUOUS
 62
     7
 10
192.34326171875
 20
143.4687805175781
 40
6.000000000000011
 50
114.1278165022775
 51
132.5663219780772
  0
ARC
  8
0
  6
CONTINUOUS
 62
     7
 10
182.0120239257813
 20
150.1208801269531
 40
0.7999999523162822
 50
311.5798327472963
 51
2.433049772698627
  0
ARC
  8
0
  6
CONTINUOUS
 62
     7
 10
188.8257598876953
 20
147.2985382080078
 40
0.7999999523162747
 50
132.5669776762372
 51
183.4201402735692
  0
ARC
  8
0
  6
CONTINUOUS
 62
     7
 10
187.6998291015625
 20
154.99951171875
 40
3.999999999999998
 50
89.99998201391055
 51
180.0000186693345
  0
ARC
  8
0
  6
CONTINUOUS
 62
     7
 10
194.6506042480469
 20
168.99462890625
 40
2.999999999999993
 50
209.8970307241317
 51
236.6149822287941
  0
ARC
  8
0
  6
CONTINUOUS
 62
     7
 10
194.6506042480469
 20
141.00439453125
 40
2.999999999999991
 50
123.3850177712059
 51
150.1029692758683
  0
ARC
  8
0
  6
CONTINUOUS
 62
     7
 10
285.3490905761719
 20
169.00390625
 40
3.000000000000023
 50
29.89703231799328
 51
56.61498382265611
  0
ARC
  8
0
  6
CONTINUOUS
 62
     7
 10
285.3490905761719
 20
141.00439453125
 40
3.000000000000023
 50
29.89703231799328
 51
56.61498382265611
  0
ARC
  8
0
  6
CONTINUOUS
 62
     7
 10
285.3490905761719
 20
140.9951171875
 40
3
 50
303.3850161773439
 51
330.1029676820068
  0
ARC
  8
0
  6
CONTINUOUS
 62
     7
 10
285.3490905761719
 20
168.99462890625
 40
3
 50
303.3850161773439
 51
330.1029676820068
  0
ARC
  8
0
  6
CONTINUOUS
 62
     7
 10
194.6506042480469
 20
140.9951171875
 40
2.999999999999993
 50
209.8970307241317
 51
236.6149822287941
  0
ARC
  8
0
  6
CONTINUOUS
 62
     7
 10
194.6506042480469
 20
169.00390625
 40
2.999999999999991
 50
123.3850177712059
 51
150.1029692758683
  0
CIRCLE
  8
0
  6
CONTINUOUS
 62
     7
 10
119.9997253417969
 20
154.99951171875
 40
7
  0
CIRCLE
  8
0
  6
CONTINUOUS
 62
     7
 10
119.9997253417969
 20
154.99951171875
 40
4.5
  0
CIRCLE
  8
0
  6
CONTINUOUS
 62
     7
 10
219.9999694824219
 20
134.99951171875
 40
4
  0
CIRCLE
  8
0
  6
CONTINUOUS
 62
     7
 10
219.9999694824219
 20
134.99951171875
 40
3.39990234375
  0
POLYLINE
  8
0
  6
CONTINUOUS
 62
     7
 66
     1
 10
0
 20
0
 70
     1
  0
VERTEX
  8
0
  6
CONTINUOUS
 62
     7
 10
183.6998901367188
 20
37.499755859375
 42
0.1103775933491691
  0
VERTEX
  8
0
  6
CONTINUOUS
 62
     7
 10
182.7877319500203
 20
37.29473824654914
 42
0.1025061235731985
  0
VERTEX
  8
0
  6
CONTINUOUS
 62
     7
 10
182.0403969363021
 20
36.73072948521828
 42
0.09329015608739297
  0
VERTEX
  8
0
  6
CONTINUOUS
 62
     7
 10
181.56279149977
 20
35.92383607297285
 42
0.0878207771357722
  0
VERTEX
  8
0
  6
CONTINUOUS
 62
     7
 10
181.39990234375
 20
34.99974060058594
 42
0.08777447240538426
  0
VERTEX
  8
0
  6
CONTINUOUS
 62
     7
 10
181.5626326627873
 20
34.07612211984951
 42
0.09326064006660079
  0
VERTEX
  8
0
  6
CONTINUOUS
 62
     7
 10
182.0399368476834
 20
33.26931889068948
 42
0.1026290616863211
  0
VERTEX
  8
0
  6
CONTINUOUS
 62
     7
 10
182.7881467199442
 20
32.7045893452929
 42
0.1103322769959505
  0
VERTEX
  8
0
  6
CONTINUOUS
 62
     7
 10
183.699951171875
 20
32.499755859375
 42
0.1103786774571564
  0
VERTEX
  8
0
  6
CONTINUOUS
 62
     7
 10
184.6121093772132
 20
32.70477253548332
 42
0.1025063079169665
  0
VERTEX
  8
0
  6
CONTINUOUS
 62
     7
 10
185.3594434742934
 20
33.26878245712818
 42
0.09328964742200693
  0
VERTEX
  8
0
  6
CONTINUOUS
 62
     7
 10
185.8370482839034
 20
34.07567629712908
 42
0.08782007793005082
  0
VERTEX
  8
0
  6
CONTINUOUS
 62
     7
 10
185.9999389648438
 20
34.99977111816406
 42
0.08777248542722775
  0
VERTEX
  8
0
  6
CONTINUOUS
 62
     7
 10
185.8372098353705
 20
35.92339008168036
 42
0.09326049632135718
  0
VERTEX
  8
0
  6
CONTINUOUS
 62
     7
 10
185.3599102294519
 20
36.73019611309405
 42
0.102630821159137
  0
VERTEX
  8
0
  6
CONTINUOUS
 62
     7
 10
184.6117018458373
 20
37.29492730094672
 42
0.1103311409395706
  0
SEQEND
  8
0
  0
POLYLINE
  8
0
  6
CONTINUOUS
 62
     7
 66
     1
 10
0
 20
0
  0
VERTEX
  8
0
  6
CONTINUOUS
 62
     7
 10
6.82000732421875
 20
37.84974670410156
 42
0.1885758432677475
  0
VERTEX
  8
0
  6
CONTINUOUS
 62
     7
 10
6.460277819521648
 20
37.69005621819814
 42
0.07574479749632657
  0
VERTEX
  8
0
  6
CONTINUOUS
 62
     7
 10
6.21604592928594
 20
37.37221780334085
 42
0.0393357304493312
  0
VERTEX
  8
0
  6
CONTINUOUS
 62
     7
 10
6.046187192398637
 20
37.0068828929951
 42
0.02577097101669322
  0
VERTEX
  8
0
  6
CONTINUOUS
 62
     7
 10
5.924035453824461
 20
36.62273139380401
 42
0.01950490442457301
  0
VERTEX
  8
0
  6
CONTINUOUS
 62
     7
 10
5.83654709926637
 20
36.22851911972532
 42
0.01621427453036287
  0
VERTEX
  8
0
  6
CONTINUOUS
 62
     7
 10
5.777188892329618
 20
35.8289278865466
 42
0.01446617154970022
  0
VERTEX
  8
0
  6
CONTINUOUS
 62
     7
 10
5.742322667545428
 20
35.42640310783074
 42
0.01369085274712964
  0
VERTEX
  8
0
  6
CONTINUOUS
 62
     7
 10
5.730075410722635
 20
35.02225911204663
 42
0.01360523157542533
  0
VERTEX
  8
0
  6
CONTINUOUS
 62
     7
 10
5.739793074690745
 20
34.61941402431864
 42
0.01431559791625765
  0
VERTEX
  8
0
  6
CONTINUOUS
 62
     7
 10
5.771944839424553
 20
34.21716282501216
 42
0.01598215907109379
  0
VERTEX
  8
0
  6
CONTINUOUS
 62
     7
 10
5.828458431472812
 20
33.81634523376324
 42
0.01902702846737478
  0
VERTEX
  8
0
  6
CONTINUOUS
 62
     7
 10
5.912523188554931
 20
33.42119256874381
 42
0.02488001271887272
  0
VERTEX
  8
0
  6
CONTINUOUS
 62
     7
 10
6.030542322003533
 20
33.03479762806273
 42
0.03729630276940875
  0
VERTEX
  8
0
  6
CONTINUOUS
 62
     7
 10
6.194620911646851
 20
32.66561587558601
 42
0.0699826746018706
  0
VERTEX
  8
0
  6
CONTINUOUS
 62
     7
 10
6.43020965171967
 20
32.33828772006848
 42
0.1738196521755936
  0
VERTEX
  8
0
  6
CONTINUOUS
 62
     7
 10
6.779978566570953
 20
32.15169262985482
 42
0
  0
SEQEND
  8
0
  0
POLYLINE
  8
0
  6
CONTINUOUS
 62
     7
 66
     1
 10
0
 20
0
 70
     1
  0
VERTEX
  8
0
  6
CONTINUOUS
 62
     7
 10
10.52001953125
 20
37.499755859375
 42
0.255155215361367
  0
VERTEX
  8
0
  6
CONTINUOUS
 62
     7
 10
9.9902075200591
 20
37.07487114988788
 42
0.06319187408130171
  0
VERTEX
  8
0
  6
CONTINUOUS
 62
     7
 10
9.736106550422573
 20
36.41198839164932
 42
0.0351871583521999
  0
VERTEX
  8
0
  6
CONTINUOUS
 62
     7
 10
9.609372174642362
 20
35.71194102965977
 42
0.02798668497357907
  0
VERTEX
  8
0
  6
CONTINUOUS
 62
     7
 10
9.57000732421875
 20
34.999755859375
 42
0.02789664448870292
  0
VERTEX
  8
0
  6
CONTINUOUS
 62
     7
 10
9.609136741716712
 20
34.28960942703435
 42
0.03515812943571575
  0
VERTEX
  8
0
  6
CONTINUOUS
 62
     7
 10
9.735619527506344
 20
33.58931834256783
 42
0.06315520739922731
  0
VERTEX
  8
0
  6
CONTINUOUS
 62
     7
 10
9.989636932916328
 20
32.92557403751611
 42
0.2552942740415108
  0
VERTEX
  8
0
  6
CONTINUOUS
 62
     7
 10
10.51995849609375
 20
32.499755859375
 42
0.2551575742105834
  0
VERTEX
  8
0
  6
CONTINUOUS
 62
     7
 10
11.04977157225716
 20
32.92463836199141
 42
0.06319209636791895
  0
VERTEX
  8
0
  6
CONTINUOUS
 62
     7
 10
11.30387233785865
 20
33.58752117908281
 42
0.03518716328180804
  0
VERTEX
  8
0
  6
CONTINUOUS
 62
     7
 10
11.43060625180157
 20
34.28756862259311
 42
0.02798671452830346
  0
VERTEX
  8
0
  6
CONTINUOUS
 62
     7
 10
11.469970703125
 20
34.999755859375
 42
0.02789679269050339
  0
VERTEX
  8
0
  6
CONTINUOUS
 62
     7
 10
11.43084162265174
 20
35.70990230796101
 42
0.03515831153916234
  0
VERTEX
  8
0
  6
CONTINUOUS
 62
     7
 10
11.30435871211123
 20
36.41019336242768
 42
0.06315543485362449
  0
VERTEX
  8
0
  6
CONTINUOUS
 62
     7
 10
11.05034064741912
 20
37.0739373942226
 42
0.2552921643348824
  0
SEQEND
  8
0
  0
POLYLINE
  8
0
  6
CONTINUOUS
 62
     7
 66
     1
 10
0
 20
0
  0
VERTEX
  8
0
  6
CONTINUOUS
 62
     7
 10
184.8000183105469
 20
38.249755859375
 42
0.01434917358516203
  0
VERTEX
  8
0
  6
CONTINUOUS
 62
     7
 10
184.6411372865792
 20
38.2451946786832
 42
0.0142605194145859
  0
VERTEX
  8
0
  6
CONTINUOUS
 62
     7
 10
184.4835262530817
 20
38.23161917479602
 42
0.01417563955692872
  0
VERTEX
  8
0
  6
CONTINUOUS
 62
     7
 10
184.3274272082842
 20
38.20917637923424
 42
0.01415083359599648
  0
VERTEX
  8
0
  6
CONTINUOUS
 62
     7
 10
184.1724650626715
 20
38.17785300994628
 42
0.01410154814773222
  0
VERTEX
  8
0
  6
CONTINUOUS
 62
     7
 10
184.0192030841005
 20
38.13774534793879
 42
0.01402954753247522
  0
VERTEX
  8
0
  6
CONTINUOUS
 62
     7
 10
183.8681862568865
 20
38.08900121340386
 42
0.01393697085938143
  0
VERTEX
  8
0
  6
CONTINUOUS
 62
     7
 10
183.7199358022089
 20
38.0318157525868
 42
0.01382625498803904
  0
VERTEX
  8
0
  6
CONTINUOUS
 62
     7
 10
183.57494455837
 20
37.96642644768517
 42
0.01370004978707258
  0
VERTEX
  8
0
  6
CONTINUOUS
 62
     7
 10
183.4336733382326
 20
37.89310756730329
 42
0.01356113157480059
  0
VERTEX
  8
0
  6
CONTINUOUS
 62
     7
 10
183.2965483277929
 20
37.81216429166772
 42
0.01332237843118152
  0
VERTEX
  8
0
  6
CONTINUOUS
 62
     7
 10
183.1648382177048
 20
37.72454583797555
 42
0.01328781122320393
  0
VERTEX
  8
0
  6
CONTINUOUS
 62
     7
 10
183.0368172212825
 20
37.6291826053977
 42
0.01315487782082224
  0
VERTEX
  8
0
  6
CONTINUOUS
 62
     7
 10
182.9137648427282
 20
37.52697715050112
 42
0.01293834173796322
  0
VERTEX
  8
0
  6
CONTINUOUS
 62
     7
 10
182.7967204948079
 20
37.41896270859148
 42
0.01278035404620251
  0
VERTEX
  8
0
  6
CONTINUOUS
 62
     7
 10
182.6853840133498
 20
37.30507361310177
 42
0.01262534715819744
  0
VERTEX
  8
0
  6
CONTINUOUS
 62
     7
 10
182.5799745207541
 20
37.18567643320561
 42
0
  0
SEQEND
  8
0
  0
POLYLINE
  8
0
  6
CONTINUOUS
 62
     7
 66
     1
 10
0
 20
0
  0
VERTEX
  8
0
  6
CONTINUOUS
 62
     7
 10
182.5759484487698
 20
32.8186406210892
 42
0.06283216344640873
  0
VERTEX
  8
0
  6
CONTINUOUS
 62
     7
 10
183.1402473068314
 20
32.29246874729532
 42
0.06649712346072682
  0
VERTEX
  8
0
  6
CONTINUOUS
 62
     7
 10
183.8202478476779
 20
31.927964726481
 42
0.06915554825052131
  0
VERTEX
  8
0
  6
CONTINUOUS
 62
     7
 10
184.5726025529378
 20
31.75910696886941
 42
0.06975243631135843
  0
VERTEX
  8
0
  6
CONTINUOUS
 62
     7
 10
185.3413573453012
 20
31.80310473087994
 42
0.06816367867339977
  0
VERTEX
  8
0
  6
CONTINUOUS
 62
     7
 10
186.0692006363826
 20
32.05492630773183
 42
0.06499589374858975
  0
VERTEX
  8
0
  6
CONTINUOUS
 62
     7
 10
186.7057660429036
 20
32.48975792927568
 42
0.06129076698107607
  0
VERTEX
  8
0
  6
CONTINUOUS
 62
     7
 10
187.2138233409886
 20
33.06985893108443
 42
0.05807941563645427
  0
VERTEX
  8
0
  6
CONTINUOUS
 62
     7
 10
187.5708207080131
 20
33.75385261964508
 42
0.05590519749509739
  0
VERTEX
  8
0
  6
CONTINUOUS
 62
     7
 10
187.7644802686475
 20
34.50099622204692
 42
0.0549645137933048
  0
VERTEX
  8
0
  6
CONTINUOUS
 62
     7
 10
187.7894958149283
 20
35.2717185389976
 42
0.05547380426697311
  0
VERTEX
  8
0
  6
CONTINUOUS
 62
     7
 10
187.6454164944476
 20
36.0296076298512
 42
0.05728029110114662
  0
VERTEX
  8
0
  6
CONTINUOUS
 62
     7
 10
187.3360068694144
 20
36.73604917339805
 42
0.0602681258248084
  0
VERTEX
  8
0
  6
CONTINUOUS
 62
     7
 10
186.8707682757452
 20
37.35135834701391
 42
0.06395226361164196
  0
VERTEX
  8
0
  6
CONTINUOUS
 62
     7
 10
186.268562461197
 20
37.83373747546518
 42
0.06744483597511643
  0
VERTEX
  8
0
  6
CONTINUOUS
 62
     7
 10
185.561905759659
 20
38.14320047356274
 42
0.06944159969535681
  0
VERTEX
  8
0
  6
CONTINUOUS
 62
     7
 10
184.8000183105469
 20
38.249755859375
 42
0
  0
SEQEND
  8
0
  0
TEXT
  8
0
  6
CONTINUOUS
 62
     7
 10
-1.285500049591065
 20
-21.79999995231628
 40
3.599999904632568
 41
0.8463235853572091
  1
ＨＳＲ３０ＲＭ
  0
ENDSEC
  0
EOF
