  0
SECTION
  2
HEADER
  0
ENDSEC
  0
SECTION
  2
TABLES
  0
TABLE
  2
LTYPE
 70
    22
  0
LTYPE
  2
CONTINUOUS
 70
    64
  3
Solid line
 72
    65
 73
     0
 40
0.000000
  0
LTYPE
  2
DASHED
 70
    64
  3
__ __ __ __ __ __ __ __ __ __ __ __ __ __ __
 72
    65
 73
     2
 40
3.500000
 49
2.000000
 49
-1.500000
  0
LTYPE
  2
CENTER
 70
    64
  3
____ _ ____ _ ____ _ ____ _ ____ _ ____ _ ____
 72
    65
 73
     4
 40
17.500000
 49
13.000000
 49
-1.500000
 49
1.500000
 49
-1.500000
  0
LTYPE
  2
PHANTOM
 70
    64
  3
_____ _ _ _____ _ _ _____ _ _ _____ _ _ ____  
 72
    65
 73
     6
 40
15.500000
 49
8.000000
 49
-1.500000
 49
1.500000
 49
-1.500000
 49
1.500000
 49
-1.500000
  0
LTYPE
  2
DOT
 70
    64
  3
. . . . . . . . . . . . . . . . . . . . . . . .
 72
    65
 73
     2
 40
0.25
 49
0.0
 49
-0.25
  0
ENDTAB
  0
TABLE
  2
LAYER
 70
     1
  0
LAYER
  2
0
 70
     0
 62
     7
  6
CONTINUOUS
  0
ENDTAB
  0
TABLE
  2
STYLE
 70
     1
  0
STYLE
  2
STANDARD
 70
     0
 40
0.000000
 41
1.000000
 50
0.000000
 71
     0
 42
0.200000
  3
txt
  4
BIGFONT
  0
ENDTAB
  0
TABLE
  2
VIEW
 70
     0
  0
ENDTAB
  0
ENDSEC
  0
SECTION
  2
BLOCKS
  0
ENDSEC
  0
SECTION
  2
ENTITIES
  0
LINE
  8
0
  6
CONTINUOUS
 62
     7
 10
100.0000305175781
 20
28.999755859375
 11
183.9996185302734
 21
28.999755859375
  0
LINE
  8
0
  6
CONTINUOUS
 62
     7
 10
183.9996185302734
 20
46
 11
188.7996215820313
 21
46
  0
LINE
  8
0
  6
CONTINUOUS
 62
     7
 10
183.9996185302734
 20
9.5
 11
188.7996215820313
 21
9.5
  0
LINE
  8
0
  6
CONTINUOUS
 62
     7
 10
187.2996215820313
 20
46
 11
187.2996215820313
 21
9.5
  0
LINE
  8
0
  6
CONTINUOUS
 62
     7
 10
11.80029296875
 20
17.68017578125
 11
11.80029296875
 21
12.2001953125
  0
LINE
  8
0
  6
CONTINUOUS
 62
     7
 10
189.7996215820313
 20
47
 11
199.7996215820313
 21
47
  0
LINE
  8
0
  6
CONTINUOUS
 62
     7
 10
291.2003173828125
 20
45.99973297119141
 11
290.2004089355469
 21
46.99961853027344
  0
LINE
  8
0
  6
CONTINUOUS
 62
     7
 10
11.8001766204834
 20
17.67990112304688
 11
13.63820457458496
 21
19.51792907714844
  0
LINE
  8
0
  6
CONTINUOUS
 62
     7
 10
-16.99972915649414
 20
6.999951362609863
 11
-11.79966354370117
 21
12.20001792907715
  0
LINE
  8
0
  6
CONTINUOUS
 62
     7
 10
-3.24951171875
 20
0
 11
3.25
 21
0
  0
LINE
  8
0
  6
CONTINUOUS
 62
     7
 10
280.1998901367188
 20
9.39990234375
 11
291.1998901367188
 21
9.39990234375
  0
LINE
  8
0
  6
CONTINUOUS
 62
     7
 10
280.1998901367188
 20
47
 11
290.1998901367188
 21
47
  0
LINE
  8
0
  6
CONTINUOUS
 62
     7
 10
291.1998901367188
 20
9.5
 11
295.9998779296875
 21
9.5
  0
LINE
  8
0
  6
CONTINUOUS
 62
     7
 10
15.5
 20
0
 11
8.75
 21
0
  0
LINE
  8
0
  6
CONTINUOUS
 62
     7
 10
-17
 20
25.110107421875
 11
-17
 21
22.880126953125
  0
LINE
  8
0
  6
CONTINUOUS
 62
     7
 10
17
 20
25.110107421875
 11
17
 21
22.880126953125
  0
LINE
  8
0
  6
CONTINUOUS
 62
     7
 10
-13.10986328125
 20
29
 11
13.1103515625
 21
29
  0
LINE
  8
0
  6
CENTER
 62
     7
 10
200.0000305175781
 20
10.5
 11
200.0000305175781
 21
-1
  0
LINE
  8
0
  6
CONTINUOUS
 62
     7
 10
189.7992248535156
 20
46.99945449829102
 11
188.7993316650391
 21
45.99956893920898
  0
LINE
  8
0
  6
CONTINUOUS
 62
     7
 10
188.7996215820313
 20
46
 11
188.7996215820313
 21
9.39990234375
  0
LINE
  8
0
  6
CONTINUOUS
 62
     7
 10
188.7996215820313
 20
9.39990234375
 11
199.7996215820313
 21
9.39990234375
  0
LINE
  8
0
  6
CONTINUOUS
 62
     7
 10
295.9998779296875
 20
28.999755859375
 11
379.9997253417969
 21
28.999755859375
  0
LINE
  8
0
  6
CONTINUOUS
 62
     7
 10
-8.750092506408691
 20
0.0001814000424928963
 11
-8.249973297119141
 21
0.5003006458282471
  0
LINE
  8
0
  6
CONTINUOUS
 62
     7
 10
-8.25
 20
0.5
 11
-3.75
 21
0.5
  0
LINE
  8
0
  6
CONTINUOUS
 62
     7
 10
-3.749935865402222
 20
0.5001278519630432
 11
-3.24998927116394
 21
0.0001812314440030605
  0
LINE
  8
0
  6
CONTINUOUS
 62
     7
 10
3.75
 20
0.5
 11
8.2451171875
 21
0.5
  0
LINE
  8
0
  6
CONTINUOUS
 62
     7
 10
3.250007152557373
 20
0.0001812314440030605
 11
3.749953746795654
 21
0.5001278519630432
  0
LINE
  8
0
  6
CONTINUOUS
 62
     7
 10
16.48113250732422
 20
22.3608570098877
 11
17.00024223327637
 21
22.87996673583984
  0
LINE
  8
0
  6
CONTINUOUS
 62
     7
 10
8.245157241821289
 20
0.4999553561210632
 11
8.74510383605957
 21
8.76654485182371E-006
  0
LINE
  8
0
  6
CONTINUOUS
 62
     7
 10
-8.750273704528809
 20
0
 11
-15.49951171875
 21
0
  0
LINE
  8
0
  6
CONTINUOUS
 62
     7
 10
13.11029148101807
 20
28.99999618530273
 11
13.63993167877197
 21
28.47035598754883
  0
LINE
  8
0
  6
CONTINUOUS
 62
     7
 10
-16.99990081787109
 20
22.87998771667481
 11
-16.48061943054199
 21
22.3607063293457
  0
LINE
  8
0
  6
CONTINUOUS
 62
     7
 10
11.79983139038086
 20
12.20016765594482
 11
16.99989700317383
 21
7.000102043151856
  0
LINE
  8
0
  6
CONTINUOUS
 62
     7
 10
-11.7998046875
 20
17.68017578125
 11
-11.7998046875
 21
12.2001953125
  0
LINE
  8
0
  6
CONTINUOUS
 62
     7
 10
-16.99957847595215
 20
1.499904990196228
 11
-15.49973773956299
 21
6.549624959006906E-005
  0
LINE
  8
0
  6
CONTINUOUS
 62
     7
 10
-17
 20
7
 11
-17
 21
1.5
  0
LINE
  8
0
  6
CONTINUOUS
 62
     7
 10
17
 20
7
 11
17
 21
1.5
  0
LINE
  8
0
  6
CONTINUOUS
 62
     7
 10
-16.99972915649414
 20
25.10989570617676
 11
-16.468017578125
 21
25.6416072845459
  0
LINE
  8
0
  6
CONTINUOUS
 62
     7
 10
16.46835899353027
 20
25.64192962646484
 11
17.00006866455078
 21
25.1102180480957
  0
LINE
  8
0
  6
CONTINUOUS
 62
     7
 10
-13.63769149780273
 20
19.51777839660645
 11
-11.79983520507813
 21
17.67992210388184
  0
LINE
  8
0
  6
CONTINUOUS
 62
     7
 10
-13.63941860198975
 20
28.47020721435547
 11
-13.10977840423584
 21
28.99984550476074
  0
LINE
  8
0
  6
CONTINUOUS
 62
     7
 10
16.99998474121094
 20
1.500088453292847
 11
15.49997138977051
 21
7.628580351592973E-005
  0
LINE
  8
0
  6
CONTINUOUS
 62
     7
 10
-1.130480170249939
 20
40.00008010864258
 11
-1.780468344688416
 21
43.50005340576172
  0
LINE
  8
0
  6
CONTINUOUS
 62
     7
 10
-1.13011360168457
 20
39.99988555908203
 11
-1.780101895332336
 21
36.49991607666016
  0
LINE
  8
0
  6
CONTINUOUS
 62
     7
 10
-1.7802734375
 20
36.5
 11
-5.8603515625
 21
36.5
  0
LINE
  8
0
  6
CENTER
 62
     7
 10
5
 20
40
 11
-15.71283149719238
 21
40
  0
LINE
  8
0
  6
CONTINUOUS
 62
     7
 10
-1.7802734375
 20
43.5
 11
-5.8603515625
 21
43.5
  0
LINE
  8
0
  6
CONTINUOUS
 62
     7
 10
-3.440176248550415
 20
40.00005340576172
 11
-4.090178966522217
 21
36.50008392333984
  0
LINE
  8
0
  6
CONTINUOUS
 62
     7
 10
-7.750216484069824
 20
43.25014495849609
 11
-10.52011108398438
 21
42.50017547607422
  0
LINE
  8
0
  6
CONTINUOUS
 62
     7
 10
-7.766227722167969
 20
36.75453948974609
 11
-10.52009773254395
 21
37.50017166137695
  0
LINE
  8
0
  6
CONTINUOUS
 62
     7
 10
-5.950089931488037
 20
43.02008438110352
 11
-5.860096454620361
 21
43.5
  0
LINE
  8
0
  6
CONTINUOUS
 62
     7
 10
-3.440397024154663
 20
39.99991607666016
 11
-4.090444564819336
 21
43.5001220703125
  0
LINE
  8
0
  6
CONTINUOUS
 62
     7
 10
-5.950046062469482
 20
36.97017288208008
 11
-5.85999345779419
 21
36.49995803833008
  0
LINE
  8
0
  6
CONTINUOUS
 62
     7
 10
-0.0005430869641713798
 20
35.38101959228516
 11
-1.947719812393189
 21
36.50009918212891
  0
LINE
  8
0
  6
CONTINUOUS
 62
     7
 10
34.00017166137695
 20
11.49984741210938
 11
32.00020980834961
 21
9.499888420104981
  0
LINE
  8
0
  6
CONTINUOUS
 62
     7
 10
32.00037002563477
 20
45.99978256225586
 11
34.00015258789063
 21
43.99999237060547
  0
LINE
  8
0
  6
CONTINUOUS
 62
     7
 10
-32.00015640258789
 20
46
 11
32
 21
46
  0
LINE
  8
0
  6
CONTINUOUS
 62
     7
 10
0.0005208515212871134
 20
44.61916351318359
 11
-1.937887668609619
 21
43.50002670288086
  0
LINE
  8
0
  6
CONTINUOUS
 62
     7
 10
34
 20
44
 11
34
 21
11.5
  0
LINE
  8
0
  6
CENTER
 62
     7
 10
-22.25
 20
10.532958984375
 11
-22.25
 21
6.932125091552734
  0
LINE
  8
0
  6
CONTINUOUS
 62
     7
 10
-33.19970703125
 20
9.5
 11
-14.49951171875
 21
9.5
  0
LINE
  8
0
  6
CONTINUOUS
 62
     7
 10
-34
 20
11.5
 11
-34
 21
33.591064453125
  0
LINE
  8
0
  6
CONTINUOUS
 62
     7
 10
-31.99961280822754
 20
9.499927520751953
 11
-33.9997444152832
 21
11.50005626678467
  0
LINE
  8
0
  6
CONTINUOUS
 62
     7
 10
14.5
 20
9.5
 11
33.2001953125
 21
9.5
  0
LINE
  8
0
  6
CONTINUOUS
 62
     7
 10
3.999995470046997
 20
42.30986785888672
 11
0.0003365675220265985
 21
44.61907196044922
  0
LINE
  8
0
  6
CONTINUOUS
 62
     7
 10
3.999673843383789
 20
37.69047546386719
 11
-0.000619396916590631
 21
35.38090515136719
  0
LINE
  8
0
  6
CONTINUOUS
 62
     7
 10
4
 20
42.31005859375
 11
4
 21
37.690673828125
  0
LINE
  8
0
  6
CENTER
 62
     7
 10
22.25
 20
6.932125091552734
 11
22.25
 21
10.532958984375
  0
LINE
  8
0
  6
CENTER
 62
     7
 10
0
 20
56
 11
0
 21
-1
  0
LINE
  8
0
  6
DASHED
 62
     7
 10
-7
 20
29
 11
-7
 21
17
  0
LINE
  8
0
  6
DASHED
 62
     7
 10
7
 20
29
 11
7
 21
17
  0
LINE
  8
0
  6
DASHED
 62
     7
 10
-4.5
 20
17
 11
-4.5
 21
0.5
  0
LINE
  8
0
  6
DASHED
 62
     7
 10
4.5
 20
17
 11
4.5
 21
0.5
  0
LINE
  8
0
  6
DASHED
 62
     7
 10
-7
 20
17
 11
7
 21
17
  0
LINE
  8
0
  6
CONTINUOUS
 62
     7
 10
34.70027923583984
 20
10.9999303817749
 11
33.20026397705078
 21
9.499923706054688
  0
LINE
  8
0
  6
CENTER
 62
     7
 10
11
 20
45
 11
11
 21
35
  0
LINE
  8
0
  6
CENTER
 62
     7
 10
-11
 20
35
 11
-11
 21
45
  0
LINE
  8
0
  6
CONTINUOUS
 62
     7
 10
199.7998657226563
 20
9.5
 11
280.1998901367188
 21
9.5
  0
LINE
  8
0
  6
CENTER
 62
     7
 10
270.0001831054688
 20
6.93212890625
 11
270.0001831054688
 21
10.53271484375
  0
LINE
  8
0
  6
CENTER
 62
     7
 10
209.9998168945313
 20
6.93212890625
 11
209.9998168945313
 21
10.53271484375
  0
LINE
  8
0
  6
CONTINUOUS
 62
     7
 10
199.7998657226563
 20
53.39990234375
 11
199.7998657226563
 21
9.5
  0
LINE
  8
0
  6
CONTINUOUS
 62
     7
 10
280.1998901367188
 20
9.5
 11
280.1998901367188
 21
53.39990234375
  0
LINE
  8
0
  6
CONTINUOUS
 62
     7
 10
201.3992309570313
 20
55
 11
278.5997924804688
 21
55
  0
LINE
  8
0
  6
CONTINUOUS
 62
     7
 10
199.7993621826172
 20
53.40004730224609
 11
201.3993225097656
 21
55.00001525878906
  0
LINE
  8
0
  6
CONTINUOUS
 62
     7
 10
278.5998840332031
 20
54.99996185302734
 11
280.1998596191406
 21
53.39999008178711
  0
LINE
  8
0
  6
CONTINUOUS
 62
     7
 10
291.1998901367188
 20
9.39990234375
 11
291.1998901367188
 21
46
  0
LINE
  8
0
  6
CONTINUOUS
 62
     7
 10
292.6998901367188
 20
9.5
 11
292.6998901367188
 21
46
  0
LINE
  8
0
  6
CONTINUOUS
 62
     7
 10
291.1998901367188
 20
46
 11
295.9998779296875
 21
46
  0
LINE
  8
0
  6
CENTER
 62
     7
 10
16
 20
40
 11
6
 21
40
  0
LINE
  8
0
  6
CONTINUOUS
 62
     7
 10
-34.00017166137695
 20
11.49984741210938
 11
-32.00020980834961
 21
9.499888420104981
  0
LINE
  8
0
  6
CONTINUOUS
 62
     7
 10
-32.00037002563477
 20
45.99978256225586
 11
-34.00015258789063
 21
43.99999237060547
  0
LINE
  8
0
  6
CONTINUOUS
 62
     7
 10
-34
 20
44
 11
-34
 21
11.5
  0
LINE
  8
0
  6
CONTINUOUS
 62
     7
 10
100.0000305175781
 20
0
 11
379.9997253417969
 21
0
  0
LINE
  8
0
  6
CENTER
 62
     7
 10
280.0003356933594
 20
10.5
 11
280.0000305175781
 21
-1
  0
LINE
  8
0
  6
CONTINUOUS
 62
     7
 10
100.0000305175781
 20
28.999755859375
 11
100.0000305175781
 21
0
  0
LINE
  8
0
  6
CENTER
 62
     7
 10
120.0000305175781
 20
29.999755859375
 11
120.0000305175781
 21
-1
  0
LINE
  8
0
  6
DASHED
 62
     7
 10
113.0000305175781
 20
28.999755859375
 11
113.0000305175781
 21
17
  0
LINE
  8
0
  6
DASHED
 62
     7
 10
127.0000305175781
 20
28.999755859375
 11
127.0000305175781
 21
17
  0
LINE
  8
0
  6
DASHED
 62
     7
 10
115.5000305175781
 20
17
 11
115.5000305175781
 21
0
  0
LINE
  8
0
  6
DASHED
 62
     7
 10
124.5000305175781
 20
17
 11
124.5000305175781
 21
0
  0
LINE
  8
0
  6
DASHED
 62
     7
 10
113.0000305175781
 20
17
 11
127.0000305175781
 21
17
  0
LINE
  8
0
  6
CONTINUOUS
 62
     7
 10
100.0000305175781
 20
25.1102180480957
 11
183.9996185302734
 21
25.1102180480957
  0
LINE
  8
0
  6
CONTINUOUS
 62
     7
 10
100.0000305175781
 20
22.880126953125
 11
183.9996185302734
 21
22.880126953125
  0
LINE
  8
0
  6
CONTINUOUS
 62
     7
 10
100.0000305175781
 20
17.67990112304688
 11
183.9996185302734
 21
17.67990112304688
  0
LINE
  8
0
  6
CONTINUOUS
 62
     7
 10
100.0000305175781
 20
12.2001953125
 11
183.9996185302734
 21
12.2001953125
  0
LINE
  8
0
  6
CONTINUOUS
 62
     7
 10
100.0000305175781
 20
7.000102043151856
 11
379.9997253417969
 21
7.000102043151856
  0
LINE
  8
0
  6
CENTER
 62
     7
 10
359.9997253417969
 20
29.999755859375
 11
359.9997253417969
 21
-1
  0
LINE
  8
0
  6
CONTINUOUS
 62
     7
 10
379.9997253417969
 20
28.999755859375
 11
379.9997253417969
 21
0
  0
LINE
  8
0
  6
CONTINUOUS
 62
     7
 10
379.9997253417969
 20
22.880126953125
 11
295.9998779296875
 21
22.880126953125
  0
LINE
  8
0
  6
CONTINUOUS
 62
     7
 10
379.9997253417969
 20
12.2001953125
 11
295.9998779296875
 21
12.2001953125
  0
LINE
  8
0
  6
CONTINUOUS
 62
     7
 10
379.9997253417969
 20
25.1102180480957
 11
295.9998779296875
 21
25.1102180480957
  0
LINE
  8
0
  6
CONTINUOUS
 62
     7
 10
379.9997253417969
 20
17.67990112304688
 11
295.9998779296875
 21
17.67990112304688
  0
LINE
  8
0
  6
CENTER
 62
     7
 10
280.0000305175781
 20
10.5
 11
280.0000305175781
 21
-1
  0
LINE
  8
0
  6
CENTER
 62
     7
 10
93.93994903564453
 20
150
 11
380.9997253417969
 21
150
  0
LINE
  8
0
  6
CONTINUOUS
 62
     7
 10
100.0000305175781
 20
133
 11
183.9996185302734
 21
133
  0
LINE
  8
0
  6
CONTINUOUS
 62
     7
 10
100.0000305175781
 20
136.8897094726563
 11
183.9996185302734
 21
136.8897094726563
  0
LINE
  8
0
  6
CENTER
 62
     7
 10
120.0000305175781
 20
158
 11
120.0000305175781
 21
142
  0
LINE
  8
0
  6
CONTINUOUS
 62
     7
 10
183.9996185302734
 20
116
 11
199.7998657226563
 21
116
  0
LINE
  8
0
  6
CONTINUOUS
 62
     7
 10
379.9997253417969
 20
133
 11
295.9996337890625
 21
133
  0
LINE
  8
0
  6
CONTINUOUS
 62
     7
 10
379.9997253417969
 20
136.8897094726563
 11
295.9996337890625
 21
136.8897094726563
  0
LINE
  8
0
  6
CONTINUOUS
 62
     7
 10
295.9996337890625
 20
116
 11
280.1996154785156
 21
116
  0
LINE
  8
0
  6
CENTER
 62
     7
 10
360.0000305175781
 20
158
 11
360.0000305175781
 21
142
  0
LINE
  8
0
  6
CONTINUOUS
 62
     7
 10
100.0000305175781
 20
167
 11
183.9996185302734
 21
167
  0
LINE
  8
0
  6
CONTINUOUS
 62
     7
 10
100.0000305175781
 20
133
 11
100.0000305175781
 21
167
  0
LINE
  8
0
  6
CONTINUOUS
 62
     7
 10
100.0000305175781
 20
163.1102905273438
 11
183.9996185302734
 21
163.1102905273438
  0
LINE
  8
0
  6
CONTINUOUS
 62
     7
 10
183.9996185302734
 20
184
 11
199.7998657226563
 21
184
  0
LINE
  8
0
  6
CONTINUOUS
 62
     7
 10
187.2996215820313
 20
116
 11
187.2996215820313
 21
184
  0
LINE
  8
0
  6
CONTINUOUS
 62
     7
 10
188.7996215820313
 20
116
 11
188.7996215820313
 21
184
  0
LINE
  8
0
  6
CONTINUOUS
 62
     7
 10
379.9997253417969
 20
163.1102905273438
 11
295.9996337890625
 21
163.1102905273438
  0
LINE
  8
0
  6
CONTINUOUS
 62
     7
 10
379.9997253417969
 20
133
 11
379.9997253417969
 21
167
  0
LINE
  8
0
  6
CONTINUOUS
 62
     7
 10
379.9997253417969
 20
167
 11
295.9996337890625
 21
167
  0
LINE
  8
0
  6
CONTINUOUS
 62
     7
 10
295.9996337890625
 20
184
 11
280.1996154785156
 21
184
  0
LINE
  8
0
  6
CONTINUOUS
 62
     7
 10
181.1997222900391
 20
146
 11
183.9996185302734
 21
146
  0
LINE
  8
0
  6
CONTINUOUS
 62
     7
 10
182.8197479248047
 20
154
 11
183.9996185302734
 21
154
  0
LINE
  8
0
  6
CONTINUOUS
 62
     7
 10
177.1997222900391
 20
150
 11
177.1997222900391
 21
151.672119140625
  0
LINE
  8
0
  6
CENTER
 62
     7
 10
176.7514953613281
 20
161.5221099853516
 11
181.6167907714844
 21
149.7762145996094
  0
LINE
  8
0
  6
CONTINUOUS
 62
     7
 10
174.982421875
 20
159.5215454101563
 11
179.4170379638672
 21
161.3584289550781
  0
LINE
  8
0
  6
CONTINUOUS
 62
     7
 10
175.1841735839844
 20
156.6826477050781
 11
181.2817687988281
 21
159.2083587646484
  0
LINE
  8
0
  6
CONTINUOUS
 62
     7
 10
174.9824066162109
 20
159.5215606689453
 11
175.1841735839844
 21
156.6826629638672
  0
LINE
  8
0
  6
CONTINUOUS
 62
     7
 10
179.4170379638672
 20
161.3584289550781
 11
181.2817840576172
 21
159.2083587646484
  0
LINE
  8
0
  6
CONTINUOUS
 62
     7
 10
175.9228820800781
 20
152.9618072509766
 11
176.3375549316406
 21
151.9607238769531
  0
LINE
  8
0
  6
CONTINUOUS
 62
     7
 10
183.3904876708984
 20
156.0549926757813
 11
183.8051300048828
 21
155.0539245605469
  0
LINE
  8
0
  6
CONTINUOUS
 62
     7
 10
177.1169891357422
 20
151.6379089355469
 11
176.3375549316406
 21
151.9607696533203
  0
LINE
  8
0
  6
CONTINUOUS
 62
     7
 10
177.5601806640625
 20
154.2893981933594
 11
178.4327545166016
 21
152.1828308105469
  0
LINE
  8
0
  6
CONTINUOUS
 62
     7
 10
181.2939758300781
 20
155.8359832763672
 11
182.1665344238281
 21
153.7294158935547
  0
LINE
  8
0
  6
CONTINUOUS
 62
     7
 10
177.1170043945313
 20
151.6378326416016
 11
183.4823150634766
 21
154.2744293212891
  0
LINE
  8
0
  6
CONTINUOUS
 62
     7
 10
183.8051452636719
 20
155.0539398193359
 11
183.4822845458984
 21
154.2744903564453
  0
LINE
  8
0
  6
CONTINUOUS
 62
     7
 10
176.314453125
 20
155.2605133056641
 11
181.4881591796875
 21
157.4035491943359
  0
LINE
  8
0
  6
CONTINUOUS
 62
     7
 10
176.1526794433594
 20
153.7064208984375
 11
182.7015075683594
 21
156.4189910888672
  0
LINE
  8
0
  6
CONTINUOUS
 62
     7
 10
-34.50001525878906
 20
31.30008316040039
 11
-34.19972991943359
 21
31.60036849975586
  0
LINE
  8
0
  6
CONTINUOUS
 62
     7
 10
-34.5
 20
54.04999923706055
 11
-34.5
 21
39.90029525756836
  0
LINE
  8
0
  6
CONTINUOUS
 62
     7
 10
-34.49999237060547
 20
54.04999923706055
 11
-33.54999923706055
 21
54.99999237060547
  0
LINE
  8
0
  6
CONTINUOUS
 62
     7
 10
-34.5
 20
31.30007171630859
 11
-34.5
 21
15.80029678344727
  0
LINE
  8
0
  6
CONTINUOUS
 62
     7
 10
-34.50001525878906
 20
15.80029201507568
 11
-34.19972991943359
 21
15.50000762939453
  0
LINE
  8
0
  6
DASHED
 62
     7
 10
-24.5001335144043
 20
43.00020599365234
 11
-23.46072006225586
 21
43.60031127929688
  0
LINE
  8
0
  6
DASHED
 62
     7
 10
-24.50002479553223
 20
51.0003662109375
 11
-23.46060752868652
 21
50.4002685546875
  0
LINE
  8
0
  6
DASHED
 62
     7
 10
-21.20036697387695
 20
50.39998626708984
 11
-19.23736190795898
 21
46.99996185302734
  0
LINE
  8
0
  6
DASHED
 62
     7
 10
-21.19996452331543
 20
43.60021209716797
 11
-19.23706436157227
 21
47.00003433227539
  0
LINE
  8
0
  6
DASHED
 62
     7
 10
-24.50000190734863
 20
42.99999618530273
 11
-24.50000190734863
 21
51
  0
LINE
  8
0
  6
DASHED
 62
     7
 10
-21.20012092590332
 20
43.60010147094727
 11
-21.20012092590332
 21
50.40038681030273
  0
LINE
  8
0
  6
DASHED
 62
     7
 10
-34.5
 20
43.60010147094727
 11
-21.19998359680176
 21
43.60010147094727
  0
LINE
  8
0
  6
DASHED
 62
     7
 10
-34.5
 20
50.40038681030273
 11
-21.2005786895752
 21
50.40038681030273
  0
LINE
  8
0
  6
DASHED
 62
     7
 10
-34.5
 20
42.99999618530273
 11
-24.50045967102051
 21
42.99999618530273
  0
LINE
  8
0
  6
DASHED
 62
     7
 10
-34.5
 20
51
 11
-24.49936103820801
 21
51
  0
LINE
  8
0
  6
CENTER
 62
     7
 10
-35.5
 20
47.00000381469727
 11
-18.06750679016113
 21
47.00000381469727
  0
LINE
  8
0
  6
CONTINUOUS
 62
     7
 10
-4.89990234375
 20
54.99999618530273
 11
4.900405883789063
 21
54.99999618530273
  0
LINE
  8
0
  6
CONTINUOUS
 62
     7
 10
34.70021438598633
 20
44.69994735717773
 11
35.0002555847168
 21
44.9999885559082
  0
LINE
  8
0
  6
CONTINUOUS
 62
     7
 10
-34.19974517822266
 20
39.60000610351563
 11
-34.50003051757813
 21
39.90028762817383
  0
LINE
  8
0
  6
CONTINUOUS
 62
     7
 10
16.10009765625
 20
54.99999618530273
 11
33.50001525878906
 21
54.99999618530273
  0
LINE
  8
0
  6
CONTINUOUS
 62
     7
 10
-15.30000972747803
 20
54.20016098022461
 11
-16.10001373291016
 21
55.00014495849609
  0
LINE
  8
0
  6
CONTINUOUS
 62
     7
 10
34.70009613037109
 20
11.00015640258789
 11
33.20007705688477
 21
9.500142097473145
  0
LINE
  8
0
  6
CONTINUOUS
 62
     7
 10
5.700071334838867
 20
54.19999694824219
 11
4.900069236755371
 21
54.99998092651367
  0
LINE
  8
0
  6
CONTINUOUS
 62
     7
 10
-5.700009346008301
 20
54.20017242431641
 11
-4.900023460388184
 21
55.00014114379883
  0
LINE
  8
0
  6
CONTINUOUS
 62
     7
 10
15.30039501190186
 20
54.19988250732422
 11
16.10039901733398
 21
54.9998664855957
  0
LINE
  8
0
  6
CONTINUOUS
 62
     7
 10
5.700210571289063
 20
54.20019149780273
 11
15.30029296875
 21
54.20019149780273
  0
LINE
  8
0
  6
CONTINUOUS
 62
     7
 10
-33.19956970214844
 20
9.50003719329834
 11
-34.19972991943359
 21
10.5002031326294
  0
LINE
  8
0
  6
CONTINUOUS
 62
     7
 10
33.49975967407227
 20
55.00014877319336
 11
34.99995422363281
 21
53.49995422363281
  0
LINE
  8
0
  6
CONTINUOUS
 62
     7
 10
-15.29978942871094
 20
54.20019149780273
 11
-5.69970703125
 21
54.20019149780273
  0
LINE
  8
0
  6
CONTINUOUS
 62
     7
 10
-34.19970703125
 20
39.60000228881836
 11
-34.19970703125
 21
31.60036468505859
  0
LINE
  8
0
  6
CONTINUOUS
 62
     7
 10
34.70022583007813
 20
44.69994354248047
 11
34.70022583007813
 21
11.00000381469727
  0
LINE
  8
0
  6
CONTINUOUS
 62
     7
 10
35.00001525878906
 20
53.49999618530273
 11
35.00001525878906
 21
44.99999618530273
  0
LINE
  8
0
  6
CONTINUOUS
 62
     7
 10
-33.55000305175781
 20
54.99999618530273
 11
-16.09959411621094
 21
54.99999618530273
  0
LINE
  8
0
  6
CONTINUOUS
 62
     7
 10
-34.19970703125
 20
15.50000381469727
 11
-34.19970703125
 21
10.50018310546875
  0
LINE
  8
0
  6
CENTER
 62
     7
 10
218.4999084472656
 20
52.00000762939453
 11
218.4999084472656
 21
42.00000762939453
  0
LINE
  8
0
  6
CENTER
 62
     7
 10
213.4999084472656
 20
47.00000762939453
 11
223.4999084472656
 21
47.00000762939453
  0
LINE
  8
0
  6
CENTER
 62
     7
 10
261.4998474121094
 20
52.00000762939453
 11
261.4998474121094
 21
42.00000762939453
  0
LINE
  8
0
  6
CENTER
 62
     7
 10
256.4998474121094
 20
47.00000762939453
 11
266.4998474121094
 21
47.00000762939453
  0
LINE
  8
0
  6
CENTER
 62
     7
 10
261.4998474121094
 20
28.99999237060547
 11
261.4998474121094
 21
18.99999237060547
  0
LINE
  8
0
  6
CENTER
 62
     7
 10
256.4998474121094
 20
23.99999237060547
 11
266.4998474121094
 21
23.99999237060547
  0
LINE
  8
0
  6
CENTER
 62
     7
 10
218.4999084472656
 20
28.99999237060547
 11
218.4999084472656
 21
18.99999237060547
  0
LINE
  8
0
  6
CENTER
 62
     7
 10
213.4999084472656
 20
23.99999237060547
 11
223.4999084472656
 21
23.99999237060547
  0
LINE
  8
0
  6
CENTER
 62
     7
 10
-35.5
 20
24.00000190734863
 11
-18.06750679016113
 21
24.00000190734863
  0
LINE
  8
0
  6
CONTINUOUS
 62
     7
 10
199.7998657226563
 20
42.99999618530273
 11
280.1998901367188
 21
42.99999618530273
  0
LINE
  8
0
  6
CENTER
 62
     7
 10
189.2281341552734
 20
40.00001525878906
 11
173.2996673583984
 21
40.00001525878906
  0
LINE
  8
0
  6
CONTINUOUS
 62
     7
 10
183.9996185302734
 20
36.00001525878906
 11
180.6216278076172
 21
36.00001525878906
  0
LINE
  8
0
  6
CONTINUOUS
 62
     7
 10
177.3995208740234
 20
43.50001525878906
 11
178.7217864990234
 21
43.50001525878906
  0
LINE
  8
0
  6
CONTINUOUS
 62
     7
 10
177.3995208740234
 20
36.50001525878906
 11
178.6849517822266
 21
36.50001525878906
  0
LINE
  8
0
  6
CONTINUOUS
 62
     7
 10
183.9996185302734
 20
44.00001525878906
 11
180.6216278076172
 21
44.00001525878906
  0
LINE
  8
0
  6
CONTINUOUS
 62
     7
 10
177.4988708496094
 20
37.50019073486328
 11
177.4993591308594
 21
42.50019073486328
  0
LINE
  8
0
  6
CONTINUOUS
 62
     7
 10
177.8995208740234
 20
36.50000762939453
 11
176.2674407958984
 21
40
  0
LINE
  8
0
  6
CONTINUOUS
 62
     7
 10
177.8995361328125
 20
43.49996566772461
 11
176.2674560546875
 21
39.99996948242188
  0
LINE
  8
0
  6
CONTINUOUS
 62
     7
 10
199.7998657226563
 20
114.9999847412109
 11
280.1996154785156
 21
114.9999847412109
  0
LINE
  8
0
  6
CONTINUOUS
 62
     7
 10
199.7998657226563
 20
184.5
 11
280.1996154785156
 21
184.5
  0
LINE
  8
0
  6
CONTINUOUS
 62
     7
 10
199.7998657226563
 20
166.0995941162109
 11
280.1996154785156
 21
166.0995941162109
  0
LINE
  8
0
  6
CONTINUOUS
 62
     7
 10
199.7998657226563
 20
154.89990234375
 11
280.1996154785156
 21
154.89990234375
  0
LINE
  8
0
  6
CONTINUOUS
 62
     7
 10
199.7998657226563
 20
133.89990234375
 11
280.1996154785156
 21
133.89990234375
  0
LINE
  8
0
  6
CONTINUOUS
 62
     7
 10
199.7998657226563
 20
145.0995941162109
 11
280.1996154785156
 21
145.0995941162109
  0
LINE
  8
0
  6
DASHED
 62
     7
 10
214.4998321533203
 20
174.5001373291016
 11
215.0999298095703
 21
173.4607238769531
  0
LINE
  8
0
  6
DASHED
 62
     7
 10
222.4999694824219
 20
174.5000152587891
 11
221.8998870849609
 21
173.4606018066406
  0
LINE
  8
0
  6
DASHED
 62
     7
 10
221.8995971679688
 20
171.2003631591797
 11
218.4995880126953
 21
169.2373657226563
  0
LINE
  8
0
  6
DASHED
 62
     7
 10
215.0998229980469
 20
171.1999664306641
 11
218.4996490478516
 21
169.2370758056641
  0
LINE
  8
0
  6
DASHED
 62
     7
 10
214.4996185302734
 20
174.5
 11
222.4996185302734
 21
174.5
  0
LINE
  8
0
  6
DASHED
 62
     7
 10
215.0997161865234
 20
171.2001190185547
 11
221.9000091552734
 21
171.2001190185547
  0
LINE
  8
0
  6
DASHED
 62
     7
 10
215.0997161865234
 20
184.5
 11
215.0997161865234
 21
171.1999816894531
  0
LINE
  8
0
  6
DASHED
 62
     7
 10
221.9000091552734
 20
184.5
 11
221.9000091552734
 21
171.2005767822266
  0
LINE
  8
0
  6
DASHED
 62
     7
 10
214.4996185302734
 20
184.5
 11
214.4996185302734
 21
174.5004577636719
  0
LINE
  8
0
  6
DASHED
 62
     7
 10
222.4996185302734
 20
184.5
 11
222.4996185302734
 21
174.4993591308594
  0
LINE
  8
0
  6
CENTER
 62
     7
 10
218.4996185302734
 20
185.5
 11
218.4996185302734
 21
168.0675048828125
  0
LINE
  8
0
  6
CONTINUOUS
 62
     7
 10
20.5
 20
26.55980491638184
 11
20.5
 21
21.42952537536621
  0
LINE
  8
0
  6
CONTINUOUS
 62
     7
 10
-5
 20
45.79999923706055
 11
-5
 21
43.5
  0
LINE
  8
0
  6
CONTINUOUS
 62
     7
 10
-15.30029106140137
 20
16.22981643676758
 11
-20.49999618530273
 21
21.42952156066895
  0
LINE
  8
0
  6
CONTINUOUS
 62
     7
 10
-15.30029773712158
 20
13.64957046508789
 11
-19.44986343383789
 21
9.500003814697266
  0
LINE
  8
0
  6
CONTINUOUS
 62
     7
 10
-15.30029296875
 20
16.22981834411621
 11
-15.30029296875
 21
13.64956665039063
  0
LINE
  8
0
  6
CONTINUOUS
 62
     7
 10
14.5598030090332
 20
32.5
 11
20.50000762939453
 21
26.55979728698731
  0
LINE
  8
0
  6
CONTINUOUS
 62
     7
 10
-20.5
 20
26.55980491638184
 11
-20.5
 21
21.42952537536621
  0
LINE
  8
0
  6
CONTINUOUS
 62
     7
 10
-14.55979442596436
 20
32.5
 11
14.55979442596436
 21
32.5
  0
LINE
  8
0
  6
CONTINUOUS
 62
     7
 10
5
 20
45.79999923706055
 11
5
 21
40
  0
LINE
  8
0
  6
CONTINUOUS
 62
     7
 10
-14.5598087310791
 20
32.50000381469727
 11
-20.5000057220459
 21
26.5598087310791
  0
LINE
  8
0
  6
CONTINUOUS
 62
     7
 10
15.30029296875
 20
16.22981834411621
 11
15.30029296875
 21
13.64956665039063
  0
LINE
  8
0
  6
CONTINUOUS
 62
     7
 10
15.30029392242432
 20
16.22981834411621
 11
20.50000190734863
 21
21.42952537536621
  0
LINE
  8
0
  6
CONTINUOUS
 62
     7
 10
15.3002872467041
 20
13.64957523345947
 11
19.44986534118652
 21
9.499998092651367
  0
LINE
  8
0
  6
CONTINUOUS
 62
     7
 10
183.9996185302734
 20
46
 11
183.9996185302734
 21
9.5
  0
LINE
  8
0
  6
CONTINUOUS
 62
     7
 10
295.9998779296875
 20
9.5
 11
295.9998779296875
 21
46
  0
LINE
  8
0
  6
CONTINUOUS
 62
     7
 10
183.9996185302734
 20
116
 11
183.9996185302734
 21
184
  0
LINE
  8
0
  6
CONTINUOUS
 62
     7
 10
199.7996215820313
 20
114.9999847412109
 11
199.7996215820313
 21
184.5
  0
LINE
  8
0
  6
CONTINUOUS
 62
     7
 10
280.1996154785156
 20
114.9999847412109
 11
280.1996154785156
 21
184.5
  0
LINE
  8
0
  6
CENTER
 62
     7
 10
261.4996337890625
 20
185.5
 11
261.4996337890625
 21
168.0675048828125
  0
LINE
  8
0
  6
CONTINUOUS
 62
     7
 10
295.9996337890625
 20
116
 11
295.9996337890625
 21
184
  0
LINE
  8
0
  6
CONTINUOUS
 62
     7
 10
292.6996154785156
 20
116
 11
292.6996154785156
 21
184
  0
LINE
  8
0
  6
CONTINUOUS
 62
     7
 10
291.1996154785156
 20
116
 11
291.1996154785156
 21
184
  0
LINE
  8
0
  6
CONTINUOUS
 62
     7
 10
-24.43427658081055
 20
8.487789154052734
 11
-24.43427658081055
 21
9.5
  0
LINE
  8
0
  6
CONTINUOUS
 62
     7
 10
-20.06523513793945
 20
8.487789154052734
 11
-20.06523513793945
 21
9.5
  0
LINE
  8
0
  6
CONTINUOUS
 62
     7
 10
207.8150482177734
 20
8.48779296875
 11
207.8150482177734
 21
9.5
  0
LINE
  8
0
  6
CONTINUOUS
 62
     7
 10
212.1840972900391
 20
8.48779296875
 11
212.1840972900391
 21
9.5
  0
ARC
  8
0
  6
CONTINUOUS
 62
     7
 10
-20.865234375
 20
8.487789154052734
 40
0.7999999523162841
 50
285.4426932088946
 51
0
  0
ARC
  8
0
  6
CONTINUOUS
 62
     7
 10
-22.25
 20
13.49999618530273
 40
6.000000000000001
 50
254.557342763284
 51
285.4426932088946
  0
ARC
  8
0
  6
CONTINUOUS
 62
     7
 10
0
 20
40
 40
3.998106002807614
 50
241.0940973430834
 51
118.9059846191866
  0
ARC
  8
0
  6
CONTINUOUS
 62
     7
 10
-7.6103515625
 20
42.2900390625
 40
0.9701610803604146
 50
35.33145867073599
 51
98.29711140253455
  0
ARC
  8
0
  6
CONTINUOUS
 62
     7
 10
211.3840942382813
 20
8.48779296875
 40
0.7999999523162812
 50
285.4426932088939
 51
0
  0
ARC
  8
0
  6
CONTINUOUS
 62
     7
 10
208.6150512695313
 20
8.48779296875
 40
0.7999999523162873
 50
180.0000050089564
 51
254.557270818926
  0
ARC
  8
0
  6
CONTINUOUS
 62
     7
 10
209.9998168945313
 20
13.5
 40
5.999999999999999
 50
254.557342763284
 51
285.4426932088946
  0
ARC
  8
0
  6
CONTINUOUS
 62
     7
 10
-6.6201171875
 20
35.920166015625
 40
1.246148109436036
 50
37.87496647613522
 51
99.23547011146756
  0
ARC
  8
0
  6
CONTINUOUS
 62
     7
 10
-7.6103515625
 20
37.710205078125
 40
0.9683421850204488
 50
261.7027793144387
 51
324.6685413292642
  0
ARC
  8
0
  6
CONTINUOUS
 62
     7
 10
-16.90966796875
 20
28.912109375
 40
3.299999237060548
 50
277.6916306142241
 51
352.308397617149
  0
ARC
  8
0
  6
CONTINUOUS
 62
     7
 10
0
 20
40
 40
3.999999999999998
 50
298.9550135382818
 51
299.9999778397804
  0
ARC
  8
0
  6
CONTINUOUS
 62
     7
 10
-6.6201171875
 20
44.080078125
 40
1.254199028015137
 50
260.7646391715591
 51
322.1250335238648
  0
ARC
  8
0
  6
CONTINUOUS
 62
     7
 10
-16.90966796875
 20
19.089111328125
 40
3.299999237060548
 50
7.469515366893473
 51
82.53043249607138
  0
ARC
  8
0
  6
CONTINUOUS
 62
     7
 10
-23.63427734375
 20
8.487789154052734
 40
0.7999999523162837
 50
180.0000050089564
 51
254.5573254604399
  0
ARC
  8
0
  6
CONTINUOUS
 62
     7
 10
16.91015625
 20
28.912109375
 40
3.299999237060546
 50
187.6916486003134
 51
262.3084053579546
  0
ARC
  8
0
  6
CONTINUOUS
 62
     7
 10
16.91015625
 20
19.089111328125
 40
3.299999237060549
 50
97.46947689023656
 51
172.5304691514954
  0
CIRCLE
  8
0
  6
CONTINUOUS
 62
     7
 10
120.0000305175781
 20
150
 40
4.5
  0
CIRCLE
  8
0
  6
CONTINUOUS
 62
     7
 10
120.0000305175781
 20
150
 40
7
  0
ARC
  8
0
  6
CONTINUOUS
 62
     7
 10
178.2329711914063
 20
157.9455261230469
 40
3.299999237060542
 50
202.5000451360349
 51
228.4196294889923
  0
ARC
  8
0
  6
CONTINUOUS
 62
     7
 10
178.2329711914063
 20
157.9455261230469
 40
3.299999237060539
 50
356.5803977035848
 51
22.49998184309913
  0
ARC
  8
0
  6
CONTINUOUS
 62
     7
 10
170.3166198730469
 20
155.0994262695313
 40
6.000000000000012
 50
339.1282601229507
 51
357.5663491706545
  0
ARC
  8
0
  6
CONTINUOUS
 62
     7
 10
185.8431549072266
 20
161.5307312011719
 40
5.999999999999995
 50
227.4336780219228
 51
245.8721834977224
  0
ARC
  8
0
  6
CONTINUOUS
 62
     7
 10
175.5119171142578
 20
154.8786315917969
 40
0.7999999523162794
 50
357.5669502273014
 51
48.42016725270368
  0
ARC
  8
0
  6
CONTINUOUS
 62
     7
 10
182.3256530761719
 20
157.7009735107422
 40
0.7999999523162715
 50
176.5798560839633
 51
227.4330186812965
  0
ARC
  8
0
  6
CONTINUOUS
 62
     7
 10
181.1997222900391
 20
150
 40
3.999999999999991
 50
179.9999776881995
 51
270.0000280040021
  0
CIRCLE
  8
0
  6
DASHED
 62
     7
 10
218.4999084472656
 20
47.00000762939453
 40
3.399999856948853
  0
CIRCLE
  8
0
  6
DASHED
 62
     7
 10
218.4999084472656
 20
47.00000762939453
 40
4
  0
ARC
  8
0
  6
CONTINUOUS
 62
     7
 10
180.6216278076172
 20
39.99990844726563
 40
4.000000000000005
 50
218.6766241851578
 51
270.0000179860895
  0
ARC
  8
0
  6
CONTINUOUS
 62
     7
 10
180.6216278076172
 20
39.99990844726563
 40
4.000000000000002
 50
90.00002299504557
 51
141.3122016253601
  0
ARC
  8
0
  6
CONTINUOUS
 62
     7
 10
158.3910980224609
 20
50.4197998046875
 40
20.6051139831543
 50
329.6228702701517
 51
340.3770850806068
  0
ARC
  8
0
  6
CONTINUOUS
 62
     7
 10
158.3901977539063
 20
29.57980346679688
 40
20.60608863830566
 50
19.62311982506829
 51
30.37678822038984
  0
ARC
  8
0
  6
CONTINUOUS
 62
     7
 10
195.1770782470703
 20
46.92034912109375
 40
20.60644149780272
 50
199.6232924010304
 51
210.3767968718118
  0
ARC
  8
0
  6
CONTINUOUS
 62
     7
 10
195.1753540039063
 20
33.08047485351563
 40
20.60452079772948
 50
149.6228069772163
 51
160.3772949952382
  0
ARC
  8
0
  6
CONTINUOUS
 62
     7
 10
-11
 20
40
 40
4.500000000000003
 50
45.70330583107533
 51
314.2921928468906
  0
ARC
  8
0
  6
CONTINUOUS
 62
     7
 10
0
 20
40
 40
4.999999999999998
 50
224.4270150889049
 51
8.651422209050203E-006
  0
CIRCLE
  8
0
  6
CONTINUOUS
 62
     7
 10
11
 20
40
 40
4.5
  0
CIRCLE
  8
0
  6
CONTINUOUS
 62
     7
 10
20
 20
39
 40
2.25
  0
CIRCLE
  8
0
  6
CONTINUOUS
 62
     7
 10
-20
 20
39
 40
2.25
  0
POLYLINE
  8
0
  6
CONTINUOUS
 62
     7
 66
     1
 10
0
 20
0
 70
     1
  0
VERTEX
  8
0
  6
CONTINUOUS
 62
     7
 10
-10.52001953125
 20
42.5
 42
0.2551566665864558
  0
VERTEX
  8
0
  6
CONTINUOUS
 62
     7
 10
-11.04983389205737
 20
42.07511410340239
 42
0.06319205889518362
  0
VERTEX
  8
0
  6
CONTINUOUS
 62
     7
 10
-11.30393489303116
 20
41.41222810701981
 42
0.03518723442504711
  0
VERTEX
  8
0
  6
CONTINUOUS
 62
     7
 10
-11.43066836645249
 20
40.71217748323457
 42
0.02798632224202776
  0
VERTEX
  8
0
  6
CONTINUOUS
 62
     7
 10
-11.47003173828125
 20
40
 42
0.02790045028165076
  0
VERTEX
  8
0
  6
CONTINUOUS
 62
     7
 10
-11.43089701461234
 20
39.28985100464954
 42
0.03516099049032705
  0
VERTEX
  8
0
  6
CONTINUOUS
 62
     7
 10
-11.30439934276185
 20
38.58955962919099
 42
0.06315629547530428
  0
VERTEX
  8
0
  6
CONTINUOUS
 62
     7
 10
-11.05036161474011
 20
37.92581997587183
 42
0.2552819637728364
  0
VERTEX
  8
0
  6
CONTINUOUS
 62
     7
 10
-10.52001953125
 20
37.5
 42
0.2551565157839665
  0
VERTEX
  8
0
  6
CONTINUOUS
 62
     7
 10
-9.990205798133912
 20
37.92488668301215
 42
0.06319180547939446
  0
VERTEX
  8
0
  6
CONTINUOUS
 62
     7
 10
-9.736104934832664
 20
38.58777275469868
 42
0.03518713975326837
  0
VERTEX
  8
0
  6
CONTINUOUS
 62
     7
 10
-9.609371155832875
 20
39.2878233308391
 42
0.02798627930796763
  0
VERTEX
  8
0
  6
CONTINUOUS
 62
     7
 10
-9.57000732421875
 20
40
 42
0.02790037349673744
  0
VERTEX
  8
0
  6
CONTINUOUS
 62
     7
 10
-9.60914247414286
 20
40.7101489933488
 42
0.03516092150862721
  0
VERTEX
  8
0
  6
CONTINUOUS
 62
     7
 10
-9.73564036827921
 20
41.41044033301969
 42
0.0631561928423241
  0
VERTEX
  8
0
  6
CONTINUOUS
 62
     7
 10
-9.989678091682357
 20
42.07417999911653
 42
0.2552818958342803
  0
SEQEND
  8
0
  0
POLYLINE
  8
0
  6
CONTINUOUS
 62
     7
 66
     1
 10
0
 20
0
  0
VERTEX
  8
0
  6
CONTINUOUS
 62
     7
 10
-6.784328123481143
 20
37.15156215275734
 42
0.1749010563163084
  0
VERTEX
  8
0
  6
CONTINUOUS
 62
     7
 10
-6.434689910868596
 20
37.33432541923708
 42
0.07058314028457752
  0
VERTEX
  8
0
  6
CONTINUOUS
 62
     7
 10
-6.198668445505868
 20
37.65896270221565
 42
0.0375926377825684
  0
VERTEX
  8
0
  6
CONTINUOUS
 62
     7
 10
-6.033835570164165
 20
38.0267883894911
 42
0.02501672852458643
  0
VERTEX
  8
0
  6
CONTINUOUS
 62
     7
 10
-5.915169029177902
 20
38.41220175269422
 42
0.01911845721158725
  0
VERTEX
  8
0
  6
CONTINUOUS
 62
     7
 10
-5.830423192393377
 20
38.80706615486096
 42
0.0160050395042976
  0
VERTEX
  8
0
  6
CONTINUOUS
 62
     7
 10
-5.773390183032155
 20
39.20699684990748
 42
0.01436033416440048
  0
VERTEX
  8
0
  6
CONTINUOUS
 62
     7
 10
-5.740616668040096
 20
39.60970076508483
 42
0.01364702683996687
  0
VERTEX
  8
0
  6
CONTINUOUS
 62
     7
 10
-5.730359037339728
 20
40.01359470745214
 42
0.01363191519561876
  0
VERTEX
  8
0
  6
CONTINUOUS
 62
     7
 10
-5.742035701114808
 20
40.41629262027406
 42
0.01441999467276811
  0
VERTEX
  8
0
  6
CONTINUOUS
 62
     7
 10
-5.776257160459092
 20
40.81846158898804
 42
0.01619141274018426
  0
VERTEX
  8
0
  6
CONTINUOUS
 62
     7
 10
-5.835091459775903
 20
41.21908237643824
 42
0.01940766167404038
  0
VERTEX
  8
0
  6
CONTINUOUS
 62
     7
 10
-5.921878824927161
 20
41.61364566517073
 42
0.02563256609701266
  0
VERTEX
  8
0
  6
CONTINUOUS
 62
     7
 10
-6.043403252942437
 20
41.99895320100156
 42
0.03903300885521147
  0
VERTEX
  8
0
  6
CONTINUOUS
 62
     7
 10
-6.212553300776796
 20
42.36582339507226
 42
0.0751878087314142
  0
VERTEX
  8
0
  6
CONTINUOUS
 62
     7
 10
-6.456603402455165
 20
42.68664075505084
 42
0.1875618646907129
  0
VERTEX
  8
0
  6
CONTINUOUS
 62
     7
 10
-6.816473350601426
 20
42.84997311290307
 42
0
  0
SEQEND
  8
0
  0
POLYLINE
  8
0
  6
CONTINUOUS
 62
     7
 66
     1
 10
0
 20
0
  0
VERTEX
  8
0
  6
CONTINUOUS
 62
     7
 10
177.1710498702511
 20
43.01115451677282
 42
0.0202352505961112
  0
VERTEX
  8
0
  6
CONTINUOUS
 62
     7
 10
176.9608396439743
 20
42.90832245548039
 42
0.01993953383463152
  0
VERTEX
  8
0
  6
CONTINUOUS
 62
     7
 10
176.759421560462
 20
42.78886831180885
 42
0.01957278447694345
  0
VERTEX
  8
0
  6
CONTINUOUS
 62
     7
 10
176.5684146662526
 20
42.65413727417036
 42
0.01934275717249653
  0
VERTEX
  8
0
  6
CONTINUOUS
 62
     7
 10
176.3874109507448
 20
42.5040939041353
 42
0.01892541245641557
  0
VERTEX
  8
0
  6
CONTINUOUS
 62
     7
 10
176.2190429658031
 20
42.34126578792992
 42
0.01858788447601106
  0
VERTEX
  8
0
  6
CONTINUOUS
 62
     7
 10
176.0633496681129
 20
42.16627507477988
 42
0.01826419811664304
  0
VERTEX
  8
0
  6
CONTINUOUS
 62
     7
 10
175.9209587669412
 20
41.98029136266956
 42
0.01796028345278864
  0
VERTEX
  8
0
  6
CONTINUOUS
 62
     7
 10
175.792396509117
 20
41.78448292241172
 42
0.01768097022857942
  0
VERTEX
  8
0
  6
CONTINUOUS
 62
     7
 10
175.6780988168833
 20
41.58000808830001
 42
0.01743009093504439
  0
VERTEX
  8
0
  6
CONTINUOUS
 62
     7
 10
175.5784221917362
 20
41.36800975516317
 42
0.01721060923353151
  0
VERTEX
  8
0
  6
CONTINUOUS
 62
     7
 10
175.4936538684484
 20
41.1496125319653
 42
0.017024754971003
  0
VERTEX
  8
0
  6
CONTINUOUS
 62
     7
 10
175.4240208687855
 20
40.92592208307836
 42
0.01687415261341607
  0
VERTEX
  8
0
  6
CONTINUOUS
 62
     7
 10
175.3696977354932
 20
40.69802620800358
 42
0.01675993443983493
  0
VERTEX
  8
0
  6
CONTINUOUS
 62
     7
 10
175.3308128233198
 20
40.46699725082161
 42
0.01668283337030219
  0
VERTEX
  8
0
  6
CONTINUOUS
 62
     7
 10
175.3074530888578
 20
40.2338954784295
 42
0.01663361800696501
  0
VERTEX
  8
0
  6
CONTINUOUS
 62
     7
 10
175.2996673583984
 20
39.99990844726563
 42
0
  0
SEQEND
  8
0
  0
POLYLINE
  8
0
  6
CONTINUOUS
 62
     7
 66
     1
 10
0
 20
0
  0
VERTEX
  8
0
  6
CONTINUOUS
 62
     7
 10
176.0922826166204
 20
42.19111960776369
 42
0.03566815234189914
  0
VERTEX
  8
0
  6
CONTINUOUS
 62
     7
 10
175.8251804582665
 20
42.00446617628536
 42
0.03446474925440782
  0
VERTEX
  8
0
  6
CONTINUOUS
 62
     7
 10
175.5869652156751
 20
41.78248420677555
 42
0.03331989067984596
  0
VERTEX
  8
0
  6
CONTINUOUS
 62
     7
 10
175.3809059532796
 20
41.53034047191871
 42
0.03228369643339425
  0
VERTEX
  8
0
  6
CONTINUOUS
 62
     7
 10
175.2095601816346
 20
41.25338129701922
 42
0.03140929914870783
  0
VERTEX
  8
0
  6
CONTINUOUS
 62
     7
 10
175.0747411258154
 20
40.95686440258631
 42
0.03073046713941096
  0
VERTEX
  8
0
  6
CONTINUOUS
 62
     7
 10
174.9776783060812
 20
40.64589578187711
 42
0.03026660638433458
  0
VERTEX
  8
0
  6
CONTINUOUS
 62
     7
 10
174.9191484071138
 20
40.32542854819283
 42
0.03006198384309826
  0
VERTEX
  8
0
  6
CONTINUOUS
 62
     7
 10
174.8995666503906
 20
39.99992370605469
 42
0.02998398092213449
  0
VERTEX
  8
0
  6
CONTINUOUS
 62
     7
 10
174.9190432474573
 20
39.67525657641061
 42
0.03025733834970517
  0
VERTEX
  8
0
  6
CONTINUOUS
 62
     7
 10
174.9774473490757
 20
39.3548572716844
 42
0.03071598077217374
  0
VERTEX
  8
0
  6
CONTINUOUS
 62
     7
 10
175.0743488917032
 20
39.04397925439913
 42
0.03139640972253713
  0
VERTEX
  8
0
  6
CONTINUOUS
 62
     7
 10
175.2089926168326
 20
38.74749823015909
 42
0.03227766737347428
  0
VERTEX
  8
0
  6
CONTINUOUS
 62
     7
 10
175.3801917001705
 20
38.47047752033461
 42
0.03332269993165374
  0
VERTEX
  8
0
  6
CONTINUOUS
 62
     7
 10
175.5861696692765
 20
38.21818151338262
 42
0.03447500140386316
  0
VERTEX
  8
0
  6
CONTINUOUS
 62
     7
 10
175.8243797047036
 20
37.9959981442008
 42
0.0356548532494209
  0
VERTEX
  8
0
  6
CONTINUOUS
 62
     7
 10
176.0913244290838
 20
37.8092685178472
 42
0
  0
SEQEND
  8
0
  0
POLYLINE
  8
0
  6
CONTINUOUS
 62
     7
 66
     1
 10
0
 20
0
  0
VERTEX
  8
0
  6
CONTINUOUS
 62
     7
 10
175.2996673583984
 20
39.99990844726563
 42
0.01660460792145857
  0
VERTEX
  8
0
  6
CONTINUOUS
 62
     7
 10
175.3074257507548
 20
39.76633321761257
 42
0.01667132155876962
  0
VERTEX
  8
0
  6
CONTINUOUS
 62
     7
 10
175.3307367018363
 20
39.53339104278695
 42
0.01673525577284058
  0
VERTEX
  8
0
  6
CONTINUOUS
 62
     7
 10
175.369515667852
 20
39.30269318063427
 42
0.01692883163905392
  0
VERTEX
  8
0
  6
CONTINUOUS
 62
     7
 10
175.4239800183885
 20
39.07405050808635
 42
0.01702257425773602
  0
VERTEX
  8
0
  6
CONTINUOUS
 62
     7
 10
175.4935934619316
 20
38.85038570729267
 42
0.01720850177465065
  0
VERTEX
  8
0
  6
CONTINUOUS
 62
     7
 10
175.5783396112041
 20
38.63200952884272
 42
0.01742869359449872
  0
VERTEX
  8
0
  6
CONTINUOUS
 62
     7
 10
175.6779959489753
 20
38.42001979815812
 42
0.01768074947385621
  0
VERTEX
  8
0
  6
CONTINUOUS
 62
     7
 10
175.7922804222991
 20
38.21553692842389
 42
0.0179615374693211
  0
VERTEX
  8
0
  6
CONTINUOUS
 62
     7
 10
175.9208414732486
 20
38.01970303386203
 42
0.01826705489632453
  0
VERTEX
  8
0
  6
CONTINUOUS
 62
     7
 10
176.0632470530152
 20
37.83367866802651
 42
0.01859229767425812
  0
VERTEX
  8
0
  6
CONTINUOUS
 62
     7
 10
176.2189730032097
 20
37.65863672578416
 42
0.01893115699285827
  0
VERTEX
  8
0
  6
CONTINUOUS
 62
     7
 10
176.387391356331
 20
37.49575307707433
 42
0.01927636806298082
  0
VERTEX
  8
0
  6
CONTINUOUS
 62
     7
 10
176.5677593001489
 20
37.34619359048854
 42
0.01961953929292047
  0
VERTEX
  8
0
  6
CONTINUOUS
 62
     7
 10
176.7592097406491
 20
37.21109738277001
 42
0.01995129103235415
  0
VERTEX
  8
0
  6
CONTINUOUS
 62
     7
 10
176.9607445604916
 20
37.09155639967903
 42
0.02026152781234595
  0
VERTEX
  8
0
  6
CONTINUOUS
 62
     7
 10
177.1712317537908
 20
36.9885918016807
 42
0
  0
SEQEND
  8
0
  0
TEXT
  8
0
  6
CONTINUOUS
 62
     7
 10
-11.28550004959106
 20
-31.79999995231628
 40
3.599999904632568
 41
0.8449418787610177
  1
ＨＳＲ３５Ｍ１ＹＲ
  0
ENDSEC
  0
EOF
