  0
SECTION
  2
HEADER
  0
ENDSEC
  0
SECTION
  2
TABLES
  0
TABLE
  2
LTYPE
 70
    22
  0
LTYPE
  2
CONTINUOUS
 70
    64
  3
Solid line
 72
    65
 73
     0
 40
0.000000
  0
LTYPE
  2
DASHED
 70
    64
  3
__ __ __ __ __ __ __ __ __ __ __ __ __ __ __
 72
    65
 73
     2
 40
3.500000
 49
2.000000
 49
-1.500000
  0
LTYPE
  2
CENTER
 70
    64
  3
____ _ ____ _ ____ _ ____ _ ____ _ ____ _ ____
 72
    65
 73
     4
 40
17.500000
 49
13.000000
 49
-1.500000
 49
1.500000
 49
-1.500000
  0
LTYPE
  2
PHANTOM
 70
    64
  3
_____ _ _ _____ _ _ _____ _ _ _____ _ _ ____  
 72
    65
 73
     6
 40
15.500000
 49
8.000000
 49
-1.500000
 49
1.500000
 49
-1.500000
 49
1.500000
 49
-1.500000
  0
LTYPE
  2
DOT
 70
    64
  3
. . . . . . . . . . . . . . . . . . . . . . . .
 72
    65
 73
     2
 40
0.25
 49
0.0
 49
-0.25
  0
ENDTAB
  0
TABLE
  2
LAYER
 70
     1
  0
LAYER
  2
0
 70
     0
 62
     7
  6
CONTINUOUS
  0
ENDTAB
  0
TABLE
  2
STYLE
 70
     1
  0
STYLE
  2
STANDARD
 70
     0
 40
0.000000
 41
1.000000
 50
0.000000
 71
     0
 42
0.200000
  3
txt
  0
ENDTAB
  0
TABLE
  2
VIEW
 70
     0
  0
ENDTAB
  0
ENDSEC
  0
SECTION
  2
BLOCKS
  0
ENDSEC
  0
SECTION
  2
ENTITIES
  0
LINE
  8
0
  6
CONTINUOUS
 62
     7
 10
100.0000305175781
 20
28.999755859375
 11
185.2498779296875
 21
28.999755859375
  0
LINE
  8
0
  6
CONTINUOUS
 62
     7
 10
187.2498779296875
 20
46
 11
188.7498779296875
 21
46
  0
LINE
  8
0
  6
CONTINUOUS
 62
     7
 10
185.2498779296875
 20
9.5
 11
188.7498779296875
 21
9.5
  0
LINE
  8
0
  6
CONTINUOUS
 62
     7
 10
187.2498779296875
 20
46
 11
187.2498779296875
 21
9.5
  0
LINE
  8
0
  6
CONTINUOUS
 62
     7
 10
185.2494201660156
 20
29.69970893859863
 11
187.2495422363281
 21
31.69983100891113
  0
LINE
  8
0
  6
CONTINUOUS
 62
     7
 10
14.24276733398438
 20
31.69998359680176
 11
19.70005798339844
 21
26.24269485473633
  0
LINE
  8
0
  6
CONTINUOUS
 62
     7
 10
19.7001953125
 20
26.24267578125
 11
19.7001953125
 21
21.95751953125
  0
LINE
  8
0
  6
CONTINUOUS
 62
     7
 10
14.35014533996582
 20
16.60732841491699
 11
19.70022964477539
 21
21.95741271972656
  0
LINE
  8
0
  6
CONTINUOUS
 62
     7
 10
185.2498779296875
 20
29.699951171875
 11
185.2498779296875
 21
9.5
  0
LINE
  8
0
  6
CONTINUOUS
 62
     7
 10
14.35009765625
 20
16.607421875
 11
14.35009765625
 21
13.45263671875
  0
LINE
  8
0
  6
CONTINUOUS
 62
     7
 10
11.80029296875
 20
17.68017578125
 11
11.80029296875
 21
12.2001953125
  0
LINE
  8
0
  6
CONTINUOUS
 62
     7
 10
189.7498779296875
 20
47
 11
199.7996215820313
 21
47
  0
LINE
  8
0
  6
CONTINUOUS
 62
     7
 10
291.2500610351563
 20
45.99973297119141
 11
290.2501525878906
 21
46.99961853027344
  0
LINE
  8
0
  6
CONTINUOUS
 62
     7
 10
11.8001766204834
 20
17.67990112304688
 11
13.63820457458496
 21
19.51792907714844
  0
LINE
  8
0
  6
CONTINUOUS
 62
     7
 10
-16.99972915649414
 20
6.999951362609863
 11
-11.79966354370117
 21
12.20001792907715
  0
LINE
  8
0
  6
CONTINUOUS
 62
     7
 10
-3.24951171875
 20
0
 11
3.25
 21
0
  0
LINE
  8
0
  6
CONTINUOUS
 62
     7
 10
14.34997272491455
 20
13.45279693603516
 11
18.30258941650391
 21
9.500180244445801
  0
LINE
  8
0
  6
CONTINUOUS
 62
     7
 10
294.2496337890625
 20
42.000244140625
 11
294.2496337890625
 21
38
  0
LINE
  8
0
  6
CONTINUOUS
 62
     7
 10
280.1998901367188
 20
9.39990234375
 11
291.2496337890625
 21
9.39990234375
  0
LINE
  8
0
  6
CONTINUOUS
 62
     7
 10
280.1998901367188
 20
47
 11
290.2496337890625
 21
47
  0
LINE
  8
0
  6
CONTINUOUS
 62
     7
 10
292.75
 20
31.69987869262695
 11
294.7501220703125
 21
29.69974708557129
  0
LINE
  8
0
  6
CONTINUOUS
 62
     7
 10
291.2496337890625
 20
9.5
 11
294.7496337890625
 21
9.5
  0
LINE
  8
0
  6
CONTINUOUS
 62
     7
 10
15.5
 20
0
 11
8.75
 21
0
  0
LINE
  8
0
  6
CONTINUOUS
 62
     7
 10
-17
 20
25.110107421875
 11
-17
 21
22.880126953125
  0
LINE
  8
0
  6
CONTINUOUS
 62
     7
 10
17
 20
25.110107421875
 11
17
 21
22.880126953125
  0
LINE
  8
0
  6
CONTINUOUS
 62
     7
 10
-13.10986328125
 20
29
 11
13.1103515625
 21
29
  0
LINE
  8
0
  6
CENTER
 62
     7
 10
200.0000305175781
 20
10.5
 11
200.0000305175781
 21
-1
  0
LINE
  8
0
  6
CONTINUOUS
 62
     7
 10
189.7494812011719
 20
46.99945449829102
 11
188.7495880126953
 21
45.99956893920898
  0
LINE
  8
0
  6
CONTINUOUS
 62
     7
 10
185.7498779296875
 20
38
 11
185.7498779296875
 21
42.000244140625
  0
LINE
  8
0
  6
CONTINUOUS
 62
     7
 10
188.7498779296875
 20
46
 11
188.7498779296875
 21
9.39990234375
  0
LINE
  8
0
  6
CENTER
 62
     7
 10
289.5496826171875
 20
40
 11
295.7342834472656
 21
40
  0
LINE
  8
0
  6
CONTINUOUS
 62
     7
 10
188.7498779296875
 20
9.39990234375
 11
199.7996215820313
 21
9.39990234375
  0
LINE
  8
0
  6
CONTINUOUS
 62
     7
 10
294.7496337890625
 20
28.999755859375
 11
379.9997253417969
 21
28.999755859375
  0
LINE
  8
0
  6
CONTINUOUS
 62
     7
 10
-8.750092506408691
 20
0.0001814000424928963
 11
-8.249973297119141
 21
0.5003006458282471
  0
LINE
  8
0
  6
CONTINUOUS
 62
     7
 10
-8.25
 20
0.5
 11
-3.75
 21
0.5
  0
LINE
  8
0
  6
CONTINUOUS
 62
     7
 10
-3.749935865402222
 20
0.5001278519630432
 11
-3.24998927116394
 21
0.0001812314440030605
  0
LINE
  8
0
  6
CONTINUOUS
 62
     7
 10
3.75
 20
0.5
 11
8.2451171875
 21
0.5
  0
LINE
  8
0
  6
CONTINUOUS
 62
     7
 10
3.250007152557373
 20
0.0001812314440030605
 11
3.749953746795654
 21
0.5001278519630432
  0
LINE
  8
0
  6
CONTINUOUS
 62
     7
 10
16.48113250732422
 20
22.3608570098877
 11
17.00024223327637
 21
22.87996673583984
  0
LINE
  8
0
  6
CONTINUOUS
 62
     7
 10
8.245157241821289
 20
0.4999553561210632
 11
8.74510383605957
 21
8.76654485182371E-006
  0
LINE
  8
0
  6
CONTINUOUS
 62
     7
 10
-8.750273704528809
 20
0
 11
-15.49951171875
 21
0
  0
LINE
  8
0
  6
CONTINUOUS
 62
     7
 10
13.11029148101807
 20
28.99999618530273
 11
13.63993167877197
 21
28.47035598754883
  0
LINE
  8
0
  6
CONTINUOUS
 62
     7
 10
-16.99990081787109
 20
22.87998771667481
 11
-16.48061943054199
 21
22.3607063293457
  0
LINE
  8
0
  6
CONTINUOUS
 62
     7
 10
11.79983139038086
 20
12.20016765594482
 11
16.99989700317383
 21
7.000102043151856
  0
LINE
  8
0
  6
CONTINUOUS
 62
     7
 10
-11.7998046875
 20
17.68017578125
 11
-11.7998046875
 21
12.2001953125
  0
LINE
  8
0
  6
CONTINUOUS
 62
     7
 10
-16.99957847595215
 20
1.499904990196228
 11
-15.49973773956299
 21
6.549624959006906E-005
  0
LINE
  8
0
  6
CONTINUOUS
 62
     7
 10
-17
 20
7
 11
-17
 21
1.5
  0
LINE
  8
0
  6
CONTINUOUS
 62
     7
 10
17
 20
7
 11
17
 21
1.5
  0
LINE
  8
0
  6
CONTINUOUS
 62
     7
 10
-16.99972915649414
 20
25.10989570617676
 11
-16.468017578125
 21
25.6416072845459
  0
LINE
  8
0
  6
CONTINUOUS
 62
     7
 10
16.46835899353027
 20
25.64192962646484
 11
17.00006866455078
 21
25.1102180480957
  0
LINE
  8
0
  6
CONTINUOUS
 62
     7
 10
-13.63769149780273
 20
19.51777839660645
 11
-11.79983520507813
 21
17.67992210388184
  0
LINE
  8
0
  6
CONTINUOUS
 62
     7
 10
-13.63941860198975
 20
28.47020721435547
 11
-13.10977840423584
 21
28.99984550476074
  0
LINE
  8
0
  6
CONTINUOUS
 62
     7
 10
16.99998474121094
 20
1.500088453292847
 11
15.49997138977051
 21
7.628580351592973E-005
  0
LINE
  8
0
  6
CONTINUOUS
 62
     7
 10
-1.130480170249939
 20
40.00008010864258
 11
-1.780468344688416
 21
43.50005340576172
  0
LINE
  8
0
  6
CONTINUOUS
 62
     7
 10
-1.13011360168457
 20
39.99988555908203
 11
-1.780101895332336
 21
36.49991607666016
  0
LINE
  8
0
  6
CONTINUOUS
 62
     7
 10
-1.7802734375
 20
36.5
 11
-5.8603515625
 21
36.5
  0
LINE
  8
0
  6
CENTER
 62
     7
 10
5
 20
40
 11
-15.71283149719238
 21
40
  0
LINE
  8
0
  6
CONTINUOUS
 62
     7
 10
-1.7802734375
 20
43.5
 11
-5.8603515625
 21
43.5
  0
LINE
  8
0
  6
CONTINUOUS
 62
     7
 10
-3.440176248550415
 20
40.00005340576172
 11
-4.090178966522217
 21
36.50008392333984
  0
LINE
  8
0
  6
CONTINUOUS
 62
     7
 10
-7.750216484069824
 20
43.25014495849609
 11
-10.52011108398438
 21
42.50017547607422
  0
LINE
  8
0
  6
CONTINUOUS
 62
     7
 10
-7.766227722167969
 20
36.75453948974609
 11
-10.52009773254395
 21
37.50017166137695
  0
LINE
  8
0
  6
CONTINUOUS
 62
     7
 10
-5.950089931488037
 20
43.02008438110352
 11
-5.860096454620361
 21
43.5
  0
LINE
  8
0
  6
CONTINUOUS
 62
     7
 10
-3.440397024154663
 20
39.99991607666016
 11
-4.090444564819336
 21
43.5001220703125
  0
LINE
  8
0
  6
CONTINUOUS
 62
     7
 10
-5.950046062469482
 20
36.97017288208008
 11
-5.85999345779419
 21
36.49995803833008
  0
LINE
  8
0
  6
CONTINUOUS
 62
     7
 10
-0.0005430869641713798
 20
35.38101959228516
 11
-1.947719812393189
 21
36.50009918212891
  0
LINE
  8
0
  6
CONTINUOUS
 62
     7
 10
34.00017166137695
 20
11.49984741210938
 11
32.00020980834961
 21
9.499888420104981
  0
LINE
  8
0
  6
CONTINUOUS
 62
     7
 10
32.00037002563477
 20
45.99978256225586
 11
34.00015258789063
 21
43.99999237060547
  0
LINE
  8
0
  6
CONTINUOUS
 62
     7
 10
-32.00015640258789
 20
46
 11
32
 21
46
  0
LINE
  8
0
  6
CONTINUOUS
 62
     7
 10
0.0005208515212871134
 20
44.61916351318359
 11
-1.937887668609619
 21
43.50002670288086
  0
LINE
  8
0
  6
CONTINUOUS
 62
     7
 10
34
 20
44
 11
34
 21
11.5
  0
LINE
  8
0
  6
CONTINUOUS
 62
     7
 10
-14.2421875
 20
31.7001953125
 11
14.24267578125
 21
31.7001953125
  0
LINE
  8
0
  6
CENTER
 62
     7
 10
-22.25
 20
10.532958984375
 11
-22.25
 21
6.932125091552734
  0
LINE
  8
0
  6
CONTINUOUS
 62
     7
 10
-33.19970703125
 20
9.5
 11
-14.49951171875
 21
9.5
  0
LINE
  8
0
  6
CONTINUOUS
 62
     7
 10
-34
 20
11.5
 11
-34
 21
33.591064453125
  0
LINE
  8
0
  6
CONTINUOUS
 62
     7
 10
-31.99961280822754
 20
9.499927520751953
 11
-33.9997444152832
 21
11.50005626678467
  0
LINE
  8
0
  6
CONTINUOUS
 62
     7
 10
-19.69954490661621
 20
26.24254417419434
 11
-14.24225425720215
 21
31.69983291625977
  0
LINE
  8
0
  6
CONTINUOUS
 62
     7
 10
-19.69970703125
 20
21.95751953125
 11
-19.69970703125
 21
26.24267578125
  0
LINE
  8
0
  6
CONTINUOUS
 62
     7
 10
-19.69989013671875
 20
21.95743560791016
 11
-14.34963226318359
 21
16.607177734375
  0
LINE
  8
0
  6
CONTINUOUS
 62
     7
 10
-14.349609375
 20
13.45263671875
 11
-14.349609375
 21
16.607421875
  0
LINE
  8
0
  6
CONTINUOUS
 62
     7
 10
-18.30242156982422
 20
9.500029563903809
 11
-14.34980487823486
 21
13.45264625549316
  0
LINE
  8
0
  6
CONTINUOUS
 62
     7
 10
14.5
 20
9.5
 11
33.2001953125
 21
9.5
  0
LINE
  8
0
  6
CONTINUOUS
 62
     7
 10
3.999995470046997
 20
42.30986785888672
 11
0.0003365675220265985
 21
44.61907196044922
  0
LINE
  8
0
  6
CONTINUOUS
 62
     7
 10
3.999673843383789
 20
37.69047546386719
 11
-0.000619396916590631
 21
35.38090515136719
  0
LINE
  8
0
  6
CONTINUOUS
 62
     7
 10
4
 20
42.31005859375
 11
4
 21
37.690673828125
  0
LINE
  8
0
  6
CENTER
 62
     7
 10
22.25
 20
6.932125091552734
 11
22.25
 21
10.532958984375
  0
LINE
  8
0
  6
CENTER
 62
     7
 10
0
 20
56
 11
0
 21
-1
  0
LINE
  8
0
  6
DASHED
 62
     7
 10
-7
 20
29
 11
-7
 21
17
  0
LINE
  8
0
  6
DASHED
 62
     7
 10
7
 20
29
 11
7
 21
17
  0
LINE
  8
0
  6
DASHED
 62
     7
 10
-4.5
 20
17
 11
-4.5
 21
0.5
  0
LINE
  8
0
  6
DASHED
 62
     7
 10
4.5
 20
17
 11
4.5
 21
0.5
  0
LINE
  8
0
  6
DASHED
 62
     7
 10
-7
 20
17
 11
7
 21
17
  0
LINE
  8
0
  6
CONTINUOUS
 62
     7
 10
34.70027923583984
 20
10.9999303817749
 11
33.20026397705078
 21
9.499923706054688
  0
LINE
  8
0
  6
CENTER
 62
     7
 10
11
 20
45
 11
11
 21
35
  0
LINE
  8
0
  6
CENTER
 62
     7
 10
-11
 20
35
 11
-11
 21
45
  0
LINE
  8
0
  6
CONTINUOUS
 62
     7
 10
199.7998657226563
 20
9.5
 11
280.1998901367188
 21
9.5
  0
LINE
  8
0
  6
CENTER
 62
     7
 10
270.0001831054688
 20
6.93212890625
 11
270.0001831054688
 21
10.53271484375
  0
LINE
  8
0
  6
CENTER
 62
     7
 10
209.9998168945313
 20
6.93212890625
 11
209.9998168945313
 21
10.53271484375
  0
LINE
  8
0
  6
CONTINUOUS
 62
     7
 10
199.7998657226563
 20
53.39990234375
 11
199.7998657226563
 21
9.5
  0
LINE
  8
0
  6
CONTINUOUS
 62
     7
 10
280.1998901367188
 20
9.5
 11
280.1998901367188
 21
53.39990234375
  0
LINE
  8
0
  6
CONTINUOUS
 62
     7
 10
201.3992309570313
 20
55
 11
278.5997924804688
 21
55
  0
LINE
  8
0
  6
CONTINUOUS
 62
     7
 10
199.7993621826172
 20
53.40004730224609
 11
201.3993225097656
 21
55.00001525878906
  0
LINE
  8
0
  6
CONTINUOUS
 62
     7
 10
278.5998840332031
 20
54.99996185302734
 11
280.1998596191406
 21
53.39999008178711
  0
LINE
  8
0
  6
CONTINUOUS
 62
     7
 10
291.2496337890625
 20
9.39990234375
 11
291.2496337890625
 21
46
  0
LINE
  8
0
  6
CONTINUOUS
 62
     7
 10
292.7496337890625
 20
9.5
 11
292.7496337890625
 21
46
  0
LINE
  8
0
  6
CONTINUOUS
 62
     7
 10
294.7496337890625
 20
9.5
 11
294.7496337890625
 21
29.699951171875
  0
LINE
  8
0
  6
CONTINUOUS
 62
     7
 10
291.2496337890625
 20
46
 11
292.7496337890625
 21
46
  0
LINE
  8
0
  6
CENTER
 62
     7
 10
16
 20
40
 11
6
 21
40
  0
LINE
  8
0
  6
CONTINUOUS
 62
     7
 10
-34.00017166137695
 20
11.49984741210938
 11
-32.00020980834961
 21
9.499888420104981
  0
LINE
  8
0
  6
CONTINUOUS
 62
     7
 10
-32.00037002563477
 20
45.99978256225586
 11
-34.00015258789063
 21
43.99999237060547
  0
LINE
  8
0
  6
CONTINUOUS
 62
     7
 10
-34
 20
44
 11
-34
 21
11.5
  0
LINE
  8
0
  6
CONTINUOUS
 62
     7
 10
100.0000305175781
 20
0
 11
379.9997253417969
 21
0
  0
LINE
  8
0
  6
CENTER
 62
     7
 10
280.0003356933594
 20
10.5
 11
280.0000305175781
 21
-1
  0
LINE
  8
0
  6
CONTINUOUS
 62
     7
 10
100.0000305175781
 20
28.999755859375
 11
100.0000305175781
 21
0
  0
LINE
  8
0
  6
CENTER
 62
     7
 10
120.0000305175781
 20
29.999755859375
 11
120.0000305175781
 21
-1
  0
LINE
  8
0
  6
DASHED
 62
     7
 10
113.0000305175781
 20
28.999755859375
 11
113.0000305175781
 21
17
  0
LINE
  8
0
  6
DASHED
 62
     7
 10
127.0000305175781
 20
28.999755859375
 11
127.0000305175781
 21
17
  0
LINE
  8
0
  6
DASHED
 62
     7
 10
115.5000305175781
 20
17
 11
115.5000305175781
 21
0
  0
LINE
  8
0
  6
DASHED
 62
     7
 10
124.5000305175781
 20
17
 11
124.5000305175781
 21
0
  0
LINE
  8
0
  6
DASHED
 62
     7
 10
113.0000305175781
 20
17
 11
127.0000305175781
 21
17
  0
LINE
  8
0
  6
CONTINUOUS
 62
     7
 10
100.0000305175781
 20
25.1102180480957
 11
185.2498779296875
 21
25.1102180480957
  0
LINE
  8
0
  6
CONTINUOUS
 62
     7
 10
100.0000305175781
 20
22.880126953125
 11
185.2498779296875
 21
22.880126953125
  0
LINE
  8
0
  6
CONTINUOUS
 62
     7
 10
100.0000305175781
 20
17.67990112304688
 11
185.2498779296875
 21
17.67990112304688
  0
LINE
  8
0
  6
CONTINUOUS
 62
     7
 10
100.0000305175781
 20
12.2001953125
 11
185.2498779296875
 21
12.2001953125
  0
LINE
  8
0
  6
CONTINUOUS
 62
     7
 10
100.0000305175781
 20
7.000102043151856
 11
379.9997253417969
 21
7.000102043151856
  0
LINE
  8
0
  6
CENTER
 62
     7
 10
359.9997253417969
 20
29.999755859375
 11
359.9997253417969
 21
-1
  0
LINE
  8
0
  6
CONTINUOUS
 62
     7
 10
379.9997253417969
 20
28.999755859375
 11
379.9997253417969
 21
0
  0
LINE
  8
0
  6
CONTINUOUS
 62
     7
 10
379.9997253417969
 20
22.880126953125
 11
294.7498779296875
 21
22.880126953125
  0
LINE
  8
0
  6
CONTINUOUS
 62
     7
 10
379.9997253417969
 20
12.2001953125
 11
294.7498779296875
 21
12.2001953125
  0
LINE
  8
0
  6
CONTINUOUS
 62
     7
 10
379.9997253417969
 20
25.1102180480957
 11
294.7498779296875
 21
25.1102180480957
  0
LINE
  8
0
  6
CONTINUOUS
 62
     7
 10
379.9997253417969
 20
17.67990112304688
 11
294.7498779296875
 21
17.67990112304688
  0
LINE
  8
0
  6
CENTER
 62
     7
 10
280.0000305175781
 20
10.5
 11
280.0000305175781
 21
-1
  0
LINE
  8
0
  6
CENTER
 62
     7
 10
93.93994903564453
 20
150
 11
380.9997253417969
 21
150
  0
LINE
  8
0
  6
CONTINUOUS
 62
     7
 10
100.0000305175781
 20
133
 11
185.2498779296875
 21
133
  0
LINE
  8
0
  6
CONTINUOUS
 62
     7
 10
100.0000305175781
 20
136.8897094726563
 11
185.2498779296875
 21
136.8897094726563
  0
LINE
  8
0
  6
CENTER
 62
     7
 10
120.0000305175781
 20
158
 11
120.0000305175781
 21
142
  0
LINE
  8
0
  6
CONTINUOUS
 62
     7
 10
187.2498779296875
 20
116
 11
199.7998657226563
 21
116
  0
LINE
  8
0
  6
CONTINUOUS
 62
     7
 10
185.2498779296875
 20
132.2998046875
 11
187.2498779296875
 21
130.2998046875
  0
LINE
  8
0
  6
CONTINUOUS
 62
     7
 10
379.9997253417969
 20
133
 11
294.7498779296875
 21
133
  0
LINE
  8
0
  6
CONTINUOUS
 62
     7
 10
379.9997253417969
 20
136.8897094726563
 11
294.7498779296875
 21
136.8897094726563
  0
LINE
  8
0
  6
CONTINUOUS
 62
     7
 10
292.7498779296875
 20
116
 11
280.1998901367188
 21
116
  0
LINE
  8
0
  6
CONTINUOUS
 62
     7
 10
291.2498779296875
 20
184
 11
291.2498779296875
 21
116
  0
LINE
  8
0
  6
CONTINUOUS
 62
     7
 10
294.7498779296875
 20
132.2997894287109
 11
292.7498779296875
 21
130.2997894287109
  0
LINE
  8
0
  6
CENTER
 62
     7
 10
360.0000305175781
 20
158
 11
360.0000305175781
 21
142
  0
LINE
  8
0
  6
CONTINUOUS
 62
     7
 10
100.0000305175781
 20
167
 11
185.2498779296875
 21
167
  0
LINE
  8
0
  6
CONTINUOUS
 62
     7
 10
100.0000305175781
 20
133
 11
100.0000305175781
 21
167
  0
LINE
  8
0
  6
CONTINUOUS
 62
     7
 10
100.0000305175781
 20
163.1102905273438
 11
185.2498779296875
 21
163.1102905273438
  0
LINE
  8
0
  6
CONTINUOUS
 62
     7
 10
187.2498779296875
 20
184
 11
199.7998657226563
 21
184
  0
LINE
  8
0
  6
CONTINUOUS
 62
     7
 10
185.2498779296875
 20
132.2998046875
 11
185.2498779296875
 21
167.7001953125
  0
LINE
  8
0
  6
CONTINUOUS
 62
     7
 10
187.2498779296875
 20
116
 11
187.2498779296875
 21
184
  0
LINE
  8
0
  6
CONTINUOUS
 62
     7
 10
188.7498779296875
 20
116
 11
188.7498779296875
 21
184
  0
LINE
  8
0
  6
CONTINUOUS
 62
     7
 10
185.2498779296875
 20
167.7001953125
 11
187.2498779296875
 21
169.7001953125
  0
LINE
  8
0
  6
CONTINUOUS
 62
     7
 10
379.9997253417969
 20
163.1102905273438
 11
294.7498779296875
 21
163.1102905273438
  0
LINE
  8
0
  6
CONTINUOUS
 62
     7
 10
379.9997253417969
 20
133
 11
379.9997253417969
 21
167
  0
LINE
  8
0
  6
CONTINUOUS
 62
     7
 10
379.9997253417969
 20
167
 11
294.7498779296875
 21
167
  0
LINE
  8
0
  6
CONTINUOUS
 62
     7
 10
292.7498779296875
 20
184
 11
280.1998901367188
 21
184
  0
LINE
  8
0
  6
CONTINUOUS
 62
     7
 10
294.7498779296875
 20
132.2998046875
 11
294.7498779296875
 21
167.7001953125
  0
LINE
  8
0
  6
CONTINUOUS
 62
     7
 10
292.7498779296875
 20
116
 11
292.7498779296875
 21
184
  0
LINE
  8
0
  6
CONTINUOUS
 62
     7
 10
294.7498779296875
 20
167.7001953125
 11
292.7498779296875
 21
169.7001953125
  0
LINE
  8
0
  6
CONTINUOUS
 62
     7
 10
185.7498779296875
 20
141.000244140625
 11
185.7498779296875
 21
137
  0
LINE
  8
0
  6
CENTER
 62
     7
 10
190.4498291015625
 20
139
 11
184.2652282714844
 21
139
  0
LINE
  8
0
  6
CENTER
 62
     7
 10
190.4498291015625
 20
161
 11
184.2652282714844
 21
161
  0
LINE
  8
0
  6
CONTINUOUS
 62
     7
 10
185.7498779296875
 20
158.999755859375
 11
185.7498779296875
 21
163
  0
LINE
  8
0
  6
CENTER
 62
     7
 10
289.5499267578125
 20
139
 11
295.7345275878906
 21
139
  0
LINE
  8
0
  6
CONTINUOUS
 62
     7
 10
294.2498779296875
 20
141.000244140625
 11
294.2498779296875
 21
137
  0
LINE
  8
0
  6
CENTER
 62
     7
 10
289.5499267578125
 20
161
 11
295.7345275878906
 21
161
  0
LINE
  8
0
  6
CONTINUOUS
 62
     7
 10
294.2498779296875
 20
158.999755859375
 11
294.2498779296875
 21
163
  0
LINE
  8
0
  6
CONTINUOUS
 62
     7
 10
181.9499816894531
 20
146
 11
185.2498931884766
 21
146
  0
LINE
  8
0
  6
CONTINUOUS
 62
     7
 10
183.5700073242188
 20
154
 11
185.2498931884766
 21
154
  0
LINE
  8
0
  6
CONTINUOUS
 62
     7
 10
177.9499816894531
 20
150
 11
177.9499816894531
 21
151.672119140625
  0
LINE
  8
0
  6
CONTINUOUS
 62
     7
 10
185.2498779296875
 20
154
 11
187.2498779296875
 21
154
  0
LINE
  8
0
  6
CONTINUOUS
 62
     7
 10
185.2498779296875
 20
146
 11
187.2498779296875
 21
146
  0
LINE
  8
0
  6
CENTER
 62
     7
 10
177.5017547607422
 20
161.5221099853516
 11
182.3670501708984
 21
149.7762298583984
  0
LINE
  8
0
  6
CONTINUOUS
 62
     7
 10
175.732666015625
 20
159.5215454101563
 11
180.1672973632813
 21
161.3584289550781
  0
LINE
  8
0
  6
CONTINUOUS
 62
     7
 10
175.9344329833984
 20
156.6826477050781
 11
182.0320281982422
 21
159.2083587646484
  0
LINE
  8
0
  6
CONTINUOUS
 62
     7
 10
175.732666015625
 20
159.5215454101563
 11
175.9344329833984
 21
156.6826629638672
  0
LINE
  8
0
  6
CONTINUOUS
 62
     7
 10
180.1672973632813
 20
161.3584289550781
 11
182.0320434570313
 21
159.2083587646484
  0
LINE
  8
0
  6
CONTINUOUS
 62
     7
 10
176.6731414794922
 20
152.9618072509766
 11
177.0878143310547
 21
151.9607238769531
  0
LINE
  8
0
  6
CONTINUOUS
 62
     7
 10
184.1407318115234
 20
156.0549926757813
 11
184.5553894042969
 21
155.0539245605469
  0
LINE
  8
0
  6
CONTINUOUS
 62
     7
 10
177.8672485351563
 20
151.6379089355469
 11
177.0878143310547
 21
151.9607696533203
  0
LINE
  8
0
  6
CONTINUOUS
 62
     7
 10
178.3104400634766
 20
154.2893981933594
 11
179.1830139160156
 21
152.1828308105469
  0
LINE
  8
0
  6
CONTINUOUS
 62
     7
 10
182.0442352294922
 20
155.8359832763672
 11
182.9167938232422
 21
153.7294311523438
  0
LINE
  8
0
  6
CONTINUOUS
 62
     7
 10
177.8672637939453
 20
151.6378326416016
 11
184.2325744628906
 21
154.2744293212891
  0
LINE
  8
0
  6
CONTINUOUS
 62
     7
 10
184.5554046630859
 20
155.0539398193359
 11
184.2325439453125
 21
154.2744903564453
  0
LINE
  8
0
  6
CONTINUOUS
 62
     7
 10
177.0647125244141
 20
155.260498046875
 11
182.2384185791016
 21
157.4035491943359
  0
LINE
  8
0
  6
CONTINUOUS
 62
     7
 10
176.9029388427734
 20
153.7064208984375
 11
183.4517517089844
 21
156.4189910888672
  0
LINE
  8
0
  6
CONTINUOUS
 62
     7
 10
-34.50001525878906
 20
31.30008316040039
 11
-34.19972991943359
 21
31.60036849975586
  0
LINE
  8
0
  6
CONTINUOUS
 62
     7
 10
-34.5
 20
54.04999923706055
 11
-34.5
 21
39.90029525756836
  0
LINE
  8
0
  6
CONTINUOUS
 62
     7
 10
-34.49999237060547
 20
54.04999923706055
 11
-33.54999923706055
 21
54.99999237060547
  0
LINE
  8
0
  6
CONTINUOUS
 62
     7
 10
-34.5
 20
31.30007171630859
 11
-34.5
 21
15.80029678344727
  0
LINE
  8
0
  6
CONTINUOUS
 62
     7
 10
-34.50001525878906
 20
15.80029201507568
 11
-34.19972991943359
 21
15.50000762939453
  0
LINE
  8
0
  6
DASHED
 62
     7
 10
-24.5001335144043
 20
43.00020599365234
 11
-23.46072006225586
 21
43.60031127929688
  0
LINE
  8
0
  6
DASHED
 62
     7
 10
-24.50002479553223
 20
51.0003662109375
 11
-23.46060752868652
 21
50.4002685546875
  0
LINE
  8
0
  6
DASHED
 62
     7
 10
-21.20036697387695
 20
50.39998626708984
 11
-19.23736190795898
 21
46.99996185302734
  0
LINE
  8
0
  6
DASHED
 62
     7
 10
-21.19996452331543
 20
43.60021209716797
 11
-19.23706436157227
 21
47.00003433227539
  0
LINE
  8
0
  6
DASHED
 62
     7
 10
-24.50000190734863
 20
42.99999618530273
 11
-24.50000190734863
 21
51
  0
LINE
  8
0
  6
DASHED
 62
     7
 10
-21.20012092590332
 20
43.60010147094727
 11
-21.20012092590332
 21
50.40038681030273
  0
LINE
  8
0
  6
DASHED
 62
     7
 10
-34.5
 20
43.60010147094727
 11
-21.19998359680176
 21
43.60010147094727
  0
LINE
  8
0
  6
DASHED
 62
     7
 10
-34.5
 20
50.40038681030273
 11
-21.2005786895752
 21
50.40038681030273
  0
LINE
  8
0
  6
DASHED
 62
     7
 10
-34.5
 20
42.99999618530273
 11
-24.50045967102051
 21
42.99999618530273
  0
LINE
  8
0
  6
DASHED
 62
     7
 10
-34.5
 20
51
 11
-24.49936103820801
 21
51
  0
LINE
  8
0
  6
CENTER
 62
     7
 10
-35.5
 20
47.00000381469727
 11
-18.06750679016113
 21
47.00000381469727
  0
LINE
  8
0
  6
CONTINUOUS
 62
     7
 10
-4.89990234375
 20
54.99999618530273
 11
4.900405883789063
 21
54.99999618530273
  0
LINE
  8
0
  6
CONTINUOUS
 62
     7
 10
34.70021438598633
 20
44.69994735717773
 11
35.0002555847168
 21
44.9999885559082
  0
LINE
  8
0
  6
CONTINUOUS
 62
     7
 10
-34.19974517822266
 20
39.60000610351563
 11
-34.50003051757813
 21
39.90028762817383
  0
LINE
  8
0
  6
CONTINUOUS
 62
     7
 10
16.10009765625
 20
54.99999618530273
 11
33.50001525878906
 21
54.99999618530273
  0
LINE
  8
0
  6
CONTINUOUS
 62
     7
 10
-15.30000972747803
 20
54.20016098022461
 11
-16.10001373291016
 21
55.00014495849609
  0
LINE
  8
0
  6
CONTINUOUS
 62
     7
 10
34.70009613037109
 20
11.00015640258789
 11
33.20007705688477
 21
9.500142097473145
  0
LINE
  8
0
  6
CONTINUOUS
 62
     7
 10
5.700071334838867
 20
54.19999694824219
 11
4.900069236755371
 21
54.99998092651367
  0
LINE
  8
0
  6
CONTINUOUS
 62
     7
 10
-5.700009346008301
 20
54.20017242431641
 11
-4.900023460388184
 21
55.00014114379883
  0
LINE
  8
0
  6
CONTINUOUS
 62
     7
 10
15.30039501190186
 20
54.19988250732422
 11
16.10039901733398
 21
54.9998664855957
  0
LINE
  8
0
  6
CONTINUOUS
 62
     7
 10
5.700210571289063
 20
54.20019149780273
 11
15.30029296875
 21
54.20019149780273
  0
LINE
  8
0
  6
CONTINUOUS
 62
     7
 10
-33.19956970214844
 20
9.50003719329834
 11
-34.19972991943359
 21
10.5002031326294
  0
LINE
  8
0
  6
CONTINUOUS
 62
     7
 10
33.49975967407227
 20
55.00014877319336
 11
34.99995422363281
 21
53.49995422363281
  0
LINE
  8
0
  6
CONTINUOUS
 62
     7
 10
-15.29978942871094
 20
54.20019149780273
 11
-5.69970703125
 21
54.20019149780273
  0
LINE
  8
0
  6
CONTINUOUS
 62
     7
 10
-34.19970703125
 20
39.60000228881836
 11
-34.19970703125
 21
31.60036468505859
  0
LINE
  8
0
  6
CONTINUOUS
 62
     7
 10
34.70022583007813
 20
44.69994354248047
 11
34.70022583007813
 21
11.00000381469727
  0
LINE
  8
0
  6
CONTINUOUS
 62
     7
 10
35.00001525878906
 20
53.49999618530273
 11
35.00001525878906
 21
44.99999618530273
  0
LINE
  8
0
  6
CONTINUOUS
 62
     7
 10
-33.55000305175781
 20
54.99999618530273
 11
-16.09959411621094
 21
54.99999618530273
  0
LINE
  8
0
  6
CONTINUOUS
 62
     7
 10
-34.19970703125
 20
15.50000381469727
 11
-34.19970703125
 21
10.50018310546875
  0
LINE
  8
0
  6
CENTER
 62
     7
 10
218.4999084472656
 20
52.00000762939453
 11
218.4999084472656
 21
42.00000762939453
  0
LINE
  8
0
  6
CENTER
 62
     7
 10
213.4999084472656
 20
47.00000762939453
 11
223.4999084472656
 21
47.00000762939453
  0
LINE
  8
0
  6
CENTER
 62
     7
 10
261.4998474121094
 20
52.00000762939453
 11
261.4998474121094
 21
42.00000762939453
  0
LINE
  8
0
  6
CENTER
 62
     7
 10
256.4998474121094
 20
47.00000762939453
 11
266.4998474121094
 21
47.00000762939453
  0
LINE
  8
0
  6
CENTER
 62
     7
 10
261.4998474121094
 20
28.99999237060547
 11
261.4998474121094
 21
18.99999237060547
  0
LINE
  8
0
  6
CENTER
 62
     7
 10
256.4998474121094
 20
23.99999237060547
 11
266.4998474121094
 21
23.99999237060547
  0
LINE
  8
0
  6
CENTER
 62
     7
 10
218.4999084472656
 20
28.99999237060547
 11
218.4999084472656
 21
18.99999237060547
  0
LINE
  8
0
  6
CENTER
 62
     7
 10
213.4999084472656
 20
23.99999237060547
 11
223.4999084472656
 21
23.99999237060547
  0
LINE
  8
0
  6
CENTER
 62
     7
 10
-35.5
 20
24.00000190734863
 11
-18.06750679016113
 21
24.00000190734863
  0
LINE
  8
0
  6
CONTINUOUS
 62
     7
 10
199.7998657226563
 20
42.99999618530273
 11
280.1998901367188
 21
42.99999618530273
  0
LINE
  8
0
  6
CENTER
 62
     7
 10
189.9783935546875
 20
40.00001525878906
 11
174.0499267578125
 21
40.00001525878906
  0
LINE
  8
0
  6
CONTINUOUS
 62
     7
 10
185.2499084472656
 20
35.88002014160156
 11
185.2499084472656
 21
44.1199951171875
  0
LINE
  8
0
  6
CONTINUOUS
 62
     7
 10
185.2498779296875
 20
36.00001525878906
 11
181.3718872070313
 21
36.00001525878906
  0
LINE
  8
0
  6
CONTINUOUS
 62
     7
 10
185.7498779296875
 20
35.38002014160156
 11
187.2498779296875
 21
35.38002014160156
  0
LINE
  8
0
  6
CONTINUOUS
 62
     7
 10
185.7498779296875
 20
37.69001770019531
 11
185.8991546630859
 21
37.69001770019531
  0
LINE
  8
0
  6
CONTINUOUS
 62
     7
 10
185.7498779296875
 20
44.62002563476563
 11
187.2498779296875
 21
44.62002563476563
  0
LINE
  8
0
  6
CONTINUOUS
 62
     7
 10
185.7498779296875
 20
42.31001281738281
 11
185.899169921875
 21
42.31001281738281
  0
LINE
  8
0
  6
CONTINUOUS
 62
     7
 10
185.2498779296875
 20
44.12009811401367
 11
185.7498321533203
 21
44.62004470825195
  0
LINE
  8
0
  6
CONTINUOUS
 62
     7
 10
185.7497863769531
 20
35.38004302978516
 11
185.2498016357422
 21
35.88003158569336
  0
LINE
  8
0
  6
CONTINUOUS
 62
     7
 10
178.1497802734375
 20
43.50001525878906
 11
179.4720458984375
 21
43.50001525878906
  0
LINE
  8
0
  6
CONTINUOUS
 62
     7
 10
178.1497802734375
 20
36.50001525878906
 11
179.4352111816406
 21
36.50001525878906
  0
LINE
  8
0
  6
CONTINUOUS
 62
     7
 10
185.2498779296875
 20
44.00001525878906
 11
181.3718872070313
 21
44.00001525878906
  0
LINE
  8
0
  6
CONTINUOUS
 62
     7
 10
178.2491302490234
 20
37.50019454956055
 11
178.2496185302734
 21
42.50019454956055
  0
LINE
  8
0
  6
CONTINUOUS
 62
     7
 10
178.6497802734375
 20
36.5000114440918
 11
177.0177001953125
 21
40.00000381469727
  0
LINE
  8
0
  6
CONTINUOUS
 62
     7
 10
178.6497955322266
 20
43.49996566772461
 11
177.0177154541016
 21
39.99996948242188
  0
LINE
  8
0
  6
CONTINUOUS
 62
     7
 10
199.7998657226563
 20
114.9999847412109
 11
280.1998901367188
 21
114.9999847412109
  0
LINE
  8
0
  6
CONTINUOUS
 62
     7
 10
199.7998657226563
 20
184.5
 11
280.1998901367188
 21
184.5
  0
LINE
  8
0
  6
CONTINUOUS
 62
     7
 10
199.7998657226563
 20
166.0995941162109
 11
280.1998901367188
 21
166.0995941162109
  0
LINE
  8
0
  6
CONTINUOUS
 62
     7
 10
199.7998657226563
 20
154.89990234375
 11
280.1998901367188
 21
154.89990234375
  0
LINE
  8
0
  6
CONTINUOUS
 62
     7
 10
199.7998657226563
 20
133.89990234375
 11
280.1998901367188
 21
133.89990234375
  0
LINE
  8
0
  6
CONTINUOUS
 62
     7
 10
199.7998657226563
 20
184.5
 11
199.7998657226563
 21
114.9999847412109
  0
LINE
  8
0
  6
CONTINUOUS
 62
     7
 10
280.1998901367188
 20
184.5
 11
280.1998901367188
 21
114.9999847412109
  0
LINE
  8
0
  6
CONTINUOUS
 62
     7
 10
199.7998657226563
 20
145.0995941162109
 11
280.1998901367188
 21
145.0995941162109
  0
LINE
  8
0
  6
DASHED
 62
     7
 10
214.5001068115234
 20
174.5001373291016
 11
215.1002197265625
 21
173.4607238769531
  0
LINE
  8
0
  6
DASHED
 62
     7
 10
222.5002593994141
 20
174.5000152587891
 11
221.9001770019531
 21
173.4606170654297
  0
LINE
  8
0
  6
DASHED
 62
     7
 10
221.8998870849609
 20
171.2003631591797
 11
218.4998779296875
 21
169.2373657226563
  0
LINE
  8
0
  6
DASHED
 62
     7
 10
215.1001129150391
 20
171.1999664306641
 11
218.4999389648438
 21
169.237060546875
  0
LINE
  8
0
  6
DASHED
 62
     7
 10
214.4999084472656
 20
174.5
 11
222.4999084472656
 21
174.5
  0
LINE
  8
0
  6
DASHED
 62
     7
 10
215.1000061035156
 20
171.2001190185547
 11
221.9002990722656
 21
171.2001190185547
  0
LINE
  8
0
  6
DASHED
 62
     7
 10
215.1000061035156
 20
184.5
 11
215.1000061035156
 21
171.1999816894531
  0
LINE
  8
0
  6
DASHED
 62
     7
 10
221.9002990722656
 20
184.5
 11
221.9002990722656
 21
171.2005767822266
  0
LINE
  8
0
  6
DASHED
 62
     7
 10
214.4999084472656
 20
184.5
 11
214.4999084472656
 21
174.5004577636719
  0
LINE
  8
0
  6
DASHED
 62
     7
 10
222.4999084472656
 20
184.5
 11
222.4999084472656
 21
174.4993591308594
  0
LINE
  8
0
  6
CENTER
 62
     7
 10
218.4999084472656
 20
185.5
 11
218.4999084472656
 21
168.0675048828125
  0
LINE
  8
0
  6
CENTER
 62
     7
 10
261.4998474121094
 20
185.5
 11
261.4998474121094
 21
168.0675048828125
  0
LINE
  8
0
  6
CONTINUOUS
 62
     7
 10
-24.43427658081055
 20
8.487789154052734
 11
-24.43427658081055
 21
9.5
  0
LINE
  8
0
  6
CONTINUOUS
 62
     7
 10
-20.06523513793945
 20
8.487789154052734
 11
-20.06523513793945
 21
9.5
  0
LINE
  8
0
  6
CONTINUOUS
 62
     7
 10
207.8150482177734
 20
8.48779296875
 11
207.8150482177734
 21
9.5
  0
LINE
  8
0
  6
CONTINUOUS
 62
     7
 10
212.1840972900391
 20
8.48779296875
 11
212.1840972900391
 21
9.5
  0
ARC
  8
0
  6
CONTINUOUS
 62
     7
 10
-20.865234375
 20
8.487789154052734
 40
0.7999999523162841
 50
285.4426932088946
 51
0
  0
ARC
  8
0
  6
CONTINUOUS
 62
     7
 10
-22.25
 20
13.49999618530273
 40
6.000000000000001
 50
254.557342763284
 51
285.4426932088946
  0
ARC
  8
0
  6
CONTINUOUS
 62
     7
 10
0
 20
40
 40
3.998106002807614
 50
241.0940973430834
 51
118.9059846191866
  0
ARC
  8
0
  6
CONTINUOUS
 62
     7
 10
-7.6103515625
 20
42.2900390625
 40
0.9701610803604146
 50
35.33145867073599
 51
98.29711140253455
  0
ARC
  8
0
  6
CONTINUOUS
 62
     7
 10
-11
 20
40
 40
3.79999923706055
 50
52.16372221980193
 51
307.8335386469698
  0
CIRCLE
  8
0
  6
CONTINUOUS
 62
     7
 10
11
 20
40
 40
3.799999237060547
  0
ARC
  8
0
  6
CONTINUOUS
 62
     7
 10
211.3840942382813
 20
8.48779296875
 40
0.7999999523162812
 50
285.4426932088939
 51
0
  0
ARC
  8
0
  6
CONTINUOUS
 62
     7
 10
208.6150512695313
 20
8.48779296875
 40
0.7999999523162873
 50
180.0000050089564
 51
254.557270818926
  0
ARC
  8
0
  6
CONTINUOUS
 62
     7
 10
209.9998168945313
 20
13.5
 40
5.999999999999999
 50
254.557342763284
 51
285.4426932088946
  0
ARC
  8
0
  6
CONTINUOUS
 62
     7
 10
291.4766845703125
 20
40.855224609375
 40
2.999999999999981
 50
22.43297085715247
 51
64.8916055682969
  0
ARC
  8
0
  6
CONTINUOUS
 62
     7
 10
188.5228271484375
 20
40.855224609375
 40
3
 50
115.1083584595244
 51
157.567000000858
  0
ARC
  8
0
  6
CONTINUOUS
 62
     7
 10
-6.6201171875
 20
35.920166015625
 40
1.246148109436036
 50
37.87496647613522
 51
99.23547011146756
  0
ARC
  8
0
  6
CONTINUOUS
 62
     7
 10
-7.6103515625
 20
37.710205078125
 40
0.9683421850204488
 50
261.7027793144387
 51
324.6685413292642
  0
ARC
  8
0
  6
CONTINUOUS
 62
     7
 10
188.5228271484375
 20
39.144775390625
 40
3.000000000000007
 50
202.4322350179548
 51
244.8913136913954
  0
ARC
  8
0
  6
CONTINUOUS
 62
     7
 10
291.4766845703125
 20
39.144775390625
 40
2.999999999999996
 50
295.1087222807832
 51
337.5677907089399
  0
ARC
  8
0
  6
CONTINUOUS
 62
     7
 10
-16.90966796875
 20
28.912109375
 40
3.299999237060548
 50
277.6916306142241
 51
352.308397617149
  0
ARC
  8
0
  6
CONTINUOUS
 62
     7
 10
0
 20
40
 40
3.999999999999998
 50
298.9550135382818
 51
299.9999778397804
  0
ARC
  8
0
  6
CONTINUOUS
 62
     7
 10
-6.6201171875
 20
44.080078125
 40
1.254199028015137
 50
260.7646391715591
 51
322.1250335238648
  0
ARC
  8
0
  6
CONTINUOUS
 62
     7
 10
-16.90966796875
 20
19.089111328125
 40
3.299999237060548
 50
7.469515366893473
 51
82.53043249607138
  0
ARC
  8
0
  6
CONTINUOUS
 62
     7
 10
-23.63427734375
 20
8.487789154052734
 40
0.7999999523162837
 50
180.0000050089564
 51
254.5573254604399
  0
ARC
  8
0
  6
CONTINUOUS
 62
     7
 10
16.91015625
 20
28.912109375
 40
3.299999237060546
 50
187.6916486003134
 51
262.3084053579546
  0
ARC
  8
0
  6
CONTINUOUS
 62
     7
 10
16.91015625
 20
19.089111328125
 40
3.299999237060549
 50
97.46947689023656
 51
172.5304691514954
  0
CIRCLE
  8
0
  6
CONTINUOUS
 62
     7
 10
120.0000305175781
 20
150
 40
4.5
  0
CIRCLE
  8
0
  6
CONTINUOUS
 62
     7
 10
120.0000305175781
 20
150
 40
7
  0
ARC
  8
0
  6
CONTINUOUS
 62
     7
 10
188.5228271484375
 20
139.855224609375
 40
2.999999999999999
 50
115.1083994406595
 51
157.5670273216149
  0
ARC
  8
0
  6
CONTINUOUS
 62
     7
 10
188.5228271484375
 20
138.144775390625
 40
2.999999999999998
 50
202.432207697198
 51
244.8912727102603
  0
ARC
  8
0
  6
CONTINUOUS
 62
     7
 10
188.5228271484375
 20
160.144775390625
 40
3.000000000000005
 50
202.4329726783851
 51
244.8916005593405
  0
ARC
  8
0
  6
CONTINUOUS
 62
     7
 10
188.5228271484375
 20
161.855224609375
 40
3.00000000000001
 50
115.1087272897397
 51
157.567792302802
  0
ARC
  8
0
  6
CONTINUOUS
 62
     7
 10
291.4769287109375
 20
139.855224609375
 40
2.999999999999984
 50
22.43297085715259
 51
64.891605568297
  0
ARC
  8
0
  6
CONTINUOUS
 62
     7
 10
291.4769287109375
 20
160.144775390625
 40
3.00000000000001
 50
295.108394431703
 51
337.5670291428474
  0
ARC
  8
0
  6
CONTINUOUS
 62
     7
 10
291.4769287109375
 20
161.855224609375
 40
2.999999999999985
 50
22.43220929106006
 51
64.89127771921679
  0
ARC
  8
0
  6
CONTINUOUS
 62
     7
 10
291.4769287109375
 20
138.144775390625
 40
2.999999999999996
 50
295.1087222807832
 51
337.5677907089399
  0
ARC
  8
0
  6
CONTINUOUS
 62
     7
 10
178.9832305908203
 20
157.9455261230469
 40
3.299999237060542
 50
202.5000451360349
 51
228.4196294889923
  0
ARC
  8
0
  6
CONTINUOUS
 62
     7
 10
178.9832305908203
 20
157.9455261230469
 40
3.299999237060539
 50
356.5803977035848
 51
22.49998184309913
  0
ARC
  8
0
  6
CONTINUOUS
 62
     7
 10
171.0668792724609
 20
155.0994262695313
 40
6.000000000000012
 50
339.1282601229507
 51
357.5663491706545
  0
ARC
  8
0
  6
CONTINUOUS
 62
     7
 10
186.5934143066406
 20
161.5307312011719
 40
5.999999999999995
 50
227.4336780219228
 51
245.8721834977224
  0
ARC
  8
0
  6
CONTINUOUS
 62
     7
 10
176.2621765136719
 20
154.8786315917969
 40
0.7999999523162794
 50
357.5669502273014
 51
48.42016725270368
  0
ARC
  8
0
  6
CONTINUOUS
 62
     7
 10
183.0759124755859
 20
157.7009735107422
 40
0.7999999523162715
 50
176.5798560839633
 51
227.4330186812965
  0
ARC
  8
0
  6
CONTINUOUS
 62
     7
 10
181.9499816894531
 20
150
 40
3.999999999999991
 50
179.9999776881995
 51
270.0000280040021
  0
CIRCLE
  8
0
  6
DASHED
 62
     7
 10
218.4999084472656
 20
47.00000762939453
 40
3.399999856948853
  0
CIRCLE
  8
0
  6
DASHED
 62
     7
 10
218.4999084472656
 20
47.00000762939453
 40
4
  0
ARC
  8
0
  6
CONTINUOUS
 62
     7
 10
187.1497802734375
 20
36.409912109375
 40
1.900939941406253
 50
137.5637801484787
 51
178.1913299356018
  0
ARC
  8
0
  6
CONTINUOUS
 62
     7
 10
188.5499267578125
 20
39.46990966796875
 40
3.317879676818839
 50
186.0541790486946
 51
212.4449371713566
  0
ARC
  8
0
  6
CONTINUOUS
 62
     7
 10
188.5499267578125
 20
40.5299072265625
 40
3.318496704101571
 50
147.5551994324268
 51
173.945684347522
  0
ARC
  8
0
  6
CONTINUOUS
 62
     7
 10
187.1500244140625
 20
43.58990478515625
 40
1.896939277648934
 50
181.8088066681815
 51
222.4364657383315
  0
ARC
  8
0
  6
CONTINUOUS
 62
     7
 10
181.3718872070313
 20
39.99990844726563
 40
4.000000000000005
 50
218.6766241851578
 51
270.0000179860895
  0
ARC
  8
0
  6
CONTINUOUS
 62
     7
 10
181.3718872070313
 20
39.99990844726563
 40
4.000000000000002
 50
90.00002299504557
 51
141.3122016253601
  0
ARC
  8
0
  6
CONTINUOUS
 62
     7
 10
159.141357421875
 20
50.4197998046875
 40
20.6051139831543
 50
329.6228702701517
 51
340.3770850806068
  0
ARC
  8
0
  6
CONTINUOUS
 62
     7
 10
159.1404571533203
 20
29.57980346679688
 40
20.60608863830566
 50
19.62311982506829
 51
30.37678822038984
  0
ARC
  8
0
  6
CONTINUOUS
 62
     7
 10
195.9273376464844
 20
46.92034912109375
 40
20.60644149780272
 50
199.6232924010304
 51
210.3767968718118
  0
ARC
  8
0
  6
CONTINUOUS
 62
     7
 10
195.9256134033203
 20
33.08047485351563
 40
20.60452079772948
 50
149.6228069772163
 51
160.3772949952382
  0
POLYLINE
  8
0
  6
CONTINUOUS
 62
     7
 66
     1
 10
0
 20
0
 70
     1
  0
VERTEX
  8
0
  6
CONTINUOUS
 62
     7
 10
-10.52001953125
 20
42.5
 42
0.2551566665864558
  0
VERTEX
  8
0
  6
CONTINUOUS
 62
     7
 10
-11.04983389205737
 20
42.07511410340239
 42
0.06319205889518362
  0
VERTEX
  8
0
  6
CONTINUOUS
 62
     7
 10
-11.30393489303116
 20
41.41222810701981
 42
0.03518723442504711
  0
VERTEX
  8
0
  6
CONTINUOUS
 62
     7
 10
-11.43066836645249
 20
40.71217748323457
 42
0.02798632224202776
  0
VERTEX
  8
0
  6
CONTINUOUS
 62
     7
 10
-11.47003173828125
 20
40
 42
0.02790045028165076
  0
VERTEX
  8
0
  6
CONTINUOUS
 62
     7
 10
-11.43089701461234
 20
39.28985100464954
 42
0.03516099049032705
  0
VERTEX
  8
0
  6
CONTINUOUS
 62
     7
 10
-11.30439934276185
 20
38.58955962919099
 42
0.06315629547530428
  0
VERTEX
  8
0
  6
CONTINUOUS
 62
     7
 10
-11.05036161474011
 20
37.92581997587183
 42
0.2552819637728364
  0
VERTEX
  8
0
  6
CONTINUOUS
 62
     7
 10
-10.52001953125
 20
37.5
 42
0.2551565157839665
  0
VERTEX
  8
0
  6
CONTINUOUS
 62
     7
 10
-9.990205798133912
 20
37.92488668301215
 42
0.06319180547939446
  0
VERTEX
  8
0
  6
CONTINUOUS
 62
     7
 10
-9.736104934832664
 20
38.58777275469868
 42
0.03518713975326837
  0
VERTEX
  8
0
  6
CONTINUOUS
 62
     7
 10
-9.609371155832875
 20
39.2878233308391
 42
0.02798627930796763
  0
VERTEX
  8
0
  6
CONTINUOUS
 62
     7
 10
-9.57000732421875
 20
40
 42
0.02790037349673744
  0
VERTEX
  8
0
  6
CONTINUOUS
 62
     7
 10
-9.60914247414286
 20
40.7101489933488
 42
0.03516092150862721
  0
VERTEX
  8
0
  6
CONTINUOUS
 62
     7
 10
-9.73564036827921
 20
41.41044033301969
 42
0.0631561928423241
  0
VERTEX
  8
0
  6
CONTINUOUS
 62
     7
 10
-9.989678091682357
 20
42.07417999911653
 42
0.2552818958342803
  0
SEQEND
  8
0
  0
POLYLINE
  8
0
  6
CONTINUOUS
 62
     7
 66
     1
 10
0
 20
0
  0
VERTEX
  8
0
  6
CONTINUOUS
 62
     7
 10
-6.784328123481143
 20
37.15156215275734
 42
0.1749010563163084
  0
VERTEX
  8
0
  6
CONTINUOUS
 62
     7
 10
-6.434689910868596
 20
37.33432541923708
 42
0.07058314028457752
  0
VERTEX
  8
0
  6
CONTINUOUS
 62
     7
 10
-6.198668445505868
 20
37.65896270221565
 42
0.0375926377825684
  0
VERTEX
  8
0
  6
CONTINUOUS
 62
     7
 10
-6.033835570164165
 20
38.0267883894911
 42
0.02501672852458643
  0
VERTEX
  8
0
  6
CONTINUOUS
 62
     7
 10
-5.915169029177902
 20
38.41220175269422
 42
0.01911845721158725
  0
VERTEX
  8
0
  6
CONTINUOUS
 62
     7
 10
-5.830423192393377
 20
38.80706615486096
 42
0.0160050395042976
  0
VERTEX
  8
0
  6
CONTINUOUS
 62
     7
 10
-5.773390183032155
 20
39.20699684990748
 42
0.01436033416440048
  0
VERTEX
  8
0
  6
CONTINUOUS
 62
     7
 10
-5.740616668040096
 20
39.60970076508483
 42
0.01364702683996687
  0
VERTEX
  8
0
  6
CONTINUOUS
 62
     7
 10
-5.730359037339728
 20
40.01359470745214
 42
0.01363191519561876
  0
VERTEX
  8
0
  6
CONTINUOUS
 62
     7
 10
-5.742035701114808
 20
40.41629262027406
 42
0.01441999467276811
  0
VERTEX
  8
0
  6
CONTINUOUS
 62
     7
 10
-5.776257160459092
 20
40.81846158898804
 42
0.01619141274018426
  0
VERTEX
  8
0
  6
CONTINUOUS
 62
     7
 10
-5.835091459775903
 20
41.21908237643824
 42
0.01940766167404038
  0
VERTEX
  8
0
  6
CONTINUOUS
 62
     7
 10
-5.921878824927161
 20
41.61364566517073
 42
0.02563256609701266
  0
VERTEX
  8
0
  6
CONTINUOUS
 62
     7
 10
-6.043403252942437
 20
41.99895320100156
 42
0.03903300885521147
  0
VERTEX
  8
0
  6
CONTINUOUS
 62
     7
 10
-6.212553300776796
 20
42.36582339507226
 42
0.0751878087314142
  0
VERTEX
  8
0
  6
CONTINUOUS
 62
     7
 10
-6.456603402455165
 20
42.68664075505084
 42
0.1875618646907129
  0
VERTEX
  8
0
  6
CONTINUOUS
 62
     7
 10
-6.816473350601426
 20
42.84997311290307
 42
0
  0
SEQEND
  8
0
  0
POLYLINE
  8
0
  6
CONTINUOUS
 62
     7
 66
     1
 10
0
 20
0
  0
VERTEX
  8
0
  6
CONTINUOUS
 62
     7
 10
177.9213092696651
 20
43.01115451677283
 42
0.02023525060247255
  0
VERTEX
  8
0
  6
CONTINUOUS
 62
     7
 10
177.7110990433883
 20
42.90832245548039
 42
0.01993953383103908
  0
VERTEX
  8
0
  6
CONTINUOUS
 62
     7
 10
177.509680959876
 20
42.78886831180885
 42
0.0195727844842012
  0
VERTEX
  8
0
  6
CONTINUOUS
 62
     7
 10
177.3186740656666
 20
42.65413727417036
 42
0.01934275717119009
  0
VERTEX
  8
0
  6
CONTINUOUS
 62
     7
 10
177.1376703501589
 20
42.5040939041353
 42
0.01892541245326241
  0
VERTEX
  8
0
  6
CONTINUOUS
 62
     7
 10
176.9693023652172
 20
42.34126578792991
 42
0.01858788447150677
  0
VERTEX
  8
0
  6
CONTINUOUS
 62
     7
 10
176.813609067527
 20
42.16627507477987
 42
0.01826419812078988
  0
VERTEX
  8
0
  6
CONTINUOUS
 62
     7
 10
176.6712181663553
 20
41.98029136266955
 42
0.01796028345649287
  0
VERTEX
  8
0
  6
CONTINUOUS
 62
     7
 10
176.5426559085311
 20
41.78448292241171
 42
0.01768097022565773
  0
VERTEX
  8
0
  6
CONTINUOUS
 62
     7
 10
176.4283582162973
 20
41.58000808829999
 42
0.01743009093870258
  0
VERTEX
  8
0
  6
CONTINUOUS
 62
     7
 10
176.3286815911502
 20
41.36800975516316
 42
0.01721060923122811
  0
VERTEX
  8
0
  6
CONTINUOUS
 62
     7
 10
176.2439132678624
 20
41.14961253196529
 42
0.01702475496860911
  0
VERTEX
  8
0
  6
CONTINUOUS
 62
     7
 10
176.1742802681995
 20
40.92592208307835
 42
0.01687415261084829
  0
VERTEX
  8
0
  6
CONTINUOUS
 62
     7
 10
176.1199571349072
 20
40.69802620800357
 42
0.01675993444230687
  0
VERTEX
  8
0
  6
CONTINUOUS
 62
     7
 10
176.0810722227339
 20
40.46699725082159
 42
0.01668283337132587
  0
VERTEX
  8
0
  6
CONTINUOUS
 62
     7
 10
176.0577124882718
 20
40.23389547842949
 42
0.01663361801232399
  0
VERTEX
  8
0
  6
CONTINUOUS
 62
     7
 10
176.0499267578125
 20
39.99990844726563
 42
0
  0
SEQEND
  8
0
  0
POLYLINE
  8
0
  6
CONTINUOUS
 62
     7
 66
     1
 10
0
 20
0
  0
VERTEX
  8
0
  6
CONTINUOUS
 62
     7
 10
176.8425420160345
 20
42.19111960776369
 42
0.03566815234029794
  0
VERTEX
  8
0
  6
CONTINUOUS
 62
     7
 10
176.5754398576805
 20
42.00446617628536
 42
0.03446474924770934
  0
VERTEX
  8
0
  6
CONTINUOUS
 62
     7
 10
176.3372246150891
 20
41.78248420677554
 42
0.03331989068355212
  0
VERTEX
  8
0
  6
CONTINUOUS
 62
     7
 10
176.1311653526937
 20
41.5303404719187
 42
0.03228369643014179
  0
VERTEX
  8
0
  6
CONTINUOUS
 62
     7
 10
175.9598195810487
 20
41.25338129701921
 42
0.03140929914699496
  0
VERTEX
  8
0
  6
CONTINUOUS
 62
     7
 10
175.8250005252295
 20
40.95686440258629
 42
0.0307304671426851
  0
VERTEX
  8
0
  6
CONTINUOUS
 62
     7
 10
175.7279377054952
 20
40.64589578187709
 42
0.03026660638886833
  0
VERTEX
  8
0
  6
CONTINUOUS
 62
     7
 10
175.6694078065279
 20
40.32542854819281
 42
0.03006198384184457
  0
VERTEX
  8
0
  6
CONTINUOUS
 62
     7
 10
175.6498260498047
 20
39.99992370605469
 42
0.02998398092344829
  0
VERTEX
  8
0
  6
CONTINUOUS
 62
     7
 10
175.6693026468714
 20
39.67525657641061
 42
0.03025733835143048
  0
VERTEX
  8
0
  6
CONTINUOUS
 62
     7
 10
175.7277067484898
 20
39.3548572716844
 42
0.03071598077182269
  0
VERTEX
  8
0
  6
CONTINUOUS
 62
     7
 10
175.8246082911173
 20
39.04397925439913
 42
0.03139640972603922
  0
VERTEX
  8
0
  6
CONTINUOUS
 62
     7
 10
175.9592520162466
 20
38.7474982301591
 42
0.03227766737289281
  0
VERTEX
  8
0
  6
CONTINUOUS
 62
     7
 10
176.1304510995846
 20
38.47047752033461
 42
0.03332269993414318
  0
VERTEX
  8
0
  6
CONTINUOUS
 62
     7
 10
176.3364290686905
 20
38.21818151338262
 42
0.03447500140287989
  0
VERTEX
  8
0
  6
CONTINUOUS
 62
     7
 10
176.5746391041176
 20
37.99599814420081
 42
0.03565485324942624
  0
VERTEX
  8
0
  6
CONTINUOUS
 62
     7
 10
176.8415838284979
 20
37.8092685178472
 42
0
  0
SEQEND
  8
0
  0
POLYLINE
  8
0
  6
CONTINUOUS
 62
     7
 66
     1
 10
0
 20
0
  0
VERTEX
  8
0
  6
CONTINUOUS
 62
     7
 10
176.0499267578125
 20
39.99990844726563
 42
0.01660460792252423
  0
VERTEX
  8
0
  6
CONTINUOUS
 62
     7
 10
176.0576851501688
 20
39.76633321761257
 42
0.01667132155973023
  0
VERTEX
  8
0
  6
CONTINUOUS
 62
     7
 10
176.0809961012503
 20
39.53339104278697
 42
0.01673525577431337
  0
VERTEX
  8
0
  6
CONTINUOUS
 62
     7
 10
176.119775067266
 20
39.30269318063428
 42
0.01692883163674832
  0
VERTEX
  8
0
  6
CONTINUOUS
 62
     7
 10
176.1742394178026
 20
39.07405050808637
 42
0.01702257425921127
  0
VERTEX
  8
0
  6
CONTINUOUS
 62
     7
 10
176.2438528613457
 20
38.85038570729266
 42
0.01720850177821852
  0
VERTEX
  8
0
  6
CONTINUOUS
 62
     7
 10
176.3285990106182
 20
38.63200952884272
 42
0.0174286935909527
  0
VERTEX
  8
0
  6
CONTINUOUS
 62
     7
 10
176.4282553483894
 20
38.42001979815813
 42
0.01768074947477043
  0
VERTEX
  8
0
  6
CONTINUOUS
 62
     7
 10
176.5425398217131
 20
38.21553692842389
 42
0.01796153746680763
  0
VERTEX
  8
0
  6
CONTINUOUS
 62
     7
 10
176.6711008726626
 20
38.01970303386203
 42
0.01826705489697823
  0
VERTEX
  8
0
  6
CONTINUOUS
 62
     7
 10
176.8135064524293
 20
37.83367866802651
 42
0.01859229767518181
  0
VERTEX
  8
0
  6
CONTINUOUS
 62
     7
 10
176.9692324026238
 20
37.65863672578416
 42
0.01893115699157784
  0
VERTEX
  8
0
  6
CONTINUOUS
 62
     7
 10
177.1376507557451
 20
37.49575307707433
 42
0.0192763680611837
  0
VERTEX
  8
0
  6
CONTINUOUS
 62
     7
 10
177.318018699563
 20
37.34619359048854
 42
0.01961953929381099
  0
VERTEX
  8
0
  6
CONTINUOUS
 62
     7
 10
177.5094691400632
 20
37.21109738277001
 42
0.01995129103906235
  0
VERTEX
  8
0
  6
CONTINUOUS
 62
     7
 10
177.7110039599057
 20
37.09155639967903
 42
0.02026152782073358
  0
VERTEX
  8
0
  6
CONTINUOUS
 62
     7
 10
177.9214911532049
 20
36.98859180168071
 42
0
  0
SEQEND
  8
0
  0
TEXT
  8
0
  6
CONTINUOUS
 62
     7
 10
-1.285500049591065
 20
-21.79999995231628
 40
3.599999904632568
 41
1.007125066575079
  1
HSR35YR
  0
ENDSEC
  0
EOF
