  0
SECTION
  2
HEADER
  0
ENDSEC
  0
SECTION
  2
TABLES
  0
TABLE
  2
LTYPE
 70
    22
  0
LTYPE
  2
CONTINUOUS
 70
    64
  3
Solid line
 72
    65
 73
     0
 40
0.000000
  0
LTYPE
  2
DASHED
 70
    64
  3
__ __ __ __ __ __ __ __ __ __ __ __ __ __ __
 72
    65
 73
     2
 40
3.500000
 49
2.000000
 49
-1.500000
  0
LTYPE
  2
CENTER
 70
    64
  3
____ _ ____ _ ____ _ ____ _ ____ _ ____ _ ____
 72
    65
 73
     4
 40
17.500000
 49
13.000000
 49
-1.500000
 49
1.500000
 49
-1.500000
  0
LTYPE
  2
PHANTOM
 70
    64
  3
_____ _ _ _____ _ _ _____ _ _ _____ _ _ ____  
 72
    65
 73
     6
 40
15.500000
 49
8.000000
 49
-1.500000
 49
1.500000
 49
-1.500000
 49
1.500000
 49
-1.500000
  0
LTYPE
  2
DOT
 70
    64
  3
. . . . . . . . . . . . . . . . . . . . . . . .
 72
    65
 73
     2
 40
0.25
 49
0.0
 49
-0.25
  0
ENDTAB
  0
TABLE
  2
LAYER
 70
     1
  0
LAYER
  2
0
 70
     0
 62
     7
  6
CONTINUOUS
  0
ENDTAB
  0
TABLE
  2
STYLE
 70
     1
  0
STYLE
  2
STANDARD
 70
     0
 40
0.000000
 41
1.000000
 50
0.000000
 71
     0
 42
0.200000
  3
txt
  0
ENDTAB
  0
TABLE
  2
VIEW
 70
     0
  0
ENDTAB
  0
ENDSEC
  0
SECTION
  2
BLOCKS
  0
ENDSEC
  0
SECTION
  2
ENTITIES
  0
LINE
  8
0
  6
CONTINUOUS
 62
     7
 10
150
 20
0
 11
570
 21
0
  0
LINE
  8
0
  6
CONTINUOUS
 62
     7
 10
150
 20
12.5
 11
570
 21
12.5
  0
LINE
  8
0
  6
CONTINUOUS
 62
     7
 10
150
 20
20.00007820129395
 11
278.5
 21
20.00007820129395
  0
LINE
  8
0
  6
CONTINUOUS
 62
     7
 10
150
 20
25.99907112121582
 11
278.5
 21
25.99907112121582
  0
LINE
  8
0
  6
CONTINUOUS
 62
     7
 10
150
 20
33.23698425292969
 11
278.5
 21
33.23698425292969
  0
LINE
  8
0
  6
CONTINUOUS
 62
     7
 10
150
 20
38.76197814941406
 11
278.5
 21
38.76197814941406
  0
LINE
  8
0
  6
CONTINUOUS
 62
     7
 10
150
 20
43.37091064453125
 11
278.5
 21
43.37091064453125
  0
LINE
  8
0
  6
CONTINUOUS
 62
     7
 10
150
 20
43.9996452331543
 11
278.5
 21
43.9996452331543
  0
LINE
  8
0
  6
CONTINUOUS
 62
     7
 10
150
 20
43.9996452331543
 11
150
 21
0
  0
LINE
  8
0
  6
CENTER
 62
     7
 10
180
 20
44.9996452331543
 11
180
 21
-1
  0
LINE
  8
0
  6
DASHED
 62
     7
 10
168.5
 20
44
 11
168.5
 21
24
  0
LINE
  8
0
  6
DASHED
 62
     7
 10
191.5
 20
44
 11
191.5
 21
24
  0
LINE
  8
0
  6
DASHED
 62
     7
 10
172
 20
24
 11
172
 21
0
  0
LINE
  8
0
  6
DASHED
 62
     7
 10
188
 20
24
 11
188
 21
0
  0
LINE
  8
0
  6
DASHED
 62
     7
 10
168.5
 20
24
 11
191.5
 21
24
  0
LINE
  8
0
  6
CENTER
 62
     7
 10
300
 20
16
 11
300
 21
-1
  0
LINE
  8
0
  6
CONTINUOUS
 62
     7
 10
570
 20
43.9996452331543
 11
570
 21
0
  0
LINE
  8
0
  6
CONTINUOUS
 62
     7
 10
570
 20
33.23698425292969
 11
441.5
 21
33.23698425292969
  0
LINE
  8
0
  6
CONTINUOUS
 62
     7
 10
570
 20
38.76197814941406
 11
441.5
 21
38.76197814941406
  0
LINE
  8
0
  6
CONTINUOUS
 62
     7
 10
570
 20
43.37091064453125
 11
441.5
 21
43.37091064453125
  0
LINE
  8
0
  6
CONTINUOUS
 62
     7
 10
570
 20
20.00007820129395
 11
441.5
 21
20.00007820129395
  0
LINE
  8
0
  6
CONTINUOUS
 62
     7
 10
570
 20
25.99907112121582
 11
441.5
 21
25.99907112121582
  0
LINE
  8
0
  6
CONTINUOUS
 62
     7
 10
570
 20
43.9996452331543
 11
441.5
 21
43.9996452331543
  0
LINE
  8
0
  6
CENTER
 62
     7
 10
420
 20
16
 11
420
 21
-1
  0
LINE
  8
0
  6
CENTER
 62
     7
 10
540
 20
44.9996452331543
 11
540
 21
-1
  0
LINE
  8
0
  6
CENTER
 62
     7
 10
149
 20
250
 11
571
 21
250
  0
LINE
  8
0
  6
CONTINUOUS
 62
     7
 10
282
 20
299
 11
282
 21
201
  0
LINE
  8
0
  6
CONTINUOUS
 62
     7
 10
280
 20
299
 11
280
 21
201
  0
LINE
  8
0
  6
CONTINUOUS
 62
     7
 10
278.5
 20
278.5
 11
278.5
 21
255
  0
LINE
  8
0
  6
CONTINUOUS
 62
     7
 10
280
 20
201
 11
301
 21
201
  0
LINE
  8
0
  6
CONTINUOUS
 62
     7
 10
280
 20
299
 11
301
 21
299
  0
LINE
  8
0
  6
CONTINUOUS
 62
     7
 10
278.5
 20
278.5
 11
280
 21
278.5
  0
LINE
  8
0
  6
CONTINUOUS
 62
     7
 10
278.5
 20
221.5
 11
280
 21
221.5
  0
LINE
  8
0
  6
CONTINUOUS
 62
     7
 10
150
 20
223.5
 11
278.5
 21
223.5
  0
LINE
  8
0
  6
CONTINUOUS
 62
     7
 10
150
 20
229
 11
278.5
 21
229
  0
LINE
  8
0
  6
CONTINUOUS
 62
     7
 10
150
 20
270.99951171875
 11
278.5
 21
270.99951171875
  0
LINE
  8
0
  6
CONTINUOUS
 62
     7
 10
150
 20
276.5
 11
278.5
 21
276.5
  0
LINE
  8
0
  6
CONTINUOUS
 62
     7
 10
150
 20
276.5
 11
150
 21
223.5
  0
LINE
  8
0
  6
CENTER
 62
     7
 10
180
 20
262.5
 11
180
 21
237.5
  0
LINE
  8
0
  6
CONTINUOUS
 62
     7
 10
570
 20
276.5
 11
441.5
 21
276.5
  0
LINE
  8
0
  6
CONTINUOUS
 62
     7
 10
570
 20
270.99951171875
 11
441.5
 21
270.99951171875
  0
LINE
  8
0
  6
CONTINUOUS
 62
     7
 10
570
 20
276.5
 11
570
 21
223.5
  0
LINE
  8
0
  6
CONTINUOUS
 62
     7
 10
570
 20
223.5
 11
441.5
 21
223.5
  0
LINE
  8
0
  6
CONTINUOUS
 62
     7
 10
570
 20
229
 11
441.5
 21
229
  0
LINE
  8
0
  6
CONTINUOUS
 62
     7
 10
570
 20
276.5
 11
441.5
 21
276.5
  0
LINE
  8
0
  6
CONTINUOUS
 62
     7
 10
570
 20
270.99951171875
 11
441.5
 21
270.99951171875
  0
LINE
  8
0
  6
CONTINUOUS
 62
     7
 10
570
 20
223.5
 11
441.5
 21
223.5
  0
LINE
  8
0
  6
CONTINUOUS
 62
     7
 10
570
 20
229
 11
441.5
 21
229
  0
LINE
  8
0
  6
CONTINUOUS
 62
     7
 10
441.5
 20
278.5
 11
441.5
 21
221.5
  0
LINE
  8
0
  6
CONTINUOUS
 62
     7
 10
440
 20
299
 11
440
 21
201
  0
LINE
  8
0
  6
CONTINUOUS
 62
     7
 10
438
 20
299
 11
438
 21
201
  0
LINE
  8
0
  6
CONTINUOUS
 62
     7
 10
441.5
 20
221.5
 11
440
 21
221.5
  0
LINE
  8
0
  6
CONTINUOUS
 62
     7
 10
441.5
 20
278.5
 11
440
 21
278.5
  0
LINE
  8
0
  6
CONTINUOUS
 62
     7
 10
440
 20
299
 11
419
 21
299
  0
LINE
  8
0
  6
CONTINUOUS
 62
     7
 10
440
 20
201
 11
419
 21
201
  0
LINE
  8
0
  6
CENTER
 62
     7
 10
264.9628601074219
 20
236.9113616943359
 11
270.5417785644531
 21
250.3800659179688
  0
LINE
  8
0
  6
CONTINUOUS
 62
     7
 10
263.3830261230469
 20
239.3688201904297
 11
267.8176574707031
 21
237.5319519042969
  0
LINE
  8
0
  6
CONTINUOUS
 62
     7
 10
263.5847778320313
 20
242.2076873779297
 11
269.682373046875
 21
239.6819915771484
  0
LINE
  8
0
  6
CONTINUOUS
 62
     7
 10
263.383056640625
 20
239.3688201904297
 11
263.5848083496094
 21
242.2077026367188
  0
LINE
  8
0
  6
CONTINUOUS
 62
     7
 10
267.8176879882813
 20
237.5319366455078
 11
269.6824035644531
 21
239.6819915771484
  0
LINE
  8
0
  6
CONTINUOUS
 62
     7
 10
264.3235168457031
 20
245.9285888671875
 11
264.7381896972656
 21
246.9296722412109
  0
LINE
  8
0
  6
CONTINUOUS
 62
     7
 10
271.7911071777344
 20
242.8354034423828
 11
272.2057800292969
 21
243.8364715576172
  0
LINE
  8
0
  6
CONTINUOUS
 62
     7
 10
265.5176391601563
 20
247.25244140625
 11
264.7381896972656
 21
246.9295806884766
  0
LINE
  8
0
  6
CONTINUOUS
 62
     7
 10
265.9608154296875
 20
244.6010131835938
 11
266.8333740234375
 21
246.7075347900391
  0
LINE
  8
0
  6
CONTINUOUS
 62
     7
 10
269.694580078125
 20
243.0544128417969
 11
270.567138671875
 21
245.1609344482422
  0
LINE
  8
0
  6
CONTINUOUS
 62
     7
 10
264.8787536621094
 20
247.5171508789063
 11
271.8829040527344
 21
244.6159362792969
  0
LINE
  8
0
  6
CONTINUOUS
 62
     7
 10
272.2057800292969
 20
243.8364105224609
 11
271.8829040527344
 21
244.6158599853516
  0
LINE
  8
0
  6
CONTINUOUS
 62
     7
 10
264.715087890625
 20
243.6298522949219
 11
269.8887939453125
 21
241.48681640625
  0
LINE
  8
0
  6
CONTINUOUS
 62
     7
 10
275.2999877929688
 20
255
 11
275.2999877929688
 21
245
  0
LINE
  8
0
  6
CONTINUOUS
 62
     7
 10
264.7999877929688
 20
251.7999877929688
 11
264.7999877929688
 21
248.1452941894531
  0
LINE
  8
0
  6
CONTINUOUS
 62
     7
 10
275.2999877929688
 20
255
 11
280
 21
255
  0
LINE
  8
0
  6
CONTINUOUS
 62
     7
 10
267.7999877929688
 20
254.7999877929688
 11
275.2999877929688
 21
254.7999877929688
  0
LINE
  8
0
  6
CONTINUOUS
 62
     7
 10
270.4728698730469
 20
245.1999969482422
 11
275.2999877929688
 21
245.1999969482422
  0
LINE
  8
0
  6
CONTINUOUS
 62
     7
 10
275.2999877929688
 20
245
 11
280
 21
245
  0
LINE
  8
0
  6
CONTINUOUS
 62
     7
 10
264.5532836914063
 20
245.1840057373047
 11
271.1021118164063
 21
242.4714050292969
  0
LINE
  8
0
  6
CONTINUOUS
 62
     7
 10
278.5
 20
245
 11
278.5
 21
221.5
  0
LINE
  8
0
  6
CENTER
 62
     7
 10
300
 20
262.5
 11
300
 21
237.5
  0
LINE
  8
0
  6
CENTER
 62
     7
 10
420
 20
262.5
 11
420
 21
237.5
  0
LINE
  8
0
  6
CENTER
 62
     7
 10
540
 20
262.5
 11
540
 21
237.5
  0
LINE
  8
0
  6
CONTINUOUS
 62
     7
 10
2.61669921875
 20
62.5
 11
6.69677734375
 21
62.5
  0
LINE
  8
0
  6
CONTINUOUS
 62
     7
 10
2.61669921875
 20
55.5
 11
6.69677734375
 21
55.5
  0
LINE
  8
0
  6
CONTINUOUS
 62
     7
 10
1.96806538105011
 20
59.0002555847168
 11
2.618064880371094
 21
55.50022506713867
  0
LINE
  8
0
  6
CONTINUOUS
 62
     7
 10
1.967706322669983
 20
58.99969100952148
 11
2.617694616317749
 21
62.49966049194336
  0
LINE
  8
0
  6
CONTINUOUS
 62
     7
 10
4.278392791748047
 20
59.00024032592773
 11
4.928407192230225
 21
55.50021362304688
  0
LINE
  8
0
  6
CONTINUOUS
 62
     7
 10
4.27766752243042
 20
58.99966430664063
 11
4.927675724029541
 21
62.49966049194336
  0
LINE
  8
0
  6
CONTINUOUS
 62
     7
 10
6.787740707397461
 20
55.96970367431641
 11
6.697728633880615
 21
55.49970245361328
  0
LINE
  8
0
  6
CONTINUOUS
 62
     7
 10
6.788641929626465
 20
62.02021408081055
 11
6.698637008666992
 21
62.50019073486328
  0
LINE
  8
0
  6
CONTINUOUS
 62
     7
 10
8.602964401245117
 20
55.75406646728516
 11
11.3573055267334
 21
56.49982452392578
  0
LINE
  8
0
  6
CONTINUOUS
 62
     7
 10
8.587687492370606
 20
62.24964141845703
 11
11.35758209228516
 21
61.49967193603516
  0
LINE
  8
0
  6
CONTINUOUS
 62
     7
 10
3.93895697593689
 20
62.49967193603516
 11
0.001247620675712824
 21
64.77310943603516
  0
LINE
  8
0
  6
CONTINUOUS
 62
     7
 10
0.0004763708857353777
 20
53.22587966918945
 11
3.938238620758057
 21
55.49934768676758
  0
LINE
  8
0
  6
CONTINUOUS
 62
     7
 10
22
 20
17
 11
47
 21
17
  0
LINE
  8
0
  6
CONTINUOUS
 62
     7
 10
-26.22486877441406
 20
38.77245712280273
 11
-26.49862289428711
 21
38.49870300292969
  0
LINE
  8
0
  6
CONTINUOUS
 62
     7
 10
49.00102996826172
 20
18.99899291992188
 11
47.00099945068359
 21
16.99897575378418
  0
LINE
  8
0
  6
CONTINUOUS
 62
     7
 10
-24.49951171875
 20
0
 11
-18.99741172790527
 21
0
  0
LINE
  8
0
  6
CONTINUOUS
 62
     7
 10
-20.99951171875
 20
44
 11
21
 21
44
  0
LINE
  8
0
  6
CONTINUOUS
 62
     7
 10
-26.5
 20
38.49996948242188
 11
-26.5
 21
33.49996948242188
  0
LINE
  8
0
  6
CENTER
 62
     7
 10
-7.0224609375
 20
59
 11
15.3046875
 21
59
  0
LINE
  8
0
  6
CONTINUOUS
 62
     7
 10
35
 20
13.5
 11
45
 21
13.5
  0
LINE
  8
0
  6
CONTINUOUS
 62
     7
 10
49
 20
17.49763870239258
 11
45.00125503540039
 21
13.49890518188477
  0
LINE
  8
0
  6
CONTINUOUS
 62
     7
 10
35.00046539306641
 20
13.49988746643066
 11
27.49445915222168
 21
17
  0
LINE
  8
0
  6
CONTINUOUS
 62
     7
 10
-47.99951171875
 20
13
 11
-35
 21
13
  0
LINE
  8
0
  6
CONTINUOUS
 62
     7
 10
35
 20
13
 11
48.0009765625
 21
13
  0
LINE
  8
0
  6
CONTINUOUS
 62
     7
 10
35.00078964233398
 20
13
 11
26.42276763916016
 21
17
  0
LINE
  8
0
  6
CONTINUOUS
 62
     7
 10
50
 20
78.39999389648438
 11
50
 21
61.99996948242188
  0
LINE
  8
0
  6
CONTINUOUS
 62
     7
 10
-50
 20
78.39999389648438
 11
-50
 21
62
  0
LINE
  8
0
  6
CONTINUOUS
 62
     7
 10
-48.39990234375
 20
80
 11
-26.19970703125
 21
80
  0
LINE
  8
0
  6
CONTINUOUS
 62
     7
 10
49.5
 20
61.5
 11
49.5
 21
14.49924278259277
  0
LINE
  8
0
  6
CONTINUOUS
 62
     7
 10
-49.5
 20
61.5
 11
-49.5
 21
14.50040340423584
  0
LINE
  8
0
  6
CONTINUOUS
 62
     7
 10
-25
 20
78.79998779296875
 11
-11
 21
78.79998779296875
  0
LINE
  8
0
  6
CONTINUOUS
 62
     7
 10
11
 20
78.79998779296875
 11
25
 21
78.79998779296875
  0
LINE
  8
0
  6
CONTINUOUS
 62
     7
 10
-48.39845657348633
 20
79.99863433837891
 11
-49.99847030639648
 21
78.39862060546875
  0
LINE
  8
0
  6
CONTINUOUS
 62
     7
 10
48.40082931518555
 20
79.99991607666016
 11
50.00079727172852
 21
78.39994812011719
  0
LINE
  8
0
  6
CONTINUOUS
 62
     7
 10
49.5
 20
14.49924278259277
 11
48.00035858154297
 21
12.99961948394775
  0
LINE
  8
0
  6
CONTINUOUS
 62
     7
 10
25.00161552429199
 20
78.79843902587891
 11
26.20163917541504
 21
79.99845123291016
  0
LINE
  8
0
  6
CONTINUOUS
 62
     7
 10
-10.99892139434815
 20
78.79901885986328
 11
-9.798895835876465
 21
79.99903106689453
  0
LINE
  8
0
  6
CONTINUOUS
 62
     7
 10
49.50126647949219
 20
61.49886322021484
 11
50.00125885009766
 21
61.99885177612305
  0
LINE
  8
0
  6
CONTINUOUS
 62
     7
 10
11.00075054168701
 20
78.79945373535156
 11
9.80094051361084
 21
79.99924468994141
  0
LINE
  8
0
  6
CONTINUOUS
 62
     7
 10
-24.99858093261719
 20
78.79959106445313
 11
-26.19873428344727
 21
79.99973297119141
  0
LINE
  8
0
  6
CONTINUOUS
 62
     7
 10
26.2001953125
 20
80
 11
48.400390625
 21
80
  0
LINE
  8
0
  6
CONTINUOUS
 62
     7
 10
-9.7998046875
 20
80
 11
9.80029296875
 21
80
  0
LINE
  8
0
  6
CENTER
 62
     7
 10
-37.5
 20
81
 11
-37.5
 21
53.76596069335938
  0
LINE
  8
0
  6
DASHED
 62
     7
 10
-31.5
 20
80
 11
-31.5
 21
62
  0
LINE
  8
0
  6
DASHED
 62
     7
 10
-43.5
 20
80
 11
-43.5
 21
62
  0
LINE
  8
0
  6
DASHED
 62
     7
 10
-43.5
 20
62
 11
-31.5
 21
62
  0
LINE
  8
0
  6
DASHED
 62
     7
 10
-31.49875450134277
 20
61.99948883056641
 11
-32.34874725341797
 21
60.52722930908203
  0
LINE
  8
0
  6
DASHED
 62
     7
 10
-43.49933624267578
 20
62.00022506713867
 11
-42.64933013916016
 21
60.52796936035156
  0
LINE
  8
0
  6
CENTER
 62
     7
 10
37.5
 20
53.76596069335938
 11
37.5
 21
82.77212524414063
  0
LINE
  8
0
  6
CONTINUOUS
 62
     7
 10
-47.99889755249023
 20
12.99931716918945
 11
-49.5
 21
14.50040340423584
  0
LINE
  8
0
  6
CONTINUOUS
 62
     7
 10
-47
 20
17
 11
-22
 21
17
  0
LINE
  8
0
  6
CONTINUOUS
 62
     7
 10
-46.99944686889648
 20
16.99990653991699
 11
-48.99958801269531
 21
19.00003051757813
  0
LINE
  8
0
  6
CONTINUOUS
 62
     7
 10
-45
 20
13.5
 11
-35
 21
13.5
  0
LINE
  8
0
  6
CONTINUOUS
 62
     7
 10
-44.99946594238281
 20
13.49986553192139
 11
-49
 21
17.5003833770752
  0
LINE
  8
0
  6
CONTINUOUS
 62
     7
 10
-27.49406051635742
 20
17
 11
-34.99982452392578
 21
13.50000190734863
  0
LINE
  8
0
  6
CONTINUOUS
 62
     7
 10
-48.0009765625
 20
13
 11
-35
 21
13
  0
LINE
  8
0
  6
CONTINUOUS
 62
     7
 10
-26.42115211486816
 20
17
 11
-34.99917221069336
 21
13
  0
LINE
  8
0
  6
CONTINUOUS
 62
     7
 10
-0.0005920136463828385
 20
64.77240753173828
 11
-4.999531269073486
 21
61.88626861572266
  0
LINE
  8
0
  6
CONTINUOUS
 62
     7
 10
-4.99962043762207
 20
56.11330413818359
 11
0.0003230990841984749
 21
53.22658538818359
  0
LINE
  8
0
  6
CONTINUOUS
 62
     7
 10
-33.10628128051758
 20
13
 11
-24.52825736999512
 21
17
  0
LINE
  8
0
  6
CONTINUOUS
 62
     7
 10
-5
 20
61.88674926757813
 11
-5
 21
56.11318969726563
  0
LINE
  8
0
  6
CONTINUOUS
 62
     7
 10
280
 20
67
 11
280
 21
17
  0
LINE
  8
0
  6
CONTINUOUS
 62
     7
 10
278.5
 20
45.5999755859375
 11
278.5
 21
17
  0
LINE
  8
0
  6
CONTINUOUS
 62
     7
 10
278.5
 20
45.5999755859375
 11
280
 21
45.5999755859375
  0
LINE
  8
0
  6
CONTINUOUS
 62
     7
 10
280
 20
67
 11
282
 21
67
  0
LINE
  8
0
  6
CONTINUOUS
 62
     7
 10
278.5
 20
17
 11
282
 21
17
  0
LINE
  8
0
  6
CONTINUOUS
 62
     7
 10
282
 20
15
 11
301
 21
15
  0
LINE
  8
0
  6
CONTINUOUS
 62
     7
 10
284.5
 20
68
 11
301
 21
68
  0
LINE
  8
0
  6
CONTINUOUS
 62
     7
 10
282.0009155273438
 20
65.49911499023438
 11
284.5009155273438
 21
67.99912261962891
  0
LINE
  8
0
  6
CONTINUOUS
 62
     7
 10
438
 20
15
 11
438
 21
67
  0
LINE
  8
0
  6
CONTINUOUS
 62
     7
 10
440
 20
17
 11
440
 21
67
  0
LINE
  8
0
  6
CONTINUOUS
 62
     7
 10
441.5
 20
17
 11
441.5
 21
45.5999755859375
  0
LINE
  8
0
  6
CONTINUOUS
 62
     7
 10
440
 20
45.5999755859375
 11
441.5
 21
45.5999755859375
  0
LINE
  8
0
  6
CONTINUOUS
 62
     7
 10
438
 20
67
 11
440
 21
67
  0
LINE
  8
0
  6
CONTINUOUS
 62
     7
 10
438
 20
17
 11
441.5
 21
17
  0
LINE
  8
0
  6
CONTINUOUS
 62
     7
 10
419
 20
15
 11
438
 21
15
  0
LINE
  8
0
  6
CONTINUOUS
 62
     7
 10
419
 20
68
 11
435.5
 21
68
  0
LINE
  8
0
  6
CONTINUOUS
 62
     7
 10
435.4998779296875
 20
67.99952697753906
 11
437.9999389648438
 21
65.49944305419922
  0
LINE
  8
0
  6
CONTINUOUS
 62
     7
 10
282
 20
67
 11
282
 21
15
  0
LINE
  8
0
  6
CONTINUOUS
 62
     7
 10
275.86181640625
 20
64.85346984863281
 11
279.4375
 21
64.85346984863281
  0
LINE
  8
0
  6
CONTINUOUS
 62
     7
 10
275.86181640625
 20
61.96672058105469
 11
279.4375
 21
61.96672058105469
  0
LINE
  8
0
  6
CONTINUOUS
 62
     7
 10
275.2998046875
 20
63.87998962402344
 11
275.2998046875
 21
58.99998474121094
  0
LINE
  8
0
  6
CONTINUOUS
 62
     7
 10
267.7998046875
 20
63.79988098144531
 11
275.2998046875
 21
63.79988098144531
  0
LINE
  8
0
  6
CONTINUOUS
 62
     7
 10
275.2998046875
 20
54.19990539550781
 11
267.7998046875
 21
54.19990539550781
  0
LINE
  8
0
  6
CONTINUOUS
 62
     7
 10
265.64990234375
 20
62.58000183105469
 11
270.224609375
 21
62.58000183105469
  0
LINE
  8
0
  6
CONTINUOUS
 62
     7
 10
275.3001403808594
 20
63.87947845458984
 11
275.8621826171875
 21
64.85295867919922
  0
LINE
  8
0
  6
CONTINUOUS
 62
     7
 10
275.2998046875
 20
58.99986267089844
 11
275.2998046875
 21
54.11988830566406
  0
LINE
  8
0
  6
CONTINUOUS
 62
     7
 10
275.8620300292969
 20
53.14611053466797
 11
275.3000183105469
 21
54.11954116821289
  0
LINE
  8
0
  6
CONTINUOUS
 62
     7
 10
279.4375
 20
53.14640808105469
 11
275.86181640625
 21
53.14640808105469
  0
LINE
  8
0
  6
CONTINUOUS
 62
     7
 10
279.4375
 20
56.03315734863281
 11
275.86181640625
 21
56.03315734863281
  0
LINE
  8
0
  6
CONTINUOUS
 62
     7
 10
279.4378662109375
 20
64.85306549072266
 11
280.0001220703125
 21
63.87921142578125
  0
LINE
  8
0
  6
CONTINUOUS
 62
     7
 10
280.0004577636719
 20
54.11936950683594
 11
279.4384155273438
 21
53.1458854675293
  0
LINE
  8
0
  6
CONTINUOUS
 62
     7
 10
270.2253112792969
 20
62.57931137084961
 11
272.0653991699219
 21
58.99911117553711
  0
LINE
  8
0
  6
CONTINUOUS
 62
     7
 10
265.2537231445313
 20
61.80636215209961
 11
265.6509094238281
 21
62.57913589477539
  0
LINE
  8
0
  6
CONTINUOUS
 62
     7
 10
269.3504333496094
 20
62.57925415039063
 11
271.1905212402344
 21
58.99905395507813
  0
LINE
  8
0
  6
CONTINUOUS
 62
     7
 10
271.1910095214844
 20
58.99913787841797
 11
269.3510131835938
 21
55.41912841796875
  0
LINE
  8
0
  6
CONTINUOUS
 62
     7
 10
272.0660400390625
 20
58.99910736083984
 11
270.2260131835938
 21
55.41907119750977
  0
LINE
  8
0
  6
CONTINUOUS
 62
     7
 10
270.224609375
 20
55.41987609863281
 11
265.64990234375
 21
55.41987609863281
  0
LINE
  8
0
  6
CONTINUOUS
 62
     7
 10
265.6504516601563
 20
55.4191780090332
 11
265.2533569335938
 21
56.1917610168457
  0
LINE
  8
0
  6
CENTER
 62
     7
 10
261.32373046875
 20
59.00004577636719
 11
281.69873046875
 21
59.00004577636719
  0
LINE
  8
0
  6
CONTINUOUS
 62
     7
 10
301
 20
78.19998168945313
 11
301
 21
14.5
  0
LINE
  8
0
  6
CONTINUOUS
 62
     7
 10
419
 20
14.5
 11
419
 21
78.19976806640625
  0
LINE
  8
0
  6
CONTINUOUS
 62
     7
 10
301
 20
14.5
 11
419
 21
14.5
  0
LINE
  8
0
  6
CONTINUOUS
 62
     7
 10
302.80029296875
 20
80
 11
417.199951171875
 21
80
  0
LINE
  8
0
  6
CONTINUOUS
 62
     7
 10
417.2003479003906
 20
79.99947357177734
 11
419.0004577636719
 21
78.19914245605469
  0
LINE
  8
0
  6
CENTER
 62
     7
 10
397.5
 20
53.76596069335938
 11
397.5
 21
82.77212524414063
  0
LINE
  8
0
  6
CONTINUOUS
 62
     7
 10
19
 20
26
 11
19
 21
20
  0
LINE
  8
0
  6
CONTINUOUS
 62
     7
 10
-19
 20
26
 11
-19
 21
20
  0
LINE
  8
0
  6
CONTINUOUS
 62
     7
 10
-20.99861335754395
 20
43.99872589111328
 11
-21.62734413146973
 21
43.3699951171875
  0
LINE
  8
0
  6
CONTINUOUS
 62
     7
 10
-18.99872207641602
 20
19.99881362915039
 11
-26.49872016906738
 21
12.49881649017334
  0
LINE
  8
0
  6
CONTINUOUS
 62
     7
 10
19.00126647949219
 20
25.99889945983887
 11
21.63006210327148
 21
28.62769508361816
  0
LINE
  8
0
  6
CONTINUOUS
 62
     7
 10
26.50122261047363
 20
1.998857975006104
 11
24.50121688842773
 21
-0.0011413594475016
  0
LINE
  8
0
  6
CONTINUOUS
 62
     7
 10
-26.4986572265625
 20
2.000009775161743
 11
-24.49886703491211
 21
0.0002262247871840373
  0
LINE
  8
0
  6
CONTINUOUS
 62
     7
 10
19.00085639953613
 20
20.00016593933106
 11
26.50108909606934
 21
12.4999303817749
  0
LINE
  8
0
  6
CONTINUOUS
 62
     7
 10
21.00117683410645
 20
43.99981689453125
 11
21.62990570068359
 21
43.37108612060547
  0
LINE
  8
0
  6
CONTINUOUS
 62
     7
 10
-18.99900245666504
 20
26.00013732910156
 11
-21.62752151489258
 21
28.62865447998047
  0
LINE
  8
0
  6
CONTINUOUS
 62
     7
 10
-18
 20
1
 11
-10
 21
1
  0
LINE
  8
0
  6
CONTINUOUS
 62
     7
 10
-17.9986572265625
 20
0.9987554550170898
 11
-18.9986572265625
 21
-0.001245986786670983
  0
LINE
  8
0
  6
CONTINUOUS
 62
     7
 10
-9.999134063720703
 20
1.000297904014587
 11
-8.998894691467285
 21
5.989118290017359E-005
  0
LINE
  8
0
  6
CONTINUOUS
 62
     7
 10
18.00096130371094
 20
1.000214815139771
 11
19.00119972229004
 21
-2.406630483164918E-005
  0
LINE
  8
0
  6
CONTINUOUS
 62
     7
 10
10.00124454498291
 20
0.9989141225814819
 11
9.001242637634277
 21
-0.001086504198610783
  0
LINE
  8
0
  6
CONTINUOUS
 62
     7
 10
-8.99951171875
 20
0
 11
9
 21
0
  0
LINE
  8
0
  6
CONTINUOUS
 62
     7
 10
10
 20
1
 11
18
 21
1
  0
LINE
  8
0
  6
CONTINUOUS
 62
     7
 10
19
 20
0
 11
24.5
 21
0
  0
LINE
  8
0
  6
CONTINUOUS
 62
     7
 10
26.5
 20
2
 11
26.5
 21
12.5
  0
LINE
  8
0
  6
CONTINUOUS
 62
     7
 10
26.5
 20
38.49996948242188
 11
26.5
 21
33.49996948242188
  0
LINE
  8
0
  6
CONTINUOUS
 62
     7
 10
-26.5
 20
12.5
 11
-26.5
 21
2
  0
LINE
  8
0
  6
CONTINUOUS
 62
     7
 10
26.22738838195801
 20
38.77359008789063
 11
26.50118446350098
 21
38.49979400634766
  0
LINE
  8
0
  6
CONTINUOUS
 62
     7
 10
26.2264518737793
 20
33.22408294677734
 11
26.50126266479492
 21
33.49889373779297
  0
LINE
  8
0
  6
CONTINUOUS
 62
     7
 10
-26.22406196594238
 20
33.22519302368164
 11
-26.49889373779297
 21
33.50002670288086
  0
LINE
  8
0
  6
CENTER
 62
     7
 10
0
 20
84.13461303710938
 11
0
 21
-7.326019287109375
  0
LINE
  8
0
  6
DASHED
 62
     7
 10
-11.5
 20
44
 11
-11.5
 21
24
  0
LINE
  8
0
  6
DASHED
 62
     7
 10
11.5
 20
44
 11
11.5
 21
24
  0
LINE
  8
0
  6
DASHED
 62
     7
 10
-8
 20
24
 11
-8
 21
0
  0
LINE
  8
0
  6
DASHED
 62
     7
 10
8
 20
24
 11
8
 21
0
  0
LINE
  8
0
  6
DASHED
 62
     7
 10
-11.5
 20
24
 11
11.5
 21
24
  0
LINE
  8
0
  6
CONTINUOUS
 62
     7
 10
-33.44328689575195
 20
13.72574234008789
 11
-33.10518264770508
 21
13.0006799697876
  0
LINE
  8
0
  6
CONTINUOUS
 62
     7
 10
24.52937698364258
 20
17
 11
33.10740280151367
 21
13
  0
LINE
  8
0
  6
CONTINUOUS
 62
     7
 10
33.10811614990234
 20
12.99936389923096
 11
33.44622421264648
 21
13.724440574646
  0
LINE
  8
0
  6
DASHED
 62
     7
 10
-32.34999847412109
 20
80
 11
-32.34999847412109
 21
58
  0
LINE
  8
0
  6
DASHED
 62
     7
 10
-42.65000152587891
 20
80
 11
-42.65000152587891
 21
58
  0
LINE
  8
0
  6
DASHED
 62
     7
 10
-42.65000152587891
 20
58
 11
-32.34999847412109
 21
58
  0
LINE
  8
0
  6
DASHED
 62
     7
 10
-37.5
 20
55.02664566040039
 11
-32.34999847412109
 21
58
  0
LINE
  8
0
  6
DASHED
 62
     7
 10
-42.64999771118164
 20
58
 11
-37.5
 21
55.02664947509766
  0
LINE
  8
0
  6
CONTINUOUS
 62
     7
 10
302.7996826171875
 20
79.99946594238281
 11
300.9995727539063
 21
78.19913482666016
  0
LINE
  8
0
  6
DASHED
 62
     7
 10
322.5
 20
55.02664947509766
 11
327.6500244140625
 21
58.00000762939453
  0
LINE
  8
0
  6
DASHED
 62
     7
 10
317.3500061035156
 20
58
 11
327.6499938964844
 21
58
  0
LINE
  8
0
  6
CENTER
 62
     7
 10
322.5
 20
81
 11
322.5
 21
53.76596069335938
  0
LINE
  8
0
  6
DASHED
 62
     7
 10
328.5
 20
80
 11
328.5
 21
62
  0
LINE
  8
0
  6
DASHED
 62
     7
 10
316.5
 20
80
 11
316.5
 21
62
  0
LINE
  8
0
  6
DASHED
 62
     7
 10
327.6499938964844
 20
80
 11
327.6499938964844
 21
58
  0
LINE
  8
0
  6
DASHED
 62
     7
 10
317.3500061035156
 20
80
 11
317.3500061035156
 21
58
  0
LINE
  8
0
  6
DASHED
 62
     7
 10
316.5
 20
62
 11
328.5
 21
62
  0
LINE
  8
0
  6
DASHED
 62
     7
 10
328.5012512207031
 20
61.99948501586914
 11
327.6512451171875
 21
60.52722549438477
  0
LINE
  8
0
  6
DASHED
 62
     7
 10
317.3500061035156
 20
58.00000381469727
 11
322.5
 21
55.02664566040039
  0
LINE
  8
0
  6
DASHED
 62
     7
 10
316.5006713867188
 20
62.00022506713867
 11
317.3506469726563
 21
60.52796936035156
  0
LINE
  8
0
  6
CONTINUOUS
 62
     7
 10
-47.00054931640625
 20
67
 11
47
 21
67
  0
LINE
  8
0
  6
CONTINUOUS
 62
     7
 10
49
 20
64.99996948242188
 11
49
 21
17.49763870239258
  0
LINE
  8
0
  6
CONTINUOUS
 62
     7
 10
49.00083541870117
 20
64.99971771240234
 11
47.00070571899414
 21
66.99984741210938
  0
LINE
  8
0
  6
CONTINUOUS
 62
     7
 10
-49
 20
17.5003833770752
 11
-49
 21
65.00054931640625
  0
LINE
  8
0
  6
CONTINUOUS
 62
     7
 10
-28.49981689453125
 20
39.3274040222168
 11
-21.82823181152344
 21
45.99900817871094
  0
LINE
  8
0
  6
CONTINUOUS
 62
     7
 10
-28.5
 20
32.67156982421875
 11
-28.5
 21
39.32839965820313
  0
LINE
  8
0
  6
CONTINUOUS
 62
     7
 10
-28.49959182739258
 20
32.67123413085938
 11
-20.99970245361328
 21
25.17134666442871
  0
LINE
  8
0
  6
CONTINUOUS
 62
     7
 10
-21
 20
20.82839965820313
 11
-21
 21
25.17156982421875
  0
LINE
  8
0
  6
CONTINUOUS
 62
     7
 10
-24.82812881469727
 20
16.99902725219727
 11
-20.99980735778809
 21
20.82734680175781
  0
LINE
  8
0
  6
CONTINUOUS
 62
     7
 10
-49.00083541870117
 20
64.99971771240234
 11
-47.00070571899414
 21
66.99984741210938
  0
LINE
  8
0
  6
CONTINUOUS
 62
     7
 10
-21.828125
 20
46
 11
21.82861328125
 21
46
  0
LINE
  8
0
  6
CONTINUOUS
 62
     7
 10
21.82925605773926
 20
45.99977493286133
 11
28.50075531005859
 21
39.3282585144043
  0
LINE
  8
0
  6
CONTINUOUS
 62
     7
 10
28.5
 20
39.32839965820313
 11
28.5
 21
32.67156982421875
  0
LINE
  8
0
  6
CONTINUOUS
 62
     7
 10
21.00087738037109
 20
25.17075538635254
 11
28.50089645385742
 21
32.67077255249023
  0
LINE
  8
0
  6
CONTINUOUS
 62
     7
 10
21
 20
25.17156982421875
 11
21
 21
20.82839965820313
  0
LINE
  8
0
  6
CONTINUOUS
 62
     7
 10
21.00078773498535
 20
20.82841682434082
 11
24.82910919189453
 21
17.00009727478027
  0
LINE
  8
0
  6
CONTINUOUS
 62
     7
 10
301
 20
200
 11
419
 21
200
  0
LINE
  8
0
  6
CONTINUOUS
 62
     7
 10
301
 20
300
 11
419
 21
300
  0
LINE
  8
0
  6
CONTINUOUS
 62
     7
 10
301
 20
276.19970703125
 11
419
 21
276.19970703125
  0
LINE
  8
0
  6
CONTINUOUS
 62
     7
 10
301
 20
259.7998046875
 11
419
 21
259.7998046875
  0
LINE
  8
0
  6
CONTINUOUS
 62
     7
 10
301
 20
240.19970703125
 11
419
 21
240.19970703125
  0
LINE
  8
0
  6
CONTINUOUS
 62
     7
 10
301
 20
223.7998046875
 11
419
 21
223.7998046875
  0
LINE
  8
0
  6
CONTINUOUS
 62
     7
 10
301
 20
300
 11
301
 21
200
  0
LINE
  8
0
  6
CONTINUOUS
 62
     7
 10
419
 20
300
 11
419
 21
200
  0
LINE
  8
0
  6
CENTER
 62
     7
 10
322.5
 20
219.5
 11
322.5
 21
205.5
  0
LINE
  8
0
  6
CENTER
 62
     7
 10
315.5
 20
212.5
 11
329.5
 21
212.5
  0
LINE
  8
0
  6
CENTER
 62
     7
 10
397.5
 20
219.5
 11
397.5
 21
205.5
  0
LINE
  8
0
  6
CENTER
 62
     7
 10
390.5
 20
212.5
 11
404.5
 21
212.5
  0
LINE
  8
0
  6
CENTER
 62
     7
 10
397.5
 20
294.5
 11
397.5
 21
280.5
  0
LINE
  8
0
  6
CENTER
 62
     7
 10
390.5
 20
287.5
 11
404.5
 21
287.5
  0
LINE
  8
0
  6
CENTER
 62
     7
 10
322.5
 20
294.5
 11
322.5
 21
280.5
  0
LINE
  8
0
  6
CENTER
 62
     7
 10
315.5
 20
287.5
 11
329.5
 21
287.5
  0
LINE
  8
0
  6
CONTINUOUS
 62
     7
 10
301
 20
59
 11
419
 21
59
  0
LINE
  8
0
  6
CONTINUOUS
 62
     7
 10
-50
 20
62
 11
-49.5
 21
61.5
  0
CIRCLE
  8
0
  6
CONTINUOUS
 62
     7
 10
180
 20
250
 40
11.5
  0
CIRCLE
  8
0
  6
CONTINUOUS
 62
     7
 10
180
 20
250
 40
8
  0
ARC
  8
0
  6
CONTINUOUS
 62
     7
 10
266.6336059570313
 20
240.9449005126953
 40
3.299999237060546
 50
131.5803705110077
 51
157.4999548639651
  0
ARC
  8
0
  6
CONTINUOUS
 62
     7
 10
266.6336059570313
 20
240.9449005126953
 40
3.299999237060545
 50
337.5000181569009
 51
3.419602296415157
  0
ARC
  8
0
  6
CONTINUOUS
 62
     7
 10
258.7172241210938
 20
243.7909851074219
 40
6.00000000000001
 50
2.43365082934552
 51
20.87173987704925
  0
ARC
  8
0
  6
CONTINUOUS
 62
     7
 10
274.2437744140625
 20
237.3596801757813
 40
6.000000000000011
 50
114.1278165022775
 51
132.566321978077
  0
ARC
  8
0
  6
CONTINUOUS
 62
     7
 10
263.9125366210938
 20
244.0117950439453
 40
0.7999999523162822
 50
311.5798327472963
 51
2.433049772698627
  0
ARC
  8
0
  6
CONTINUOUS
 62
     7
 10
270.7262878417969
 20
241.189453125
 40
0.7999999523162747
 50
132.5669776762372
 51
183.4201402735693
  0
ARC
  8
0
  6
CONTINUOUS
 62
     7
 10
267.7999877929688
 20
251.7999877929688
 40
3.000000000000006
 50
89.99998201391097
 51
179.9999640278214
  0
ARC
  8
0
  6
CONTINUOUS
 62
     7
 10
267.7999877929688
 20
248.2000122070313
 40
3
 50
180.000090613692
 51
193.1569474081041
  0
ARC
  8
0
  6
CONTINUOUS
 62
     7
 10
8.44677734375
 20
56.70999145507813
 40
0.9683421850204466
 50
215.3314570768741
 51
278.297222506794
  0
ARC
  8
0
  6
CONTINUOUS
 62
     7
 10
7.45703125
 20
54.91998291015625
 40
1.246148109436035
 50
80.76452806729958
 51
142.1250351177264
  0
ARC
  8
0
  6
CONTINUOUS
 62
     7
 10
7.45703125
 20
63.07998657226563
 40
1.254199028015138
 50
217.8749648822736
 51
279.2353626496737
  0
ARC
  8
0
  6
CONTINUOUS
 62
     7
 10
8.44677734375
 20
61.28997802734375
 40
0.9701610803604148
 50
81.70288677623258
 51
144.6685429231259
  0
ARC
  8
0
  6
CONTINUOUS
 62
     7
 10
0
 20
59
 40
4.799999237060547
 50
46.81658568465235
 51
313.1834072577874
  0
ARC
  8
0
  6
CONTINUOUS
 62
     7
 10
26.5673828125
 20
43.71197509765625
 40
4.949998855590819
 50
183.9467378406655
 51
266.0531521930625
  0
ARC
  8
0
  6
CONTINUOUS
 62
     7
 10
26.5673828125
 20
28.2869873046875
 40
4.949998855590819
 50
93.95957927955047
 51
176.0403667621815
  0
ARC
  8
0
  6
CONTINUOUS
 62
     7
 10
-26.56689453125
 20
28.2869873046875
 40
4.949998855590822
 50
3.959607510923554
 51
86.04038474827084
  0
ARC
  8
0
  6
CONTINUOUS
 62
     7
 10
-26.56689453125
 20
43.71197509765625
 40
4.949998855590819
 50
273.9469384206296
 51
356.0532673956619
  0
ARC
  8
0
  6
CONTINUOUS
 62
     7
 10
29.48102569580078
 20
16.34538650512695
 40
2.499999999999999
 50
191.8576815034277
 51
298.1423098195095
  0
ARC
  8
0
  6
CONTINUOUS
 62
     7
 10
-29.48038673400879
 20
16.34568405151367
 40
2.5
 50
241.8577261526692
 51
348.1423203178051
  0
ARC
  8
0
  6
CONTINUOUS
 62
     7
 10
267.7998046875
 20
60.79997253417969
 40
2.999999999999999
 50
89.99998201391097
 51
165.8646416536697
  0
ARC
  8
0
  6
CONTINUOUS
 62
     7
 10
267.7998046875
 20
57.19999694824219
 40
2.999999999999977
 50
195.6428630584221
 51
270.0000726276024
  0
ARC
  8
0
  6
CONTINUOUS
 62
     7
 10
283.41064453125
 20
58.99998474121094
 40
8.111171722412118
 50
158.545684146651
 51
201.4542985505051
  0
ARC
  8
0
  6
CONTINUOUS
 62
     7
 10
283.61767578125
 20
65.28425598144531
 40
8.435743331909185
 50
189.5825728116531
 51
203.1582021644572
  0
ARC
  8
0
  6
CONTINUOUS
 62
     7
 10
283.61767578125
 20
52.71571350097656
 40
8.435743331909167
 50
156.8417978355428
 51
170.4174271883469
  0
ARC
  8
0
  6
CONTINUOUS
 62
     7
 10
271.681640625
 20
65.28425598144531
 40
8.43574333190919
 50
336.8417996567757
 51
350.4174290095797
  0
ARC
  8
0
  6
CONTINUOUS
 62
     7
 10
271.888671875
 20
58.99998474121094
 40
8.111171722412133
 50
338.5457030433568
 51
21.45431403211627
  0
ARC
  8
0
  6
CONTINUOUS
 62
     7
 10
271.681640625
 20
52.71571350097656
 40
8.435743331909196
 50
9.582570990420285
 51
23.15820034322427
  0
CIRCLE
  8
0
  6
CONTINUOUS
 62
     7
 10
322.5
 20
212.5
 40
5.150000095367432
  0
CIRCLE
  8
0
  6
CONTINUOUS
 62
     7
 10
322.5
 20
212.5
 40
6
  0
POLYLINE
  8
0
  6
CONTINUOUS
 62
     7
 66
     1
 10
0
 20
0
 70
     1
  0
VERTEX
  8
0
  6
CONTINUOUS
 62
     7
 10
265.599609375
 20
61.50004577636719
 42
0.1103738814593225
  0
VERTEX
  8
0
  6
CONTINUOUS
 62
     7
 10
264.6874489941897
 20
61.29503094373966
 42
0.102506474426967
  0
VERTEX
  8
0
  6
CONTINUOUS
 62
     7
 10
263.9401076258247
 20
60.73102925672578
 42
0.09329333388907474
  0
VERTEX
  8
0
  6
CONTINUOUS
 62
     7
 10
263.4624998623578
 20
59.92413664117326
 42
0.08782398035299928
  0
VERTEX
  8
0
  6
CONTINUOUS
 62
     7
 10
263.2996215820313
 20
59.00004577636719
 42
0.08777377589688519
  0
VERTEX
  8
0
  6
CONTINUOUS
 62
     7
 10
263.4623226240896
 20
58.07642111822525
 42
0.09326429117697989
  0
VERTEX
  8
0
  6
CONTINUOUS
 62
     7
 10
263.9396062189645
 20
57.2696051432962
 42
0.1026346484135508
  0
VERTEX
  8
0
  6
CONTINUOUS
 62
     7
 10
264.6878123184304
 20
56.70487084485264
 42
0.1103326111993224
  0
VERTEX
  8
0
  6
CONTINUOUS
 62
     7
 10
265.599609375
 20
56.50004577636719
 42
0.1103743759019649
  0
VERTEX
  8
0
  6
CONTINUOUS
 62
     7
 10
266.5117755113159
 20
56.70503511455626
 42
0.1025113960597305
  0
VERTEX
  8
0
  6
CONTINUOUS
 62
     7
 10
267.2591253326125
 20
57.26902455526147
 42
0.09329743182877684
  0
VERTEX
  8
0
  6
CONTINUOUS
 62
     7
 10
267.7367303187851
 20
58.07591811521176
 42
0.08782759120806064
  0
VERTEX
  8
0
  6
CONTINUOUS
 62
     7
 10
267.8995971679688
 20
59.00004577636719
 42
0.08777203204705449
  0
VERTEX
  8
0
  6
CONTINUOUS
 62
     7
 10
267.7368758397434
 20
59.92366701180544
 42
0.09326061246009121
  0
VERTEX
  8
0
  6
CONTINUOUS
 62
     7
 10
267.2595833986654
 20
60.73047824035755
 42
0.1026318320910053
  0
VERTEX
  8
0
  6
CONTINUOUS
 62
     7
 10
266.5113785044237
 20
61.29521524214953
 42
0.1103311605423871
  0
SEQEND
  8
0
  0
POLYLINE
  8
0
  6
CONTINUOUS
 62
     7
 66
     1
 10
0
 20
0
  0
VERTEX
  8
0
  6
CONTINUOUS
 62
     7
 10
264.599609375
 20
56.76005554199219
 42
0.06388892118885149
  0
VERTEX
  8
0
  6
CONTINUOUS
 62
     7
 10
265.1960706230998
 20
56.23022568349869
 42
0.07487799167964937
  0
VERTEX
  8
0
  6
CONTINUOUS
 62
     7
 10
265.9141330177858
 20
55.88397251097819
 42
0.06457805785876991
  0
VERTEX
  8
0
  6
CONTINUOUS
 62
     7
 10
266.69970703125
 20
55.75004577636719
 42
0
  0
SEQEND
  8
0
  0
POLYLINE
  8
0
  6
CONTINUOUS
 62
     7
 66
     1
 10
0
 20
0
  0
VERTEX
  8
0
  6
CONTINUOUS
 62
     7
 10
264.4756384899332
 20
56.81891989487493
 42
0.06283276570233268
  0
VERTEX
  8
0
  6
CONTINUOUS
 62
     7
 10
265.0399379835514
 20
56.29274805224841
 42
0.06649809778525787
  0
VERTEX
  8
0
  6
CONTINUOUS
 62
     7
 10
265.7199402457887
 20
55.92824642061178
 42
0.06915658830775703
  0
VERTEX
  8
0
  6
CONTINUOUS
 62
     7
 10
266.4722966341953
 20
55.75939452152353
 42
0.06974566219975065
  0
VERTEX
  8
0
  6
CONTINUOUS
 62
     7
 10
267.2410527279531
 20
55.80338941472891
 42
0.06816346547718961
  0
VERTEX
  8
0
  6
CONTINUOUS
 62
     7
 10
267.9688998964639
 20
56.0552016740484
 42
0.06499719751334027
  0
VERTEX
  8
0
  6
CONTINUOUS
 62
     7
 10
268.6054702771444
 20
56.49002667179877
 42
0.06129279151440133
  0
VERTEX
  8
0
  6
CONTINUOUS
 62
     7
 10
269.1135300484726
 20
57.07012594395861
 42
0.05808138444701536
  0
VERTEX
  8
0
  6
CONTINUOUS
 62
     7
 10
269.4705246543908
 20
57.7541214047967
 42
0.05590655412339283
  0
VERTEX
  8
0
  6
CONTINUOUS
 62
     7
 10
269.6641760924424
 20
58.50126743804484
 42
0.05496374961384177
  0
VERTEX
  8
0
  6
CONTINUOUS
 62
     7
 10
269.6891813465062
 20
59.27199067433698
 42
0.05547223588927824
  0
VERTEX
  8
0
  6
CONTINUOUS
 62
     7
 10
269.5450959935239
 20
60.02987916659026
 42
0.05727854426640792
  0
VERTEX
  8
0
  6
CONTINUOUS
 62
     7
 10
269.2356853779728
 20
60.73632083347253
 42
0.06026668522519862
  0
VERTEX
  8
0
  6
CONTINUOUS
 62
     7
 10
268.7704497363275
 20
61.35163297551572
 42
0.06395169401460261
  0
VERTEX
  8
0
  6
CONTINUOUS
 62
     7
 10
268.1682480391257
 20
61.83401822052439
 42
0.06744562089597457
  0
VERTEX
  8
0
  6
CONTINUOUS
 62
     7
 10
267.4615937125368
 20
62.14348791168562
 42
0.06944372155082552
  0
VERTEX
  8
0
  6
CONTINUOUS
 62
     7
 10
266.69970703125
 20
62.25004577636719
 42
0
  0
SEQEND
  8
0
  0
POLYLINE
  8
0
  6
CONTINUOUS
 62
     7
 66
     1
 10
0
 20
0
  0
VERTEX
  8
0
  6
CONTINUOUS
 62
     7
 10
264.618047100959
 20
61.26091351804723
 42
-0.06326885143088727
  0
VERTEX
  8
0
  6
CONTINUOUS
 62
     7
 10
265.2106377795028
 20
61.77985371571702
 42
-0.0741812070286041
  0
VERTEX
  8
0
  6
CONTINUOUS
 62
     7
 10
265.9219915742006
 20
62.11861959694839
 42
-0.06377319954848996
  0
VERTEX
  8
0
  6
CONTINUOUS
 62
     7
 10
266.69970703125
 20
62.25004577636719
 42
0
  0
SEQEND
  8
0
  0
POLYLINE
  8
0
  6
CONTINUOUS
 62
     7
 66
     1
 10
0
 20
0
  0
VERTEX
  8
0
  6
CONTINUOUS
 62
     7
 10
7.65673828125
 20
61.84996032714844
 42
0.1885790413328801
  0
VERTEX
  8
0
  6
CONTINUOUS
 62
     7
 10
7.297012500205854
 20
61.69026759011339
 42
0.0757428620360819
  0
VERTEX
  8
0
  6
CONTINUOUS
 62
     7
 10
7.052784083176728
 20
61.37242904499814
 42
0.03933462221509337
  0
VERTEX
  8
0
  6
CONTINUOUS
 62
     7
 10
6.882926590543461
 20
61.00709582172543
 42
0.0257703487955414
  0
VERTEX
  8
0
  6
CONTINUOUS
 62
     7
 10
6.760774582275624
 20
60.6229465827912
 42
0.01950453085740267
  0
VERTEX
  8
0
  6
CONTINUOUS
 62
     7
 10
6.673284987104013
 20
60.22873671421545
 42
0.01621404618198254
  0
VERTEX
  8
0
  6
CONTINUOUS
 62
     7
 10
6.613924897480231
 20
59.82914786386147
 42
0.01446604031365311
  0
VERTEX
  8
0
  6
CONTINUOUS
 62
     7
 10
6.57905636173721
 20
59.42662537528727
 42
0.01369080134769723
  0
VERTEX
  8
0
  6
CONTINUOUS
 62
     7
 10
6.566806516920299
 20
59.02248340272085
 42
0.01360437617750876
  0
VERTEX
  8
0
  6
CONTINUOUS
 62
     7
 10
6.576520722618423
 20
58.61964027733369
 42
0.01431478132045319
  0
VERTEX
  8
0
  6
CONTINUOUS
 62
     7
 10
6.608667581180989
 20
58.21739078566442
 42
0.01598132931976022
  0
VERTEX
  8
0
  6
CONTINUOUS
 62
     7
 10
6.665174847237362
 20
57.8165743867971
 42
0.01902614240551916
  0
VERTEX
  8
0
  6
CONTINUOUS
 62
     7
 10
6.749231870012945
 20
57.42142219497392
 42
0.02487901310722716
  0
VERTEX
  8
0
  6
CONTINUOUS
 62
     7
 10
6.867241808741762
 20
57.03502660372636
 42
0.03729515297191885
  0
VERTEX
  8
0
  6
CONTINUOUS
 62
     7
 10
7.031309774166564
 20
56.66584236125743
 42
0.069981868088221
  0
VERTEX
  8
0
  6
CONTINUOUS
 62
     7
 10
7.266887275037008
 20
56.3385085730152
 42
0.1738259910285364
  0
VERTEX
  8
0
  6
CONTINUOUS
 62
     7
 10
7.616649469664765
 20
56.15190640487635
 42
0
  0
SEQEND
  8
0
  0
POLYLINE
  8
0
  6
CONTINUOUS
 62
     7
 66
     1
 10
0
 20
0
 70
     1
  0
VERTEX
  8
0
  6
CONTINUOUS
 62
     7
 10
11.35693359375
 20
61.5
 42
0.255155907743674
  0
VERTEX
  8
0
  6
CONTINUOUS
 62
     7
 10
10.82713345758489
 20
61.07510298380165
 42
0.06318716643628063
  0
VERTEX
  8
0
  6
CONTINUOUS
 62
     7
 10
10.57303775794282
 20
60.4122186391137
 42
0.03518424448719108
  0
VERTEX
  8
0
  6
CONTINUOUS
 62
     7
 10
10.44629864124841
 20
59.71217274319396
 42
0.02798380700959424
  0
VERTEX
  8
0
  6
CONTINUOUS
 62
     7
 10
10.40692138671875
 20
59
 42
0.02789791109386219
  0
VERTEX
  8
0
  6
CONTINUOUS
 62
     7
 10
10.44606991020817
 20
58.28985550033519
 42
0.03515802421052467
  0
VERTEX
  8
0
  6
CONTINUOUS
 62
     7
 10
10.57257317664487
 20
57.58956885119711
 42
0.06315148120679208
  0
VERTEX
  8
0
  6
CONTINUOUS
 62
     7
 10
10.82660568798049
 20
56.92583087443367
 42
0.2552811699319436
  0
VERTEX
  8
0
  6
CONTINUOUS
 62
     7
 10
11.35693359375
 20
56.49999999999999
 42
0.2551624777520862
  0
VERTEX
  8
0
  6
CONTINUOUS
 62
     7
 10
11.88674918716535
 20
56.92487664408348
 42
0.06319287416772051
  0
VERTEX
  8
0
  6
CONTINUOUS
 62
     7
 10
12.1408489488407
 20
57.58775901249323
 42
0.03518694087412341
  0
VERTEX
  8
0
  6
CONTINUOUS
 62
     7
 10
12.26758141491663
 20
58.28780599171067
 42
0.02798630487675291
  0
VERTEX
  8
0
  6
CONTINUOUS
 62
     7
 10
12.30694580078125
 20
59
 42
0.02789629000266829
  0
VERTEX
  8
0
  6
CONTINUOUS
 62
     7
 10
12.26778214244263
 20
59.71014361286588
 42
0.03515570588170177
  0
VERTEX
  8
0
  6
CONTINUOUS
 62
     7
 10
12.14126934587554
 20
60.41042862185718
 42
0.06314735579118758
  0
VERTEX
  8
0
  6
CONTINUOUS
 62
     7
 10
11.88723594544969
 20
61.07416657057743
 42
0.2552751861935957
  0
SEQEND
  8
0
  0
TEXT
  8
0
  6
CONTINUOUS
 62
     7
 10
-11.28550004959106
 20
-31.79999995231628
 40
3.599999904632568
 41
1.008382419577613
  1
HSR55R
  0
ENDSEC
  0
EOF
