  0
SECTION
  2
HEADER
  0
ENDSEC
  0
SECTION
  2
TABLES
  0
TABLE
  2
LTYPE
 70
    22
  0
LTYPE
  2
CONTINUOUS
 70
    64
  3
Solid line
 72
    65
 73
     0
 40
0.000000
  0
LTYPE
  2
DASHED
 70
    64
  3
__ __ __ __ __ __ __ __ __ __ __ __ __ __ __
 72
    65
 73
     2
 40
3.500000
 49
2.000000
 49
-1.500000
  0
LTYPE
  2
CENTER
 70
    64
  3
____ _ ____ _ ____ _ ____ _ ____ _ ____ _ ____
 72
    65
 73
     4
 40
17.500000
 49
13.000000
 49
-1.500000
 49
1.500000
 49
-1.500000
  0
LTYPE
  2
PHANTOM
 70
    64
  3
_____ _ _ _____ _ _ _____ _ _ _____ _ _ ____  
 72
    65
 73
     6
 40
15.500000
 49
8.000000
 49
-1.500000
 49
1.500000
 49
-1.500000
 49
1.500000
 49
-1.500000
  0
LTYPE
  2
DOT
 70
    64
  3
. . . . . . . . . . . . . . . . . . . . . . . .
 72
    65
 73
     2
 40
0.25
 49
0.0
 49
-0.25
  0
ENDTAB
  0
TABLE
  2
LAYER
 70
     1
  0
LAYER
  2
0
 70
     0
 62
     7
  6
CONTINUOUS
  0
ENDTAB
  0
TABLE
  2
STYLE
 70
     1
  0
STYLE
  2
STANDARD
 70
     0
 40
0.000000
 41
1.000000
 50
0.000000
 71
     0
 42
0.200000
  3
txt
  0
ENDTAB
  0
TABLE
  2
VIEW
 70
     0
  0
ENDTAB
  0
ENDSEC
  0
SECTION
  2
BLOCKS
  0
ENDSEC
  0
SECTION
  2
ENTITIES
  0
LINE
  8
0
  6
CONTINUOUS
 62
     7
 10
150
 20
0
 11
570
 21
0
  0
LINE
  8
0
  6
CONTINUOUS
 62
     7
 10
150
 20
12.5
 11
570
 21
12.5
  0
LINE
  8
0
  6
CONTINUOUS
 62
     7
 10
150
 20
20.00007820129395
 11
278.5
 21
20.00007820129395
  0
LINE
  8
0
  6
CONTINUOUS
 62
     7
 10
150
 20
25.99907112121582
 11
278.5
 21
25.99907112121582
  0
LINE
  8
0
  6
CONTINUOUS
 62
     7
 10
150
 20
33.23698425292969
 11
278.5
 21
33.23698425292969
  0
LINE
  8
0
  6
CONTINUOUS
 62
     7
 10
150
 20
38.76197814941406
 11
278.5
 21
38.76197814941406
  0
LINE
  8
0
  6
CONTINUOUS
 62
     7
 10
150
 20
43.37091064453125
 11
278.5
 21
43.37091064453125
  0
LINE
  8
0
  6
CONTINUOUS
 62
     7
 10
150
 20
43.9996452331543
 11
278.5
 21
43.9996452331543
  0
LINE
  8
0
  6
CONTINUOUS
 62
     7
 10
150
 20
43.9996452331543
 11
150
 21
0
  0
LINE
  8
0
  6
CENTER
 62
     7
 10
180
 20
44.9996452331543
 11
180
 21
-1
  0
LINE
  8
0
  6
DASHED
 62
     7
 10
168.5
 20
44
 11
168.5
 21
24
  0
LINE
  8
0
  6
DASHED
 62
     7
 10
191.5
 20
44
 11
191.5
 21
24
  0
LINE
  8
0
  6
DASHED
 62
     7
 10
172
 20
24
 11
172
 21
0
  0
LINE
  8
0
  6
DASHED
 62
     7
 10
188
 20
24
 11
188
 21
0
  0
LINE
  8
0
  6
DASHED
 62
     7
 10
168.5
 20
24
 11
191.5
 21
24
  0
LINE
  8
0
  6
CENTER
 62
     7
 10
300
 20
16
 11
300
 21
-1
  0
LINE
  8
0
  6
CONTINUOUS
 62
     7
 10
570
 20
43.9996452331543
 11
570
 21
0
  0
LINE
  8
0
  6
CONTINUOUS
 62
     7
 10
570
 20
33.23698425292969
 11
441.5
 21
33.23698425292969
  0
LINE
  8
0
  6
CONTINUOUS
 62
     7
 10
570
 20
38.76197814941406
 11
441.5
 21
38.76197814941406
  0
LINE
  8
0
  6
CONTINUOUS
 62
     7
 10
570
 20
43.37091064453125
 11
441.5
 21
43.37091064453125
  0
LINE
  8
0
  6
CONTINUOUS
 62
     7
 10
570
 20
20.00007820129395
 11
441.5
 21
20.00007820129395
  0
LINE
  8
0
  6
CONTINUOUS
 62
     7
 10
570
 20
25.99907112121582
 11
441.5
 21
25.99907112121582
  0
LINE
  8
0
  6
CONTINUOUS
 62
     7
 10
570
 20
43.9996452331543
 11
441.5
 21
43.9996452331543
  0
LINE
  8
0
  6
CENTER
 62
     7
 10
420
 20
16
 11
420
 21
-1
  0
LINE
  8
0
  6
CENTER
 62
     7
 10
540
 20
44.9996452331543
 11
540
 21
-1
  0
LINE
  8
0
  6
CENTER
 62
     7
 10
149
 20
250
 11
571
 21
250
  0
LINE
  8
0
  6
CONTINUOUS
 62
     7
 10
282
 20
299
 11
282
 21
201
  0
LINE
  8
0
  6
CONTINUOUS
 62
     7
 10
280
 20
299
 11
280
 21
201
  0
LINE
  8
0
  6
CONTINUOUS
 62
     7
 10
278.5
 20
278.5
 11
278.5
 21
255
  0
LINE
  8
0
  6
CONTINUOUS
 62
     7
 10
280
 20
201
 11
301
 21
201
  0
LINE
  8
0
  6
CONTINUOUS
 62
     7
 10
280
 20
299
 11
301
 21
299
  0
LINE
  8
0
  6
CONTINUOUS
 62
     7
 10
278.5
 20
278.5
 11
280
 21
278.5
  0
LINE
  8
0
  6
CONTINUOUS
 62
     7
 10
278.5
 20
221.5
 11
280
 21
221.5
  0
LINE
  8
0
  6
CONTINUOUS
 62
     7
 10
150
 20
223.5
 11
278.5
 21
223.5
  0
LINE
  8
0
  6
CONTINUOUS
 62
     7
 10
150
 20
229
 11
278.5
 21
229
  0
LINE
  8
0
  6
CONTINUOUS
 62
     7
 10
150
 20
270.99951171875
 11
278.5
 21
270.99951171875
  0
LINE
  8
0
  6
CONTINUOUS
 62
     7
 10
150
 20
276.5
 11
278.5
 21
276.5
  0
LINE
  8
0
  6
CONTINUOUS
 62
     7
 10
150
 20
276.5
 11
150
 21
223.5
  0
LINE
  8
0
  6
CENTER
 62
     7
 10
180
 20
262.5
 11
180
 21
237.5
  0
LINE
  8
0
  6
CONTINUOUS
 62
     7
 10
570
 20
276.5
 11
441.5
 21
276.5
  0
LINE
  8
0
  6
CONTINUOUS
 62
     7
 10
570
 20
270.99951171875
 11
441.5
 21
270.99951171875
  0
LINE
  8
0
  6
CONTINUOUS
 62
     7
 10
570
 20
276.5
 11
570
 21
223.5
  0
LINE
  8
0
  6
CONTINUOUS
 62
     7
 10
570
 20
223.5
 11
441.5
 21
223.5
  0
LINE
  8
0
  6
CONTINUOUS
 62
     7
 10
570
 20
229
 11
441.5
 21
229
  0
LINE
  8
0
  6
CONTINUOUS
 62
     7
 10
570
 20
276.5
 11
441.5
 21
276.5
  0
LINE
  8
0
  6
CONTINUOUS
 62
     7
 10
570
 20
270.99951171875
 11
441.5
 21
270.99951171875
  0
LINE
  8
0
  6
CONTINUOUS
 62
     7
 10
570
 20
223.5
 11
441.5
 21
223.5
  0
LINE
  8
0
  6
CONTINUOUS
 62
     7
 10
570
 20
229
 11
441.5
 21
229
  0
LINE
  8
0
  6
CONTINUOUS
 62
     7
 10
441.5
 20
278.5
 11
441.5
 21
221.5
  0
LINE
  8
0
  6
CONTINUOUS
 62
     7
 10
440
 20
299
 11
440
 21
201
  0
LINE
  8
0
  6
CONTINUOUS
 62
     7
 10
438
 20
299
 11
438
 21
201
  0
LINE
  8
0
  6
CONTINUOUS
 62
     7
 10
441.5
 20
221.5
 11
440
 21
221.5
  0
LINE
  8
0
  6
CONTINUOUS
 62
     7
 10
441.5
 20
278.5
 11
440
 21
278.5
  0
LINE
  8
0
  6
CONTINUOUS
 62
     7
 10
440
 20
299
 11
419
 21
299
  0
LINE
  8
0
  6
CONTINUOUS
 62
     7
 10
440
 20
201
 11
419
 21
201
  0
LINE
  8
0
  6
CENTER
 62
     7
 10
264.9628601074219
 20
263.088623046875
 11
270.5417785644531
 21
249.6199188232422
  0
LINE
  8
0
  6
CONTINUOUS
 62
     7
 10
263.3830261230469
 20
260.6311645507813
 11
267.8176574707031
 21
262.4680480957031
  0
LINE
  8
0
  6
CONTINUOUS
 62
     7
 10
263.5847778320313
 20
257.7922973632813
 11
269.682373046875
 21
260.3179931640625
  0
LINE
  8
0
  6
CONTINUOUS
 62
     7
 10
263.383056640625
 20
260.6311950683594
 11
263.5848083496094
 21
257.7922973632813
  0
LINE
  8
0
  6
CONTINUOUS
 62
     7
 10
267.8176879882813
 20
262.4680786132813
 11
269.6824035644531
 21
260.3180236816406
  0
LINE
  8
0
  6
CONTINUOUS
 62
     7
 10
264.3235168457031
 20
254.0713958740234
 11
264.7381896972656
 21
253.0703277587891
  0
LINE
  8
0
  6
CONTINUOUS
 62
     7
 10
271.7911071777344
 20
257.1646118164063
 11
272.2057800292969
 21
256.1635437011719
  0
LINE
  8
0
  6
CONTINUOUS
 62
     7
 10
265.5176391601563
 20
252.7475433349609
 11
264.7381896972656
 21
253.0704040527344
  0
LINE
  8
0
  6
CONTINUOUS
 62
     7
 10
265.9608154296875
 20
255.3990020751953
 11
266.8334045410156
 21
253.29248046875
  0
LINE
  8
0
  6
CONTINUOUS
 62
     7
 10
269.694580078125
 20
256.9455871582031
 11
270.567138671875
 21
254.8390655517578
  0
LINE
  8
0
  6
CONTINUOUS
 62
     7
 10
264.8787536621094
 20
252.4828338623047
 11
271.8829040527344
 21
255.3840484619141
  0
LINE
  8
0
  6
CONTINUOUS
 62
     7
 10
272.2057800292969
 20
256.16357421875
 11
271.8829040527344
 21
255.3841094970703
  0
LINE
  8
0
  6
CONTINUOUS
 62
     7
 10
264.7150573730469
 20
256.3701477050781
 11
269.8887939453125
 21
258.51318359375
  0
LINE
  8
0
  6
CONTINUOUS
 62
     7
 10
275.2999877929688
 20
245
 11
275.2999877929688
 21
255
  0
LINE
  8
0
  6
CONTINUOUS
 62
     7
 10
264.7999877929688
 20
248.2000122070313
 11
264.7999877929688
 21
251.8547058105469
  0
LINE
  8
0
  6
CONTINUOUS
 62
     7
 10
275.2999877929688
 20
245
 11
280
 21
245
  0
LINE
  8
0
  6
CONTINUOUS
 62
     7
 10
267.7999877929688
 20
245.2000122070313
 11
275.2999877929688
 21
245.2000122070313
  0
LINE
  8
0
  6
CONTINUOUS
 62
     7
 10
270.4728698730469
 20
254.7999877929688
 11
275.2999877929688
 21
254.7999877929688
  0
LINE
  8
0
  6
CONTINUOUS
 62
     7
 10
275.2999877929688
 20
255
 11
280
 21
255
  0
LINE
  8
0
  6
CONTINUOUS
 62
     7
 10
264.5533142089844
 20
254.8159790039063
 11
271.1021118164063
 21
257.5285949707031
  0
LINE
  8
0
  6
CONTINUOUS
 62
     7
 10
278.5
 20
245
 11
278.5
 21
221.5
  0
LINE
  8
0
  6
CENTER
 62
     7
 10
300
 20
262.5
 11
300
 21
237.5
  0
LINE
  8
0
  6
CENTER
 62
     7
 10
420
 20
262.5
 11
420
 21
237.5
  0
LINE
  8
0
  6
CENTER
 62
     7
 10
540
 20
262.5
 11
540
 21
237.5
  0
LINE
  8
0
  6
CONTINUOUS
 62
     7
 10
-2.61669921875
 20
62.5
 11
-6.69677734375
 21
62.5
  0
LINE
  8
0
  6
CONTINUOUS
 62
     7
 10
-2.61669921875
 20
55.5
 11
-6.69677734375
 21
55.5
  0
LINE
  8
0
  6
CONTINUOUS
 62
     7
 10
-1.96806538105011
 20
59.0002555847168
 11
-2.618064880371094
 21
55.50022506713867
  0
LINE
  8
0
  6
CONTINUOUS
 62
     7
 10
-1.967706322669983
 20
58.99969100952148
 11
-2.617694616317749
 21
62.49966049194336
  0
LINE
  8
0
  6
CONTINUOUS
 62
     7
 10
-4.278392791748047
 20
59.00024032592773
 11
-4.928407192230225
 21
55.50021362304688
  0
LINE
  8
0
  6
CONTINUOUS
 62
     7
 10
-4.27766752243042
 20
58.99966430664063
 11
-4.927675724029541
 21
62.49966049194336
  0
LINE
  8
0
  6
CONTINUOUS
 62
     7
 10
-6.787740707397461
 20
55.96970367431641
 11
-6.697728633880615
 21
55.49970245361328
  0
LINE
  8
0
  6
CONTINUOUS
 62
     7
 10
-6.788641929626465
 20
62.02021408081055
 11
-6.698637008666992
 21
62.50019073486328
  0
LINE
  8
0
  6
CONTINUOUS
 62
     7
 10
-8.602964401245117
 20
55.75406646728516
 11
-11.3573055267334
 21
56.49982452392578
  0
LINE
  8
0
  6
CONTINUOUS
 62
     7
 10
-8.587687492370606
 20
62.24964141845703
 11
-11.35758209228516
 21
61.49967193603516
  0
LINE
  8
0
  6
CONTINUOUS
 62
     7
 10
-3.93895697593689
 20
62.49967193603516
 11
-0.001247620675712824
 21
64.77310943603516
  0
LINE
  8
0
  6
CONTINUOUS
 62
     7
 10
-0.0004763708857353777
 20
53.22587966918945
 11
-3.938238620758057
 21
55.49934768676758
  0
LINE
  8
0
  6
CONTINUOUS
 62
     7
 10
22
 20
17
 11
47
 21
17
  0
LINE
  8
0
  6
CONTINUOUS
 62
     7
 10
-26.22486877441406
 20
38.77245712280273
 11
-26.49862289428711
 21
38.49870300292969
  0
LINE
  8
0
  6
CONTINUOUS
 62
     7
 10
49
 20
17.49796295166016
 11
45.00201034545898
 21
13.5
  0
LINE
  8
0
  6
CONTINUOUS
 62
     7
 10
-24.49951171875
 20
0
 11
-22.2998046875
 21
0
  0
LINE
  8
0
  6
CONTINUOUS
 62
     7
 10
-20.99951171875
 20
44
 11
21
 21
44
  0
LINE
  8
0
  6
CONTINUOUS
 62
     7
 10
-26.5
 20
38.49996948242188
 11
-26.5
 21
33.49996948242188
  0
LINE
  8
0
  6
CENTER
 62
     7
 10
7.0224609375
 20
59
 11
-15.3046875
 21
59
  0
LINE
  8
0
  6
CONTINUOUS
 62
     7
 10
35
 20
13.5
 11
45
 21
13.5
  0
LINE
  8
0
  6
CONTINUOUS
 62
     7
 10
35.00046539306641
 20
13.49988746643066
 11
27.49445915222168
 21
17
  0
LINE
  8
0
  6
CONTINUOUS
 62
     7
 10
-48.15016937255859
 20
13
 11
-35
 21
13
  0
LINE
  8
0
  6
CONTINUOUS
 62
     7
 10
35
 20
13
 11
48.0009765625
 21
13
  0
LINE
  8
0
  6
CONTINUOUS
 62
     7
 10
35.00078964233398
 20
12.99999904632568
 11
26.42276763916016
 21
17
  0
LINE
  8
0
  6
CONTINUOUS
 62
     7
 10
49.5
 20
14.49924278259277
 11
48.00035858154297
 21
12.99961948394775
  0
LINE
  8
0
  6
CONTINUOUS
 62
     7
 10
-47
 20
17
 11
-22
 21
17
  0
LINE
  8
0
  6
CONTINUOUS
 62
     7
 10
-44.99952697753906
 20
13.5
 11
-48.99958801269531
 21
17.50003051757813
  0
LINE
  8
0
  6
CONTINUOUS
 62
     7
 10
-45
 20
13.5
 11
-35
 21
13.5
  0
LINE
  8
0
  6
CONTINUOUS
 62
     7
 10
-27.49406051635742
 20
17
 11
-34.99982452392578
 21
13.50000190734863
  0
LINE
  8
0
  6
CONTINUOUS
 62
     7
 10
-26.42115211486816
 20
17
 11
-34.99968338012695
 21
12.99976253509522
  0
LINE
  8
0
  6
CONTINUOUS
 62
     7
 10
0.0005920136463828385
 20
64.77240753173828
 11
4.999531269073486
 21
61.88626861572266
  0
LINE
  8
0
  6
CONTINUOUS
 62
     7
 10
4.99962043762207
 20
56.11330413818359
 11
-0.0003230990841984749
 21
53.22658538818359
  0
LINE
  8
0
  6
CONTINUOUS
 62
     7
 10
-33.10628128051758
 20
13
 11
-24.52825736999512
 21
17
  0
LINE
  8
0
  6
CONTINUOUS
 62
     7
 10
5
 20
61.88674926757813
 11
5
 21
56.11318969726563
  0
LINE
  8
0
  6
CONTINUOUS
 62
     7
 10
280
 20
67
 11
280
 21
17
  0
LINE
  8
0
  6
CONTINUOUS
 62
     7
 10
278.5
 20
45.5999755859375
 11
278.5
 21
17
  0
LINE
  8
0
  6
CONTINUOUS
 62
     7
 10
278.5
 20
45.5999755859375
 11
280
 21
45.5999755859375
  0
LINE
  8
0
  6
CONTINUOUS
 62
     7
 10
280
 20
67
 11
282
 21
67
  0
LINE
  8
0
  6
CONTINUOUS
 62
     7
 10
278.5
 20
17
 11
282
 21
17
  0
LINE
  8
0
  6
CONTINUOUS
 62
     7
 10
282
 20
15
 11
301
 21
15
  0
LINE
  8
0
  6
CONTINUOUS
 62
     7
 10
284.5
 20
68
 11
301
 21
68
  0
LINE
  8
0
  6
CONTINUOUS
 62
     7
 10
282.0009155273438
 20
65.49911499023438
 11
284.5009155273438
 21
67.99912261962891
  0
LINE
  8
0
  6
CONTINUOUS
 62
     7
 10
438
 20
15
 11
438
 21
67
  0
LINE
  8
0
  6
CONTINUOUS
 62
     7
 10
440
 20
17
 11
440
 21
67
  0
LINE
  8
0
  6
CONTINUOUS
 62
     7
 10
441.5
 20
17
 11
441.5
 21
45.5999755859375
  0
LINE
  8
0
  6
CONTINUOUS
 62
     7
 10
440
 20
45.5999755859375
 11
441.5
 21
45.5999755859375
  0
LINE
  8
0
  6
CONTINUOUS
 62
     7
 10
438
 20
67
 11
440
 21
67
  0
LINE
  8
0
  6
CONTINUOUS
 62
     7
 10
438
 20
17
 11
441.5
 21
17
  0
LINE
  8
0
  6
CONTINUOUS
 62
     7
 10
419
 20
15
 11
438
 21
15
  0
LINE
  8
0
  6
CONTINUOUS
 62
     7
 10
419
 20
68
 11
435.5
 21
68
  0
LINE
  8
0
  6
CONTINUOUS
 62
     7
 10
435.4998779296875
 20
67.99952697753906
 11
437.9999389648438
 21
65.49944305419922
  0
LINE
  8
0
  6
CONTINUOUS
 62
     7
 10
282
 20
67
 11
282
 21
15
  0
LINE
  8
0
  6
CONTINUOUS
 62
     7
 10
301
 20
78.19998168945313
 11
301
 21
14.5
  0
LINE
  8
0
  6
CONTINUOUS
 62
     7
 10
419
 20
14.5
 11
419
 21
78.19976806640625
  0
LINE
  8
0
  6
CONTINUOUS
 62
     7
 10
301
 20
14.5
 11
419
 21
14.5
  0
LINE
  8
0
  6
CONTINUOUS
 62
     7
 10
302.80029296875
 20
80
 11
417.199951171875
 21
80
  0
LINE
  8
0
  6
CONTINUOUS
 62
     7
 10
417.2003479003906
 20
79.99947357177734
 11
419.0004577636719
 21
78.19914245605469
  0
LINE
  8
0
  6
CONTINUOUS
 62
     7
 10
19
 20
26
 11
19
 21
20
  0
LINE
  8
0
  6
CONTINUOUS
 62
     7
 10
-19
 20
26
 11
-19
 21
20
  0
LINE
  8
0
  6
CONTINUOUS
 62
     7
 10
-20.99861335754395
 20
43.99872589111328
 11
-21.62734413146973
 21
43.3699951171875
  0
LINE
  8
0
  6
CONTINUOUS
 62
     7
 10
-18.99872207641602
 20
19.99881362915039
 11
-26.49872016906738
 21
12.49881649017334
  0
LINE
  8
0
  6
CONTINUOUS
 62
     7
 10
19.00126647949219
 20
25.99889945983887
 11
21.63006210327148
 21
28.62769508361816
  0
LINE
  8
0
  6
CONTINUOUS
 62
     7
 10
26.50122261047363
 20
1.998857975006104
 11
24.50121688842773
 21
-0.0011413594475016
  0
LINE
  8
0
  6
CONTINUOUS
 62
     7
 10
-26.4986572265625
 20
2.000009775161743
 11
-24.49886703491211
 21
0.0002262247871840373
  0
LINE
  8
0
  6
CONTINUOUS
 62
     7
 10
19.00085639953613
 20
20.00016593933106
 11
26.50108909606934
 21
12.4999303817749
  0
LINE
  8
0
  6
CONTINUOUS
 62
     7
 10
21.00117683410645
 20
43.99981689453125
 11
21.62990570068359
 21
43.37108612060547
  0
LINE
  8
0
  6
CONTINUOUS
 62
     7
 10
-18.99900245666504
 20
26.00013732910156
 11
-21.62752151489258
 21
28.62865447998047
  0
LINE
  8
0
  6
CONTINUOUS
 62
     7
 10
-18
 20
1
 11
-10
 21
1
  0
LINE
  8
0
  6
CONTINUOUS
 62
     7
 10
-17.9986572265625
 20
0.9987554550170898
 11
-18.9986572265625
 21
-0.001245986786670983
  0
LINE
  8
0
  6
CONTINUOUS
 62
     7
 10
-9.999134063720703
 20
1.000297904014587
 11
-8.998894691467285
 21
5.989118290017359E-005
  0
LINE
  8
0
  6
CONTINUOUS
 62
     7
 10
18.00096130371094
 20
1.000214815139771
 11
19.00119972229004
 21
-2.406630483164918E-005
  0
LINE
  8
0
  6
CONTINUOUS
 62
     7
 10
10.00124454498291
 20
0.9989141225814819
 11
9.001242637634277
 21
-0.001086504198610783
  0
LINE
  8
0
  6
CONTINUOUS
 62
     7
 10
-8.99951171875
 20
0
 11
9
 21
0
  0
LINE
  8
0
  6
CONTINUOUS
 62
     7
 10
10
 20
1
 11
18
 21
1
  0
LINE
  8
0
  6
CONTINUOUS
 62
     7
 10
19
 20
0
 11
24.5
 21
0
  0
LINE
  8
0
  6
CONTINUOUS
 62
     7
 10
26.5
 20
2
 11
26.5
 21
12.5
  0
LINE
  8
0
  6
CONTINUOUS
 62
     7
 10
26.5
 20
38.49996948242188
 11
26.5
 21
33.49996948242188
  0
LINE
  8
0
  6
CONTINUOUS
 62
     7
 10
-26.5
 20
12.5
 11
-26.5
 21
2
  0
LINE
  8
0
  6
CONTINUOUS
 62
     7
 10
26.22738838195801
 20
38.77359008789063
 11
26.50118446350098
 21
38.49979400634766
  0
LINE
  8
0
  6
CONTINUOUS
 62
     7
 10
26.2264518737793
 20
33.22408294677734
 11
26.50126266479492
 21
33.49889373779297
  0
LINE
  8
0
  6
CONTINUOUS
 62
     7
 10
-26.22406196594238
 20
33.22519302368164
 11
-26.49889373779297
 21
33.50002670288086
  0
LINE
  8
0
  6
CONTINUOUS
 62
     7
 10
-21.099609375
 20
0
 11
-18.99951171875
 21
0
  0
LINE
  8
0
  6
CENTER
 62
     7
 10
0
 20
84.13461303710938
 11
0
 21
-1
  0
LINE
  8
0
  6
DASHED
 62
     7
 10
-11.5
 20
44
 11
-11.5
 21
24
  0
LINE
  8
0
  6
DASHED
 62
     7
 10
11.5
 20
44
 11
11.5
 21
24
  0
LINE
  8
0
  6
DASHED
 62
     7
 10
-8
 20
24
 11
-8
 21
0
  0
LINE
  8
0
  6
DASHED
 62
     7
 10
8
 20
24
 11
8
 21
0
  0
LINE
  8
0
  6
DASHED
 62
     7
 10
-11.5
 20
24
 11
11.5
 21
24
  0
LINE
  8
0
  6
CONTINUOUS
 62
     7
 10
-33.44328689575195
 20
13.72574234008789
 11
-33.10518264770508
 21
13.0006799697876
  0
LINE
  8
0
  6
CONTINUOUS
 62
     7
 10
24.52937698364258
 20
17
 11
33.10740280151367
 21
13
  0
LINE
  8
0
  6
CONTINUOUS
 62
     7
 10
33.10811614990234
 20
12.99936389923096
 11
33.44622421264648
 21
13.724440574646
  0
LINE
  8
0
  6
CONTINUOUS
 62
     7
 10
302.7996826171875
 20
79.99946594238281
 11
300.9995727539063
 21
78.19913482666016
  0
LINE
  8
0
  6
CONTINUOUS
 62
     7
 10
-47.00054931640625
 20
67
 11
47
 21
67
  0
LINE
  8
0
  6
CONTINUOUS
 62
     7
 10
49
 20
64.99996948242188
 11
49
 21
17.49796295166016
  0
LINE
  8
0
  6
CONTINUOUS
 62
     7
 10
49.00083541870117
 20
64.99971771240234
 11
47.00070571899414
 21
66.99984741210938
  0
LINE
  8
0
  6
CONTINUOUS
 62
     7
 10
-49
 20
19
 11
-49
 21
65.00054931640625
  0
LINE
  8
0
  6
CONTINUOUS
 62
     7
 10
-28.49981689453125
 20
39.3274040222168
 11
-21.82823181152344
 21
45.99900817871094
  0
LINE
  8
0
  6
CONTINUOUS
 62
     7
 10
-28.5
 20
32.67156982421875
 11
-28.5
 21
39.32839965820313
  0
LINE
  8
0
  6
CONTINUOUS
 62
     7
 10
-28.49959182739258
 20
32.67123413085938
 11
-20.99970245361328
 21
25.17134666442871
  0
LINE
  8
0
  6
CONTINUOUS
 62
     7
 10
-21
 20
20.82839965820313
 11
-21
 21
25.17156982421875
  0
LINE
  8
0
  6
CONTINUOUS
 62
     7
 10
-24.82812881469727
 20
16.99902725219727
 11
-20.99980735778809
 21
20.82734680175781
  0
LINE
  8
0
  6
CONTINUOUS
 62
     7
 10
-49.00083541870117
 20
64.99971771240234
 11
-47.00070571899414
 21
66.99984741210938
  0
LINE
  8
0
  6
CONTINUOUS
 62
     7
 10
-21.828125
 20
46
 11
21.82861328125
 21
46
  0
LINE
  8
0
  6
CONTINUOUS
 62
     7
 10
21.82925605773926
 20
45.99977493286133
 11
28.50075531005859
 21
39.3282585144043
  0
LINE
  8
0
  6
CONTINUOUS
 62
     7
 10
28.5
 20
39.32839965820313
 11
28.5
 21
32.67156982421875
  0
LINE
  8
0
  6
CONTINUOUS
 62
     7
 10
21.00087738037109
 20
25.17075538635254
 11
28.50089645385742
 21
32.67077255249023
  0
LINE
  8
0
  6
CONTINUOUS
 62
     7
 10
21
 20
25.17156982421875
 11
21
 21
20.82839965820313
  0
LINE
  8
0
  6
CONTINUOUS
 62
     7
 10
21.00078773498535
 20
20.82841682434082
 11
24.82910919189453
 21
17.00009727478027
  0
LINE
  8
0
  6
CONTINUOUS
 62
     7
 10
50
 20
78.39999389648438
 11
50
 21
62
  0
LINE
  8
0
  6
CONTINUOUS
 62
     7
 10
-48.239990234375
 20
80
 11
-26.19970703125
 21
80
  0
LINE
  8
0
  6
CONTINUOUS
 62
     7
 10
49.5
 20
61.50003051757813
 11
49.5
 21
14.49924278259277
  0
LINE
  8
0
  6
CONTINUOUS
 62
     7
 10
-49.5
 20
78.74000549316406
 11
-49.5
 21
57.54997253417969
  0
LINE
  8
0
  6
CONTINUOUS
 62
     7
 10
-25
 20
78.79998779296875
 11
-11
 21
78.79998779296875
  0
LINE
  8
0
  6
CONTINUOUS
 62
     7
 10
11
 20
78.79998779296875
 11
25
 21
78.79998779296875
  0
LINE
  8
0
  6
CONTINUOUS
 62
     7
 10
48.40082931518555
 20
79.99991607666016
 11
50.00079727172852
 21
78.39994812011719
  0
LINE
  8
0
  6
CONTINUOUS
 62
     7
 10
25.00163650512695
 20
78.7984619140625
 11
26.20166015625
 21
79.99847412109375
  0
LINE
  8
0
  6
CONTINUOUS
 62
     7
 10
-10.99892139434815
 20
78.79901885986328
 11
-9.798895835876465
 21
79.99903106689453
  0
LINE
  8
0
  6
CONTINUOUS
 62
     7
 10
49.50124740600586
 20
61.49895858764648
 11
50.00123596191406
 21
61.99894714355469
  0
LINE
  8
0
  6
CONTINUOUS
 62
     7
 10
11.00077152252197
 20
78.79947662353516
 11
9.800961494445801
 21
79.999267578125
  0
LINE
  8
0
  6
CONTINUOUS
 62
     7
 10
-24.99858093261719
 20
78.79959106445313
 11
-26.19873428344727
 21
79.99973297119141
  0
LINE
  8
0
  6
CONTINUOUS
 62
     7
 10
26.2001953125
 20
80
 11
48.400390625
 21
80
  0
LINE
  8
0
  6
CONTINUOUS
 62
     7
 10
-9.7998046875
 20
80
 11
9.80029296875
 21
80
  0
LINE
  8
0
  6
CENTER
 62
     7
 10
-50.5
 20
67.99998474121094
 11
-25.70116996765137
 21
67.99998474121094
  0
LINE
  8
0
  6
DASHED
 62
     7
 10
-49.5
 20
73.99998474121094
 11
-34.5000114440918
 21
73.99998474121094
  0
LINE
  8
0
  6
DASHED
 62
     7
 10
-49.5
 20
61.99998474121094
 11
-34.5000114440918
 21
61.99998474121094
  0
LINE
  8
0
  6
DASHED
 62
     7
 10
-49.5
 20
73.15037536621094
 11
-29.99995040893555
 21
73.15037536621094
  0
LINE
  8
0
  6
DASHED
 62
     7
 10
-49.5
 20
62.85008239746094
 11
-29.99995040893555
 21
62.85008239746094
  0
LINE
  8
0
  6
DASHED
 62
     7
 10
-34.49995040893555
 20
62
 11
-34.49995040893555
 21
74
  0
LINE
  8
0
  6
DASHED
 62
     7
 10
-29.99995040893555
 20
62.85009765625
 11
-29.99995040893555
 21
73.150390625
  0
LINE
  8
0
  6
DASHED
 62
     7
 10
-34.49948501586914
 20
74.00118255615234
 11
-33.02722549438477
 21
73.15119171142578
  0
LINE
  8
0
  6
DASHED
 62
     7
 10
-29.99957466125488
 20
73.15060424804688
 11
-27.02618789672852
 21
68.00054931640625
  0
LINE
  8
0
  6
DASHED
 62
     7
 10
-29.99941825866699
 20
62.85101318359375
 11
-27.02602005004883
 21
68.00106811523438
  0
LINE
  8
0
  6
DASHED
 62
     7
 10
-34.5002555847168
 20
62.00063323974609
 11
-33.02799987792969
 21
62.85063934326172
  0
LINE
  8
0
  6
CONTINUOUS
 62
     7
 10
-48.24017333984375
 20
80.00016021728516
 11
-49.50019073486328
 21
78.74016571044922
  0
LINE
  8
0
  6
CONTINUOUS
 62
     7
 10
-48.95001220703125
 20
56.99998474121094
 11
-48.95001220703125
 21
47.00013732910156
  0
LINE
  8
0
  6
CONTINUOUS
 62
     7
 10
-49.50012969970703
 20
57.54996490478516
 11
-48.95016098022461
 21
56.99999618530273
  0
LINE
  8
0
  6
CONTINUOUS
 62
     7
 10
-49.50014877319336
 20
23.05000305175781
 11
-49.00011444091797
 21
22.54997062683106
  0
LINE
  8
0
  6
CONTINUOUS
 62
     7
 10
-49.50006866455078
 20
46.45007705688477
 11
-49.00005722045898
 21
46.95008850097656
  0
LINE
  8
0
  6
CONTINUOUS
 62
     7
 10
-48.95001220703125
 20
18.95039749145508
 11
-48.95001220703125
 21
13.79986000061035
  0
LINE
  8
0
  6
CONTINUOUS
 62
     7
 10
-48.95001220703125
 20
13.79986000061035
 11
-48.15016555786133
 21
12.99999904632568
  0
LINE
  8
0
  6
CONTINUOUS
 62
     7
 10
-49.5
 20
46.45002746582031
 11
-49.5
 21
23.04998779296875
  0
LINE
  8
0
  6
CENTER
 62
     7
 10
-50.5
 20
35.99998474121094
 11
-25.70116996765137
 21
35.99998474121094
  0
LINE
  8
0
  6
CENTER
 62
     7
 10
325
 20
75
 11
325
 21
61
  0
LINE
  8
0
  6
CENTER
 62
     7
 10
318
 20
68
 11
332
 21
68
  0
LINE
  8
0
  6
CENTER
 62
     7
 10
325
 20
43
 11
325
 21
29
  0
LINE
  8
0
  6
CENTER
 62
     7
 10
318
 20
36
 11
332
 21
36
  0
LINE
  8
0
  6
CENTER
 62
     7
 10
395
 20
43
 11
395
 21
29
  0
LINE
  8
0
  6
CENTER
 62
     7
 10
388
 20
36
 11
402
 21
36
  0
LINE
  8
0
  6
CENTER
 62
     7
 10
395
 20
75
 11
395
 21
61
  0
LINE
  8
0
  6
CENTER
 62
     7
 10
388
 20
68
 11
402
 21
68
  0
LINE
  8
0
  6
CONTINUOUS
 62
     7
 10
301
 20
59
 11
419
 21
59
  0
LINE
  8
0
  6
CONTINUOUS
 62
     7
 10
275.86181640625
 20
64.85346984863281
 11
279.43798828125
 21
64.85346984863281
  0
LINE
  8
0
  6
CONTINUOUS
 62
     7
 10
275.86181640625
 20
61.96672058105469
 11
279.43798828125
 21
61.96672058105469
  0
LINE
  8
0
  6
CONTINUOUS
 62
     7
 10
275.2998046875
 20
63.87998962402344
 11
275.2998046875
 21
58.99998474121094
  0
LINE
  8
0
  6
CONTINUOUS
 62
     7
 10
267.8017578125
 20
63.79988098144531
 11
275.3017578125
 21
63.79988098144531
  0
LINE
  8
0
  6
CONTINUOUS
 62
     7
 10
275.3017578125
 20
54.19990539550781
 11
267.8017578125
 21
54.19990539550781
  0
LINE
  8
0
  6
CONTINUOUS
 62
     7
 10
275.3014831542969
 20
63.87862396240234
 11
275.863525390625
 21
64.85211181640625
  0
LINE
  8
0
  6
CONTINUOUS
 62
     7
 10
275.30224609375
 20
58.99989318847656
 11
275.30224609375
 21
54.11988830566406
  0
LINE
  8
0
  6
CONTINUOUS
 62
     7
 10
275.8629760742188
 20
53.14439392089844
 11
275.3009643554688
 21
54.11782836914063
  0
LINE
  8
0
  6
CONTINUOUS
 62
     7
 10
279.4404296875
 20
53.14640808105469
 11
275.8642578125
 21
53.14640808105469
  0
LINE
  8
0
  6
CONTINUOUS
 62
     7
 10
279.4404296875
 20
56.03315734863281
 11
275.8642578125
 21
56.03315734863281
  0
LINE
  8
0
  6
CONTINUOUS
 62
     7
 10
279.4389038085938
 20
64.85138702392578
 11
280.0009155273438
 21
63.87795639038086
  0
LINE
  8
0
  6
CONTINUOUS
 62
     7
 10
280.0014038085938
 20
54.11874389648438
 11
279.4393615722656
 21
53.14525985717773
  0
LINE
  8
0
  6
CENTER
 62
     7
 10
260.1515197753906
 20
59.00004577636719
 11
284.0909118652344
 21
59.00004577636719
  0
LINE
  8
0
  6
CONTINUOUS
 62
     7
 10
264.8905944824219
 20
61.53262329101563
 11
264.9109191894531
 21
56.39105987548828
  0
LINE
  8
0
  6
CONTINUOUS
 62
     7
 10
301
 20
200
 11
419
 21
200
  0
LINE
  8
0
  6
CONTINUOUS
 62
     7
 10
301
 20
223.7998046875
 11
419
 21
223.7998046875
  0
LINE
  8
0
  6
CONTINUOUS
 62
     7
 10
301
 20
240.19970703125
 11
419
 21
240.19970703125
  0
LINE
  8
0
  6
CONTINUOUS
 62
     7
 10
301
 20
259.7998046875
 11
419
 21
259.7998046875
  0
LINE
  8
0
  6
CONTINUOUS
 62
     7
 10
301
 20
276.19873046875
 11
419
 21
276.19873046875
  0
LINE
  8
0
  6
CONTINUOUS
 62
     7
 10
301
 20
299.5
 11
419
 21
299.5
  0
LINE
  8
0
  6
CONTINUOUS
 62
     7
 10
301
 20
299.5
 11
301
 21
200
  0
LINE
  8
0
  6
CONTINUOUS
 62
     7
 10
419
 20
299.5
 11
419
 21
200
  0
LINE
  8
0
  6
DASHED
 62
     7
 10
319.0006408691406
 20
284.500244140625
 11
319.8506469726563
 21
283.0280151367188
  0
LINE
  8
0
  6
DASHED
 62
     7
 10
319.8510131835938
 20
279.9994201660156
 11
325.0010681152344
 21
277.0260314941406
  0
LINE
  8
0
  6
DASHED
 62
     7
 10
330.1506042480469
 20
279.9995727539063
 11
325.0005493164063
 21
277.0261840820313
  0
LINE
  8
0
  6
DASHED
 62
     7
 10
331
 20
284.4974060058594
 11
330.1512145996094
 21
283.0272216796875
  0
LINE
  8
0
  6
DASHED
 62
     7
 10
319.85009765625
 20
279.9999389648438
 11
330.150390625
 21
279.9999389648438
  0
LINE
  8
0
  6
DASHED
 62
     7
 10
319
 20
284.4999389648438
 11
331
 21
284.4999389648438
  0
LINE
  8
0
  6
DASHED
 62
     7
 10
319.85009765625
 20
299.5
 11
319.85009765625
 21
279.9999389648438
  0
LINE
  8
0
  6
DASHED
 62
     7
 10
330.150390625
 20
299.5
 11
330.150390625
 21
279.9999389648438
  0
LINE
  8
0
  6
DASHED
 62
     7
 10
319
 20
299.5
 11
319
 21
284.5
  0
LINE
  8
0
  6
DASHED
 62
     7
 10
331
 20
299.5
 11
331
 21
284.4974060058594
  0
LINE
  8
0
  6
CENTER
 62
     7
 10
325
 20
300.5
 11
325
 21
275.701171875
  0
LINE
  8
0
  6
CENTER
 62
     7
 10
395
 20
300.5
 11
395
 21
275.701171875
  0
LINE
  8
0
  6
CONTINUOUS
 62
     7
 10
49
 20
19
 11
47
 21
17
  0
LINE
  8
0
  6
CONTINUOUS
 62
     7
 10
-49
 20
19
 11
-47
 21
17
  0
CIRCLE
  8
0
  6
CONTINUOUS
 62
     7
 10
180
 20
250
 40
11.5
  0
CIRCLE
  8
0
  6
CONTINUOUS
 62
     7
 10
180
 20
250
 40
8
  0
ARC
  8
0
  6
CONTINUOUS
 62
     7
 10
266.6336059570313
 20
259.0551147460938
 40
3.299999237060531
 50
202.5000451360344
 51
228.4196294889923
  0
ARC
  8
0
  6
CONTINUOUS
 62
     7
 10
266.6336059570313
 20
259.0551147460938
 40
3.299999237060569
 50
356.5803977035844
 51
22.49998184309958
  0
ARC
  8
0
  6
CONTINUOUS
 62
     7
 10
258.7172241210938
 20
256.2090148925781
 40
6.000000000000012
 50
339.1282601229507
 51
357.5663491706545
  0
ARC
  8
0
  6
CONTINUOUS
 62
     7
 10
274.2437744140625
 20
262.6403198242188
 40
5.999999999999975
 50
227.433678021923
 51
245.8721834977224
  0
ARC
  8
0
  6
CONTINUOUS
 62
     7
 10
263.9125366210938
 20
255.9882202148438
 40
0.7999999523162794
 50
357.5669502273014
 51
48.42016725270503
  0
ARC
  8
0
  6
CONTINUOUS
 62
     7
 10
270.7262878417969
 20
258.810546875
 40
0.7999999523162699
 50
176.5798560839654
 51
227.4330186812979
  0
ARC
  8
0
  6
CONTINUOUS
 62
     7
 10
267.7999877929688
 20
248.2000122070313
 40
3.000000000000023
 50
180.0000359721786
 51
270.000017986089
  0
ARC
  8
0
  6
CONTINUOUS
 62
     7
 10
267.7999877929688
 20
251.7999877929688
 40
3.000000000000009
 50
166.8430525918959
 51
179.999909386308
  0
ARC
  8
0
  6
CONTINUOUS
 62
     7
 10
-8.44677734375
 20
56.70999145507813
 40
0.9683421850204487
 50
261.7027793144388
 51
324.6685413292642
  0
ARC
  8
0
  6
CONTINUOUS
 62
     7
 10
-7.45703125
 20
54.91998291015625
 40
1.246148109436036
 50
37.87496647613522
 51
99.23547011146756
  0
ARC
  8
0
  6
CONTINUOUS
 62
     7
 10
-7.45703125
 20
63.07998657226563
 40
1.254199028015137
 50
260.7646391715591
 51
322.1250335238648
  0
ARC
  8
0
  6
CONTINUOUS
 62
     7
 10
-8.44677734375
 20
61.28997802734375
 40
0.9701610803604146
 50
35.33145867073599
 51
98.2971114025345
  0
ARC
  8
0
  6
CONTINUOUS
 62
     7
 10
0
 20
59
 40
4.799999237060549
 50
226.816597751169
 51
133.1834159092094
  0
ARC
  8
0
  6
CONTINUOUS
 62
     7
 10
26.5673828125
 20
43.71197509765625
 40
4.949998855590819
 50
183.9467378406655
 51
266.0531521930625
  0
ARC
  8
0
  6
CONTINUOUS
 62
     7
 10
26.5673828125
 20
28.2869873046875
 40
4.949998855590819
 50
93.95957927955047
 51
176.0403667621815
  0
ARC
  8
0
  6
CONTINUOUS
 62
     7
 10
-26.56689453125
 20
28.2869873046875
 40
4.949998855590822
 50
3.959607510923554
 51
86.04038474827084
  0
ARC
  8
0
  6
CONTINUOUS
 62
     7
 10
-26.56689453125
 20
43.71197509765625
 40
4.949998855590819
 50
273.9469384206296
 51
356.0532673956619
  0
ARC
  8
0
  6
CONTINUOUS
 62
     7
 10
-21.69970703125
 20
-0.79998779296875
 40
0.9999999999999992
 50
53.1300949496158
 51
126.869889568773
  0
ARC
  8
0
  6
CONTINUOUS
 62
     7
 10
29.48102569580078
 20
16.34538650512695
 40
2.499999999999999
 50
191.8576815034277
 51
298.1423098195095
  0
ARC
  8
0
  6
CONTINUOUS
 62
     7
 10
-29.48038673400879
 20
16.34568405151367
 40
2.5
 50
241.8577261526692
 51
348.1423203178051
  0
CIRCLE
  8
0
  6
DASHED
 62
     7
 10
325
 20
68
 40
6
  0
CIRCLE
  8
0
  6
DASHED
 62
     7
 10
325
 20
68
 40
5.150000095367432
  0
ARC
  8
0
  6
CONTINUOUS
 62
     7
 10
267.7998046875
 20
60.79997253417969
 40
2.999999999999999
 50
89.99998201391097
 51
165.8646416536697
  0
ARC
  8
0
  6
CONTINUOUS
 62
     7
 10
267.7998046875
 20
57.19999694824219
 40
2.999999999999977
 50
195.6428630584221
 51
270.0000726276024
  0
ARC
  8
0
  6
CONTINUOUS
 62
     7
 10
283.4111328125
 20
58.99998474121094
 40
8.111171722412118
 50
158.545684146651
 51
201.4542985505051
  0
ARC
  8
0
  6
CONTINUOUS
 62
     7
 10
283.61767578125
 20
65.28425598144531
 40
8.435743331909185
 50
189.5825728116531
 51
203.1582021644572
  0
ARC
  8
0
  6
CONTINUOUS
 62
     7
 10
283.61767578125
 20
52.71571350097656
 40
8.435743331909167
 50
156.8417978355428
 51
170.4174271883469
  0
ARC
  8
0
  6
CONTINUOUS
 62
     7
 10
271.681640625
 20
65.28425598144531
 40
8.43574333190919
 50
336.8417996567757
 51
350.4174290095797
  0
ARC
  8
0
  6
CONTINUOUS
 62
     7
 10
271.888671875
 20
58.99998474121094
 40
8.111171722412133
 50
338.5457030433568
 51
21.45431403211627
  0
ARC
  8
0
  6
CONTINUOUS
 62
     7
 10
271.681640625
 20
52.71571350097656
 40
8.435743331909196
 50
9.582570990420285
 51
23.15820034322427
  0
ARC
  8
0
  6
CONTINUOUS
 62
     7
 10
268.5355834960938
 20
59.00004577636719
 40
4.521574020385759
 50
149.6344046384272
 51
211.104987017518
  0
POLYLINE
  8
0
  6
CONTINUOUS
 62
     7
 66
     1
 10
0
 20
0
  0
VERTEX
  8
0
  6
CONTINUOUS
 62
     7
 10
-7.620755024765787
 20
56.15153161869871
 42
0.1749009672372115
  0
VERTEX
  8
0
  6
CONTINUOUS
 62
     7
 10
-7.271118733903308
 20
56.33429725715804
 42
0.07058131079578772
  0
VERTEX
  8
0
  6
CONTINUOUS
 62
     7
 10
-7.035097698816743
 20
56.65893432501296
 42
0.037592128095451
  0
VERTEX
  8
0
  6
CONTINUOUS
 62
     7
 10
-6.870263615908023
 20
57.02675892189861
 42
0.02501678077564363
  0
VERTEX
  8
0
  6
CONTINUOUS
 62
     7
 10
-6.751595436021887
 20
57.4121712454188
 42
0.01911879267662715
  0
VERTEX
  8
0
  6
CONTINUOUS
 62
     7
 10
-6.666848198271092
 20
57.8070348030894
 42
0.0160055662134062
  0
VERTEX
  8
0
  6
CONTINUOUS
 62
     7
 10
-6.609814427258827
 20
58.20696484470944
 42
0.01436102987324409
  0
VERTEX
  8
0
  6
CONTINUOUS
 62
     7
 10
-6.577041096917641
 20
58.60966823293219
 42
0.01364789255499051
  0
VERTEX
  8
0
  6
CONTINUOUS
 62
     7
 10
-6.566784884659048
 20
59.01356167103288
 42
0.01363193261654707
  0
VERTEX
  8
0
  6
CONTINUOUS
 62
     7
 10
-6.578463516198672
 20
59.41625897083942
 42
0.01441991503531269
  0
VERTEX
  8
0
  6
CONTINUOUS
 62
     7
 10
-6.612686860428517
 20
59.81842722056911
 42
0.01619121675766497
  0
VERTEX
  8
0
  6
CONTINUOUS
 62
     7
 10
-6.671522786809993
 20
60.21904721308186
 42
0.01940730124235887
  0
VERTEX
  8
0
  6
CONTINUOUS
 62
     7
 10
-6.758311286996254
 20
60.61360970792131
 42
0.02563192630492244
  0
VERTEX
  8
0
  6
CONTINUOUS
 62
     7
 10
-6.879836022631805
 20
60.99891659605511
 42
0.03903181847691135
  0
VERTEX
  8
0
  6
CONTINUOUS
 62
     7
 10
-7.048984999919074
 20
61.36578673322268
 42
0.0751855957331658
  0
VERTEX
  8
0
  6
CONTINUOUS
 62
     7
 10
-7.29303196206256
 20
61.68660598288719
 42
0.1875645945103024
  0
VERTEX
  8
0
  6
CONTINUOUS
 62
     7
 10
-7.652899146536139
 20
61.849942594483
 42
0
  0
SEQEND
  8
0
  0
POLYLINE
  8
0
  6
CONTINUOUS
 62
     7
 66
     1
 10
0
 20
0
 70
     1
  0
VERTEX
  8
0
  6
CONTINUOUS
 62
     7
 10
-11.35693359375
 20
61.5
 42
0.2551493299051481
  0
VERTEX
  8
0
  6
CONTINUOUS
 62
     7
 10
-11.88671826698417
 20
61.0750826029965
 42
0.06318145735343354
  0
VERTEX
  8
0
  6
CONTINUOUS
 62
     7
 10
-12.14080990722748
 20
60.41219628182015
 42
0.03518154860892194
  0
VERTEX
  8
0
  6
CONTINUOUS
 62
     7
 10
-12.26755567763665
 20
59.71215146941823
 42
0.0279813098546271
  0
VERTEX
  8
0
  6
CONTINUOUS
 62
     7
 10
-12.30694580078125
 20
59
 42
0.02789953310144815
  0
VERTEX
  8
0
  6
CONTINUOUS
 62
     7
 10
-12.26781241068853
 20
58.28985461474437
 42
0.03516034302977816
  0
VERTEX
  8
0
  6
CONTINUOUS
 62
     7
 10
-12.14131867101578
 20
57.58956632727467
 42
0.06315560523086543
  0
VERTEX
  8
0
  6
CONTINUOUS
 62
     7
 10
-11.88728704643059
 20
56.92582832435823
 42
0.2552871471921628
  0
VERTEX
  8
0
  6
CONTINUOUS
 62
     7
 10
-11.35693359375
 20
56.5
 42
0.2551559077897895
  0
VERTEX
  8
0
  6
CONTINUOUS
 62
     7
 10
-10.82713345700875
 20
56.92489701721707
 42
0.06318716639026686
  0
VERTEX
  8
0
  6
CONTINUOUS
 62
     7
 10
-10.57303775743483
 20
57.58778136283899
 42
0.03518424445569052
  0
VERTEX
  8
0
  6
CONTINUOUS
 62
     7
 10
-10.44629864100605
 20
58.28782725895183
 42
0.02798380691789412
  0
VERTEX
  8
0
  6
CONTINUOUS
 62
     7
 10
-10.40692138671875
 20
59
 42
0.02789791114340946
  0
VERTEX
  8
0
  6
CONTINUOUS
 62
     7
 10
-10.44606991033845
 20
59.71014450082183
 42
0.03515802417465336
  0
VERTEX
  8
0
  6
CONTINUOUS
 62
     7
 10
-10.57257317669552
 20
60.41043114899794
 42
0.06315148107062779
  0
VERTEX
  8
0
  6
CONTINUOUS
 62
     7
 10
-10.82660568751841
 20
61.0741691247481
 42
0.2552811697868115
  0
SEQEND
  8
0
  0
POLYLINE
  8
0
  6
CONTINUOUS
 62
     7
 66
     1
 10
0
 20
0
  0
VERTEX
  8
0
  6
CONTINUOUS
 62
     7
 10
264.620148717943
 20
61.26202489638268
 42
0.03811127958751021
  0
VERTEX
  8
0
  6
CONTINUOUS
 62
     7
 10
264.3272059882369
 20
61.0826359976038
 42
0.03690511634365994
  0
VERTEX
  8
0
  6
CONTINUOUS
 62
     7
 10
264.0637397665167
 20
60.86097030789525
 42
0.03552801213190357
  0
VERTEX
  8
0
  6
CONTINUOUS
 62
     7
 10
263.8354937302836
 20
60.60415096729497
 42
0.03433391560466325
  0
VERTEX
  8
0
  6
CONTINUOUS
 62
     7
 10
263.6451865287878
 20
60.31802484551405
 42
0.03331613746405313
  0
VERTEX
  8
0
  6
CONTINUOUS
 62
     7
 10
263.4951556903713
 20
60.00880520162663
 42
0.03252144897803351
  0
VERTEX
  8
0
  6
CONTINUOUS
 62
     7
 10
263.386972287133
 20
59.68253013560216
 42
0.03197652617990704
  0
VERTEX
  8
0
  6
CONTINUOUS
 62
     7
 10
263.3216201599577
 20
59.34504700671888
 42
0.03169675275500412
  0
VERTEX
  8
0
  6
CONTINUOUS
 62
     7
 10
263.2996222576282
 20
59.00202939492927
 42
0.03164801508817088
  0
VERTEX
  8
0
  6
CONTINUOUS
 62
     7
 10
263.3210559631614
 20
58.65946781411201
 42
0.03196083934606014
  0
VERTEX
  8
0
  6
CONTINUOUS
 62
     7
 10
263.3858209708169
 20
58.32197285781849
 42
0.03249761030879284
  0
VERTEX
  8
0
  6
CONTINUOUS
 62
     7
 10
263.4933823873855
 20
57.99564919681293
 42
0.03329334822284405
  0
VERTEX
  8
0
  6
CONTINUOUS
 62
     7
 10
263.6427946523055
 20
57.68624357475595
 42
0.03431832792161617
  0
VERTEX
  8
0
  6
CONTINUOUS
 62
     7
 10
263.832547482635
 20
57.3997515526445
 42
0.03552168028744071
  0
VERTEX
  8
0
  6
CONTINUOUS
 62
     7
 10
264.060352133833
 20
57.14240590938194
 42
0.0368256297308806
  0
VERTEX
  8
0
  6
CONTINUOUS
 62
     7
 10
264.3229013243793
 20
56.9205467877002
 42
0.0381216324407957
  0
VERTEX
  8
0
  6
CONTINUOUS
 62
     7
 10
264.615644399132
 20
56.74035722609801
 42
0
  0
SEQEND
  8
0
  0
POLYLINE
  8
0
  6
CONTINUOUS
 62
     7
 66
     1
 10
0
 20
0
  0
VERTEX
  8
0
  6
CONTINUOUS
 62
     7
 10
264.599609375
 20
61.24003601074219
 42
-0.010429587569116
  0
VERTEX
  8
0
  6
CONTINUOUS
 62
     7
 10
264.6919420701034
 20
61.34115318504628
 42
-0.01059991162560349
  0
VERTEX
  8
0
  6
CONTINUOUS
 62
     7
 10
264.7886938516573
 20
61.43855276277439
 42
-0.01082316655998031
  0
VERTEX
  8
0
  6
CONTINUOUS
 62
     7
 10
264.8897099119017
 20
61.53188923744471
 42
0
  0
SEQEND
  8
0
  0
POLYLINE
  8
0
  6
CONTINUOUS
 62
     7
 66
     1
 10
0
 20
0
  0
VERTEX
  8
0
  6
CONTINUOUS
 62
     7
 10
264.599609375
 20
56.76005554199219
 42
0.01119098949883422
  0
VERTEX
  8
0
  6
CONTINUOUS
 62
     7
 10
264.6984328835071
 20
56.652149917792
 42
0.01137438196117931
  0
VERTEX
  8
0
  6
CONTINUOUS
 62
     7
 10
264.8023165514155
 20
56.54851634381053
 42
0.01162384191877164
  0
VERTEX
  8
0
  6
CONTINUOUS
 62
     7
 10
264.9110634848807
 20
56.44957562005877
 42
0
  0
SEQEND
  8
0
  0
TEXT
  8
0
  6
CONTINUOUS
 62
     7
 10
-11.28550004959106
 20
-31.79999995231628
 40
3.599999904632568
 41
1.007125066575079
  1
HSR55YR
  0
ENDSEC
  0
EOF
