  0
SECTION
  2
HEADER
  0
ENDSEC
  0
SECTION
  2
TABLES
  0
TABLE
  2
LTYPE
 70
    22
  0
LTYPE
  2
CONTINUOUS
 70
    64
  3
Solid line
 72
    65
 73
     0
 40
0.000000
  0
LTYPE
  2
DASHED
 70
    64
  3
__ __ __ __ __ __ __ __ __ __ __ __ __ __ __
 72
    65
 73
     2
 40
3.500000
 49
2.000000
 49
-1.500000
  0
LTYPE
  2
CENTER
 70
    64
  3
____ _ ____ _ ____ _ ____ _ ____ _ ____ _ ____
 72
    65
 73
     4
 40
17.500000
 49
13.000000
 49
-1.500000
 49
1.500000
 49
-1.500000
  0
LTYPE
  2
PHANTOM
 70
    64
  3
_____ _ _ _____ _ _ _____ _ _ _____ _ _ ____  
 72
    65
 73
     6
 40
15.500000
 49
8.000000
 49
-1.500000
 49
1.500000
 49
-1.500000
 49
1.500000
 49
-1.500000
  0
LTYPE
  2
DOT
 70
    64
  3
. . . . . . . . . . . . . . . . . . . . . . . .
 72
    65
 73
     2
 40
0.25
 49
0.0
 49
-0.25
  0
ENDTAB
  0
TABLE
  2
LAYER
 70
     1
  0
LAYER
  2
0
 70
     0
 62
     7
  6
CONTINUOUS
  0
ENDTAB
  0
TABLE
  2
STYLE
 70
     1
  0
STYLE
  2
STANDARD
 70
     0
 40
0.000000
 41
1.000000
 50
0.000000
 71
     0
 42
0.200000
  3
txt
  0
ENDTAB
  0
TABLE
  2
VIEW
 70
     0
  0
ENDTAB
  0
ENDSEC
  0
SECTION
  2
BLOCKS
  0
ENDSEC
  0
SECTION
  2
ENTITIES
  0
LINE
  8
0
  6
CONTINUOUS
 62
     7
 10
505.0008850097656
 20
15.99982357025147
 11
514.0009155273438
 21
66.99980163574219
  0
LINE
  8
0
  6
CONTINUOUS
 62
     7
 10
496.1075744628906
 20
66.39031219482422
 11
505
 21
15.99998950958252
  0
LINE
  8
0
  6
CONTINUOUS
 62
     7
 10
403.8932800292969
 20
66.39020538330078
 11
395.0008544921875
 21
15.99978637695313
  0
LINE
  8
0
  6
CONTINUOUS
 62
     7
 10
386.0000305175781
 20
66.99968719482422
 11
394.9999694824219
 21
16.00008010864258
  0
LINE
  8
0
  6
CENTER
 62
     7
 10
339.8238830566406
 20
71.00003814697266
 11
360.1991271972656
 21
71.00003814697266
  0
LINE
  8
0
  6
CONTINUOUS
 62
     7
 10
344.1497192382813
 20
67.42024230957031
 11
343.7526245117188
 21
68.19282531738281
  0
LINE
  8
0
  6
CONTINUOUS
 62
     7
 10
348.7250061035156
 20
67.41996002197266
 11
344.1495666503906
 21
67.41996002197266
  0
LINE
  8
0
  6
CONTINUOUS
 62
     7
 10
350.5650634765625
 20
70.99947357177734
 11
348.7250671386719
 21
67.41947937011719
  0
LINE
  8
0
  6
CONTINUOUS
 62
     7
 10
349.6898803710938
 20
70.99967193603516
 11
347.8498840332031
 21
67.41968536376953
  0
LINE
  8
0
  6
CONTINUOUS
 62
     7
 10
347.8498229980469
 20
74.57989501953125
 11
349.6899108886719
 21
70.99969482421875
  0
LINE
  8
0
  6
CONTINUOUS
 62
     7
 10
343.7531433105469
 20
73.80670166015625
 11
344.1503295898438
 21
74.57948303222656
  0
LINE
  8
0
  6
CONTINUOUS
 62
     7
 10
348.7246704101563
 20
74.57991027832031
 11
350.5647277832031
 21
70.99979400634766
  0
LINE
  8
0
  6
CONTINUOUS
 62
     7
 10
358.4996337890625
 20
66.11975860595703
 11
357.9375915527344
 21
65.14627838134766
  0
LINE
  8
0
  6
CONTINUOUS
 62
     7
 10
357.9375610351563
 20
76.85343170166016
 11
358.4996948242188
 21
75.87979125976563
  0
LINE
  8
0
  6
CONTINUOUS
 62
     7
 10
357.9374084472656
 20
68.03324890136719
 11
354.3617248535156
 21
68.03324890136719
  0
LINE
  8
0
  6
CONTINUOUS
 62
     7
 10
357.9374084472656
 20
65.146484375
 11
354.3617248535156
 21
65.146484375
  0
LINE
  8
0
  6
CONTINUOUS
 62
     7
 10
354.3614196777344
 20
65.14672088623047
 11
353.7996520996094
 21
66.11972808837891
  0
LINE
  8
0
  6
CONTINUOUS
 62
     7
 10
353.7998657226563
 20
70.99999237060547
 11
353.7998657226563
 21
66.11998748779297
  0
LINE
  8
0
  6
CONTINUOUS
 62
     7
 10
353.7996826171875
 20
75.87965393066406
 11
354.3617248535156
 21
76.85314178466797
  0
LINE
  8
0
  6
CONTINUOUS
 62
     7
 10
344.1495666503906
 20
74.58000183105469
 11
348.7250061035156
 21
74.58000183105469
  0
LINE
  8
0
  6
CONTINUOUS
 62
     7
 10
353.7999572753906
 20
66.20000457763672
 11
346.2999572753906
 21
66.20000457763672
  0
LINE
  8
0
  6
CONTINUOUS
 62
     7
 10
346.2999572753906
 20
75.79996490478516
 11
353.7999572753906
 21
75.79996490478516
  0
LINE
  8
0
  6
CONTINUOUS
 62
     7
 10
353.7998657226563
 20
75.87998199462891
 11
353.7998657226563
 21
70.99999237060547
  0
LINE
  8
0
  6
CONTINUOUS
 62
     7
 10
354.3617248535156
 20
73.96671295166016
 11
357.9374084472656
 21
73.96671295166016
  0
LINE
  8
0
  6
CONTINUOUS
 62
     7
 10
354.3617248535156
 20
76.85343933105469
 11
357.9374084472656
 21
76.85343933105469
  0
LINE
  8
0
  6
CONTINUOUS
 62
     7
 10
493.4998474121094
 20
62.00001525878906
 11
493.4998474121094
 21
53.00001525878906
  0
LINE
  8
0
  6
CONTINUOUS
 62
     7
 10
406.4998168945313
 20
62.00001525878906
 11
406.4998168945313
 21
53.00001525878906
  0
LINE
  8
0
  6
CONTINUOUS
 62
     7
 10
521.1998291015625
 20
89.99982452392578
 11
523.499755859375
 21
87.69976043701172
  0
LINE
  8
0
  6
CONTINUOUS
 62
     7
 10
378.800537109375
 20
89.999267578125
 11
376.5005493164063
 21
87.69927215576172
  0
LINE
  8
0
  6
CONTINUOUS
 62
     7
 10
376.4999084472656
 20
16.00000762939453
 11
523.4998779296875
 21
16.00000762939453
  0
LINE
  8
0
  6
CONTINUOUS
 62
     7
 10
406.4999084472656
 20
53.00001525878906
 11
493.4998474121094
 21
53.00001525878906
  0
LINE
  8
0
  6
CONTINUOUS
 62
     7
 10
376.4999084472656
 20
67.00000762939453
 11
523.4998779296875
 21
67.00000762939453
  0
LINE
  8
0
  6
CONTINUOUS
 62
     7
 10
378.8004455566406
 20
89.99997711181641
 11
521.1998291015625
 21
89.99997711181641
  0
LINE
  8
0
  6
CONTINUOUS
 62
     7
 10
541.4998779296875
 20
55.09998321533203
 11
542.9998779296875
 21
55.09998321533203
  0
LINE
  8
0
  6
CONTINUOUS
 62
     7
 10
539.4996337890625
 20
79.99977111816406
 11
536.4999389648438
 21
82.99944305419922
  0
LINE
  8
0
  6
CONTINUOUS
 62
     7
 10
542.9998779296875
 20
19.00000762939453
 11
542.9998779296875
 21
55.09998321533203
  0
LINE
  8
0
  6
CONTINUOUS
 62
     7
 10
541.4998779296875
 20
19.00000762939453
 11
541.4998779296875
 21
80.00001525878906
  0
LINE
  8
0
  6
CONTINUOUS
 62
     7
 10
539.4999389648438
 20
16.00000762939453
 11
539.4999389648438
 21
80.00001525878906
  0
LINE
  8
0
  6
CONTINUOUS
 62
     7
 10
523.4998779296875
 20
16.00000762939453
 11
539.4999389648438
 21
16.00000762939453
  0
LINE
  8
0
  6
CONTINUOUS
 62
     7
 10
539.4999389648438
 20
19.00000762939453
 11
542.9998779296875
 21
19.00000762939453
  0
LINE
  8
0
  6
CONTINUOUS
 62
     7
 10
539.4999389648438
 20
79.99994659423828
 11
541.4998779296875
 21
79.99994659423828
  0
LINE
  8
0
  6
CONTINUOUS
 62
     7
 10
523.4998779296875
 20
82.99994659423828
 11
536.4999389648438
 21
82.99994659423828
  0
LINE
  8
0
  6
CONTINUOUS
 62
     7
 10
523.4998779296875
 20
16.00000762939453
 11
523.4998779296875
 21
87.69996643066406
  0
LINE
  8
0
  6
CONTINUOUS
 62
     7
 10
356.9999084472656
 20
55.09998321533203
 11
358.4999084472656
 21
55.09998321533203
  0
LINE
  8
0
  6
CONTINUOUS
 62
     7
 10
363.5006713867188
 20
82.99929809570313
 11
360.5006713867188
 21
79.99932098388672
  0
LINE
  8
0
  6
CONTINUOUS
 62
     7
 10
356.9998168945313
 20
55.09998321533203
 11
356.9998168945313
 21
19.00000762939453
  0
LINE
  8
0
  6
CONTINUOUS
 62
     7
 10
358.4998168945313
 20
80.00001525878906
 11
358.4998168945313
 21
19.00000762939453
  0
LINE
  8
0
  6
CONTINUOUS
 62
     7
 10
360.5000610351563
 20
80.00001525878906
 11
360.5000610351563
 21
16.00000762939453
  0
LINE
  8
0
  6
CONTINUOUS
 62
     7
 10
360.5001525878906
 20
16.00000762939453
 11
376.4999084472656
 21
16.00000762939453
  0
LINE
  8
0
  6
CONTINUOUS
 62
     7
 10
356.9999084472656
 20
19.00000762939453
 11
360.5001525878906
 21
19.00000762939453
  0
LINE
  8
0
  6
CONTINUOUS
 62
     7
 10
358.4999084472656
 20
79.99994659423828
 11
360.5001525878906
 21
79.99994659423828
  0
LINE
  8
0
  6
CONTINUOUS
 62
     7
 10
363.5001525878906
 20
82.99994659423828
 11
376.4999084472656
 21
82.99994659423828
  0
LINE
  8
0
  6
CONTINUOUS
 62
     7
 10
376.4998168945313
 20
87.69996643066406
 11
376.4998168945313
 21
16.00000762939453
  0
LINE
  8
0
  6
CONTINUOUS
 62
     7
 10
542.9966430664063
 20
53.00001525878906
 11
710
 21
53.00001525878906
  0
LINE
  8
0
  6
CONTINUOUS
 62
     7
 10
190
 20
0
 11
710
 21
0
  0
LINE
  8
0
  6
CONTINUOUS
 62
     7
 10
190
 20
53.00001525878906
 11
356.9998168945313
 21
53.00001525878906
  0
LINE
  8
0
  6
CONTINUOUS
 62
     7
 10
-39.63286209106445
 20
13.99961280822754
 11
-28.90952873229981
 21
18.99998474121094
  0
LINE
  8
0
  6
CONTINUOUS
 62
     7
 10
-40.05485534667969
 20
14.90675067901611
 11
-39.63222503662109
 21
14.00041484832764
  0
LINE
  8
0
  6
CONTINUOUS
 62
     7
 10
61.00048828125
 20
76.99996948242188
 11
61.00048828125
 21
17.00033569335938
  0
LINE
  8
0
  6
CONTINUOUS
 62
     7
 10
-55.0008659362793
 20
82.99994659423828
 11
55.00039672851563
 21
82.99994659423828
  0
LINE
  8
0
  6
CONTINUOUS
 62
     7
 10
61.00048828125
 20
17.00033569335938
 11
58.00014877319336
 21
14.00001049041748
  0
LINE
  8
0
  6
CONTINUOUS
 62
     7
 10
61.00045394897461
 20
77.00035858154297
 11
55.00057601928711
 21
83.00022888183594
  0
LINE
  8
0
  6
CONTINUOUS
 62
     7
 10
58.00048828125
 20
75
 11
58.00048828125
 21
24
  0
LINE
  8
0
  6
CONTINUOUS
 62
     7
 10
-53.00029373168945
 20
79.99996948242188
 11
53.00015258789063
 21
79.99996948242188
  0
LINE
  8
0
  6
CONTINUOUS
 62
     7
 10
23.99990844726563
 20
18.99998474121094
 11
61.00039672851563
 21
18.99998474121094
  0
LINE
  8
0
  6
CONTINUOUS
 62
     7
 10
58.00057983398438
 20
23.99945259094238
 11
53.00057220458984
 21
18.99944877624512
  0
LINE
  8
0
  6
CONTINUOUS
 62
     7
 10
58.00053787231445
 20
74.99973297119141
 11
53.00020599365234
 21
80.00005340576172
  0
LINE
  8
0
  6
CONTINUOUS
 62
     7
 10
42.0001335144043
 20
14.00010490417481
 11
31.27786636352539
 21
18.99998474121094
  0
LINE
  8
0
  6
CENTER
 62
     7
 10
-7.499359130859375
 20
71.00001525878906
 11
13.72476196289063
 21
71.00001525878906
  0
LINE
  8
0
  6
CONTINUOUS
 62
     7
 10
-82.89999389648438
 20
90
 11
-52.09945678710938
 21
90
  0
LINE
  8
0
  6
CONTINUOUS
 62
     7
 10
-61.1457633972168
 20
14
 11
-41.99935913085938
 21
14
  0
LINE
  8
0
  6
CONTINUOUS
 62
     7
 10
41.99990844726563
 20
14
 11
61.14704895019531
 21
14
  0
LINE
  8
0
  6
CONTINUOUS
 62
     7
 10
-61.1457633972168
 20
14
 11
-67.30257415771484
 21
48.91705703735352
  0
LINE
  8
0
  6
CONTINUOUS
 62
     7
 10
-82.27450561523438
 20
53.00001525878906
 11
-72.21908569335938
 21
53.00001525878906
  0
LINE
  8
0
  6
CONTINUOUS
 62
     7
 10
-84.999755859375
 20
87.89996337890625
 11
-84.999755859375
 21
68.49998474121094
  0
LINE
  8
0
  6
CONTINUOUS
 62
     7
 10
85.00048828125
 20
87.69996643066406
 11
85.00048828125
 21
68.49998474121094
  0
LINE
  8
0
  6
CONTINUOUS
 62
     7
 10
-84.99937438964844
 20
68.49974822998047
 11
-83.49952697753906
 21
66.99990844726563
  0
LINE
  8
0
  6
CONTINUOUS
 62
     7
 10
85.00025177001953
 20
68.49984741210938
 11
83.50021362304688
 21
66.99981689453125
  0
LINE
  8
0
  6
CONTINUOUS
 62
     7
 10
-83.49858093261719
 20
67.00010681152344
 11
-82.27374267578125
 21
53.00014877319336
  0
LINE
  8
0
  6
CONTINUOUS
 62
     7
 10
83.50078582763672
 20
66.99991607666016
 11
82.27593994140625
 21
52.99990844726563
  0
LINE
  8
0
  6
CONTINUOUS
 62
     7
 10
72.21963500976563
 20
53.00001525878906
 11
82.27505493164063
 21
53.00001525878906
  0
LINE
  8
0
  6
CONTINUOUS
 62
     7
 10
-50.99935913085938
 20
88.89999389648438
 11
-24.99984741210938
 21
88.89999389648438
  0
LINE
  8
0
  6
CONTINUOUS
 62
     7
 10
25.00039672851563
 20
88.89999389648438
 11
50.99990844726563
 21
88.89999389648438
  0
LINE
  8
0
  6
CONTINUOUS
 62
     7
 10
-24.99969673156738
 20
88.89973449707031
 11
-23.89971160888672
 21
89.99972534179688
  0
LINE
  8
0
  6
CONTINUOUS
 62
     7
 10
-50.99964904785156
 20
88.89996337890625
 11
-52.09966659545898
 21
89.99998474121094
  0
LINE
  8
0
  6
CONTINUOUS
 62
     7
 10
51.00065612792969
 20
88.89937591552734
 11
52.10067749023438
 21
89.99939727783203
  0
LINE
  8
0
  6
CONTINUOUS
 62
     7
 10
25.0003833770752
 20
88.89993286132813
 11
23.90036392211914
 21
89.99995422363281
  0
LINE
  8
0
  6
CONTINUOUS
 62
     7
 10
-23.89974975585938
 20
90
 11
23.90029907226563
 21
90
  0
LINE
  8
0
  6
CONTINUOUS
 62
     7
 10
52.10000610351563
 20
90
 11
82.70059204101563
 21
90
  0
LINE
  8
0
  6
CONTINUOUS
 62
     7
 10
-82.89971923828125
 20
89.99977874755859
 11
-84.99974060058594
 21
87.89974975585938
  0
LINE
  8
0
  6
CONTINUOUS
 62
     7
 10
82.70038604736328
 20
90.00040435791016
 11
85.00038146972656
 21
87.70040893554688
  0
LINE
  8
0
  6
CONTINUOUS
 62
     7
 10
2.616851806640625
 20
74.49998474121094
 11
6.697174072265625
 21
74.49998474121094
  0
LINE
  8
0
  6
CONTINUOUS
 62
     7
 10
2.616851806640625
 20
67.5
 11
6.697174072265625
 21
67.5
  0
LINE
  8
0
  6
CONTINUOUS
 62
     7
 10
1.96690833568573
 20
71.00000762939453
 11
2.616902112960815
 21
67.50000762939453
  0
LINE
  8
0
  6
CONTINUOUS
 62
     7
 10
1.967221617698669
 20
70.99979400634766
 11
2.61721396446228
 21
74.49978637695313
  0
LINE
  8
0
  6
CONTINUOUS
 62
     7
 10
4.276889801025391
 20
71.00005340576172
 11
4.92689847946167
 21
67.50005340576172
  0
LINE
  8
0
  6
CONTINUOUS
 62
     7
 10
4.276957988739014
 20
70.99984741210938
 11
4.926968097686768
 21
74.49984741210938
  0
LINE
  8
0
  6
CONTINUOUS
 62
     7
 10
6.7871994972229
 20
67.96981811523438
 11
6.697187423706055
 21
67.49980926513672
  0
LINE
  8
0
  6
CONTINUOUS
 62
     7
 10
6.787782669067383
 20
74.02022552490234
 11
6.69777774810791
 21
74.50019836425781
  0
LINE
  8
0
  6
CONTINUOUS
 62
     7
 10
8.603360176086426
 20
67.75424194335938
 11
11.35699367523193
 21
68.49980926513672
  0
LINE
  8
0
  6
CONTINUOUS
 62
     7
 10
8.586801528930664
 20
74.24993133544922
 11
11.35669612884522
 21
73.49996185302734
  0
LINE
  8
0
  6
CONTINUOUS
 62
     7
 10
3.938041210174561
 20
74.5001220703125
 11
0.0003318644885439426
 21
76.7735595703125
  0
LINE
  8
0
  6
CONTINUOUS
 62
     7
 10
0.0002680362667888403
 20
65.22598266601563
 11
3.938056707382202
 21
67.49946594238281
  0
LINE
  8
0
  6
CONTINUOUS
 62
     7
 10
-26.03549194335938
 20
55.5
 11
26.03604125976563
 21
55.5
  0
LINE
  8
0
  6
CONTINUOUS
 62
     7
 10
26.03640937805176
 20
55.50011825561523
 11
34.00068283081055
 21
47.53584289550781
  0
LINE
  8
0
  6
CONTINUOUS
 62
     7
 10
34.00048828125
 20
47.53550720214844
 11
34.00048828125
 21
38.46446228027344
  0
LINE
  8
0
  6
CONTINUOUS
 62
     7
 10
24.50070190429688
 20
28.96393394470215
 11
34.00068283081055
 21
38.46390914916992
  0
LINE
  8
0
  6
CONTINUOUS
 62
     7
 10
24.500244140625
 20
28.96444702148438
 11
24.500244140625
 21
22.03550720214844
  0
LINE
  8
0
  6
CONTINUOUS
 62
     7
 10
24.50039863586426
 20
22.03593254089356
 11
27.53593635559082
 21
19.00038146972656
  0
LINE
  8
0
  6
CONTINUOUS
 62
     7
 10
-29.49984741210938
 20
0
 11
-22.57699584960938
 21
0
  0
LINE
  8
0
  6
CONTINUOUS
 62
     7
 10
31.5
 20
46.5
 11
31.5
 21
39.49996948242188
  0
LINE
  8
0
  6
CONTINUOUS
 62
     7
 10
-31.499267578125
 20
46.5
 11
-31.499267578125
 21
39.49996948242188
  0
LINE
  8
0
  6
CONTINUOUS
 62
     7
 10
-24.88998413085938
 20
53.00001525878906
 11
24.89053344726563
 21
53.00001525878906
  0
LINE
  8
0
  6
CONTINUOUS
 62
     7
 10
31.50015068054199
 20
1.999956250190735
 11
29.50014686584473
 21
-4.585576971294358E-005
  0
LINE
  8
0
  6
CONTINUOUS
 62
     7
 10
-31.5
 20
2.000235557556152
 11
-29.49984931945801
 21
8.49680436658673E-005
  0
LINE
  8
0
  6
CONTINUOUS
 62
     7
 10
22.00048828125
 20
30
 11
22.00048828125
 21
21
  0
LINE
  8
0
  6
CONTINUOUS
 62
     7
 10
-21.999755859375
 20
30
 11
-21.999755859375
 21
21
  0
LINE
  8
0
  6
CONTINUOUS
 62
     7
 10
22.00079727172852
 20
29.99947547912598
 11
24.88854598999023
 21
32.88722229003906
  0
LINE
  8
0
  6
CONTINUOUS
 62
     7
 10
-21.99965667724609
 20
20.99969863891602
 11
-31.5
 21
11.4993371963501
  0
LINE
  8
0
  6
CONTINUOUS
 62
     7
 10
-21.99936676025391
 20
30.00020408630371
 11
-24.88717842102051
 21
32.88801956176758
  0
LINE
  8
0
  6
CONTINUOUS
 62
     7
 10
-30.97700881958008
 20
47.0205192565918
 11
-31.49876213073731
 21
46.49876403808594
  0
LINE
  8
0
  6
CONTINUOUS
 62
     7
 10
30.97905540466309
 20
47.02176284790039
 11
31.50058174133301
 21
46.50023651123047
  0
LINE
  8
0
  6
CONTINUOUS
 62
     7
 10
31.5
 20
11.49998474121094
 11
31.5
 21
2.000015258789063
  0
LINE
  8
0
  6
CONTINUOUS
 62
     7
 10
-21.99984741210938
 20
0.9999847412109375
 11
-11.99935913085938
 21
0.9999847412109375
  0
LINE
  8
0
  6
CONTINUOUS
 62
     7
 10
11.99990844726563
 20
0.9999847412109375
 11
22.00039672851563
 21
0.9999847412109375
  0
LINE
  8
0
  6
CONTINUOUS
 62
     7
 10
22.0002555847168
 20
1.000032782554627
 11
22.57757949829102
 21
6.1515522247646E-005
  0
LINE
  8
0
  6
CONTINUOUS
 62
     7
 10
12.00060272216797
 20
0.9995875954627991
 11
11.4232702255249
 21
-0.0003798668622039259
  0
LINE
  8
0
  6
CONTINUOUS
 62
     7
 10
-21.99958610534668
 20
0.9997106194496155
 11
-22.57692337036133
 21
-0.0002804251562338322
  0
LINE
  8
0
  6
CONTINUOUS
 62
     7
 10
-11.99986171722412
 20
1.000363111495972
 11
-11.42253017425537
 21
0.0003956269647460431
  0
LINE
  8
0
  6
CONTINUOUS
 62
     7
 10
-11.42221069335938
 20
0
 11
11.42276000976563
 21
0
  0
LINE
  8
0
  6
CONTINUOUS
 62
     7
 10
22.57754516601563
 20
0
 11
29.50039672851563
 21
0
  0
LINE
  8
0
  6
CONTINUOUS
 62
     7
 10
-30.97872543334961
 20
38.97956466674805
 11
-31.49921417236328
 21
39.50005340576172
  0
LINE
  8
0
  6
CONTINUOUS
 62
     7
 10
30.97996139526367
 20
38.9786376953125
 11
31.50077629089356
 21
39.49945068359375
  0
LINE
  8
0
  6
CONTINUOUS
 62
     7
 10
22.00049018859863
 20
21.00039482116699
 11
31.50051498413086
 21
11.50033473968506
  0
LINE
  8
0
  6
DASHED
 62
     7
 10
13.00048828125
 20
53.00001525878906
 11
13.00048828125
 21
30.99998474121094
  0
LINE
  8
0
  6
DASHED
 62
     7
 10
-12.999755859375
 20
53.00001525878906
 11
-12.999755859375
 21
30.99998474121094
  0
LINE
  8
0
  6
DASHED
 62
     7
 10
9
 20
30.99998474121094
 11
9
 21
0
  0
LINE
  8
0
  6
DASHED
 62
     7
 10
-12.99984741210938
 20
30.99998474121094
 11
13.00039672851563
 21
30.99998474121094
  0
LINE
  8
0
  6
CENTER
 62
     7
 10
-70.99951171875
 20
91
 11
-70.99951171875
 21
65.99998474121094
  0
LINE
  8
0
  6
CENTER
 62
     7
 10
71.000244140625
 20
91
 11
71.000244140625
 21
65.99998474121094
  0
LINE
  8
0
  6
CENTER
 62
     7
 10
0
 20
91
 11
0
 21
-1
  0
LINE
  8
0
  6
CONTINUOUS
 62
     7
 10
-60.999755859375
 20
17.00028038024902
 11
-60.999755859375
 21
77.00106048583984
  0
LINE
  8
0
  6
CONTINUOUS
 62
     7
 10
-57.99981689453125
 20
14.00035762786865
 11
-60.999755859375
 21
17.00028038024902
  0
LINE
  8
0
  6
CONTINUOUS
 62
     7
 10
-57.999755859375
 20
24
 11
-57.999755859375
 21
75.00051879882813
  0
LINE
  8
0
  6
CONTINUOUS
 62
     7
 10
-60.99984741210938
 20
18.99998474121094
 11
-23.99935913085938
 21
18.99998474121094
  0
LINE
  8
0
  6
CONTINUOUS
 62
     7
 10
-52.99927139282227
 20
19.00031471252441
 11
-57.99908447265625
 21
24.00012397766113
  0
LINE
  8
0
  6
CONTINUOUS
 62
     7
 10
-31.27616882324219
 20
18.99998474121094
 11
-41.99924087524414
 21
13.99973106384277
  0
LINE
  8
0
  6
CONTINUOUS
 62
     7
 10
-83.49856567382813
 20
66.99998474121094
 11
-74.67149353027344
 21
66.99998474121094
  0
LINE
  8
0
  6
CONTINUOUS
 62
     7
 10
0.0002410149318166077
 20
76.77284240722656
 11
-4.999636650085449
 21
73.88616180419922
  0
LINE
  8
0
  6
CONTINUOUS
 62
     7
 10
-4.999535083770752
 20
68.11334991455078
 11
0.0006200838251970708
 21
65.22650909423828
  0
LINE
  8
0
  6
CONTINUOUS
 62
     7
 10
-33.99915313720703
 20
47.53459930419922
 11
-26.03462219238281
 21
55.49913024902344
  0
LINE
  8
0
  6
CONTINUOUS
 62
     7
 10
-33.999755859375
 20
38.46446228027344
 11
-33.999755859375
 21
47.53550720214844
  0
LINE
  8
0
  6
CONTINUOUS
 62
     7
 10
-33.99905395507813
 20
38.46457672119141
 11
-24.49920654296875
 21
28.9647274017334
  0
LINE
  8
0
  6
CONTINUOUS
 62
     7
 10
-24.49951171875
 20
22.03550720214844
 11
-24.49951171875
 21
28.96444702148438
  0
LINE
  8
0
  6
CONTINUOUS
 62
     7
 10
-27.53460121154785
 20
18.99920272827148
 11
-24.49906349182129
 21
22.03475379943848
  0
LINE
  8
0
  6
CONTINUOUS
 62
     7
 10
-4.99951171875
 20
73.88667297363281
 11
-4.99951171875
 21
68.11322021484375
  0
LINE
  8
0
  6
CONTINUOUS
 62
     7
 10
28.91120147705078
 20
18.99998474121094
 11
39.63370513916016
 21
14
  0
LINE
  8
0
  6
CONTINUOUS
 62
     7
 10
39.63430023193359
 20
13.99954509735107
 11
40.05691146850586
 21
14.905837059021
  0
LINE
  8
0
  6
DASHED
 62
     7
 10
-60.49943542480469
 20
15.99998378753662
 11
-62.17928695678711
 21
64.10471343994141
  0
LINE
  8
0
  6
DASHED
 62
     7
 10
-63.84951782226563
 20
90
 11
-63.84951782226563
 21
66.69005584716797
  0
LINE
  8
0
  6
DASHED
 62
     7
 10
-78.14950561523438
 20
90
 11
-78.14950561523438
 21
66.99998474121094
  0
LINE
  8
0
  6
DASHED
 62
     7
 10
-62.99954223632813
 20
90
 11
-62.99954223632813
 21
66.06311798095703
  0
LINE
  8
0
  6
DASHED
 62
     7
 10
-78.99948120117188
 20
90
 11
-78.99948120117188
 21
66.99998474121094
  0
LINE
  8
0
  6
CONTINUOUS
 62
     7
 10
-61.00045394897461
 20
77.00035858154297
 11
-55.00057601928711
 21
83.00022888183594
  0
LINE
  8
0
  6
CONTINUOUS
 62
     7
 10
-58.00053787231445
 20
74.99973297119141
 11
-53.00020599365234
 21
80.00005340576172
  0
LINE
  8
0
  6
CONTINUOUS
 62
     7
 10
190
 20
53.00001525878906
 11
190
 21
0
  0
LINE
  8
0
  6
CONTINUOUS
 62
     7
 10
710
 20
53.00001525878906
 11
710
 21
0
  0
LINE
  8
0
  6
DASHED
 62
     7
 10
238.00048828125
 20
53.00001525878906
 11
238.00048828125
 21
30.99998474121094
  0
LINE
  8
0
  6
DASHED
 62
     7
 10
212.000244140625
 20
53.00001525878906
 11
212.000244140625
 21
30.99998474121094
  0
LINE
  8
0
  6
DASHED
 62
     7
 10
234
 20
30.99998474121094
 11
234
 21
0
  0
LINE
  8
0
  6
DASHED
 62
     7
 10
212.0001525878906
 20
30.99998474121094
 11
238.0003967285156
 21
30.99998474121094
  0
LINE
  8
0
  6
CENTER
 62
     7
 10
225
 20
54.00001525878906
 11
225
 21
-1
  0
LINE
  8
0
  6
CENTER
 62
     7
 10
375
 20
17.00000762939453
 11
375
 21
-1
  0
LINE
  8
0
  6
CENTER
 62
     7
 10
525
 20
17.00000762939453
 11
525
 21
-1
  0
LINE
  8
0
  6
CENTER
 62
     7
 10
675
 20
54.00001525878906
 11
675
 21
-1
  0
LINE
  8
0
  6
CONTINUOUS
 62
     7
 10
-67.32178497314453
 20
49.00862884521484
 11
-69.76555633544922
 21
62.86795043945313
  0
LINE
  8
0
  6
CENTER
 62
     7
 10
395.0000610351563
 20
90.99997711181641
 11
395.0000610351563
 21
15.00000667572022
  0
LINE
  8
0
  6
DASHED
 62
     7
 10
402.1500549316406
 20
89.99997711181641
 11
402.1500549316406
 21
66.95755004882813
  0
LINE
  8
0
  6
DASHED
 62
     7
 10
387.8500671386719
 20
89.99997711181641
 11
387.8500671386719
 21
66.99996185302734
  0
LINE
  8
0
  6
DASHED
 62
     7
 10
403.0000305175781
 20
89.99997711181641
 11
403.0000305175781
 21
66.76972961425781
  0
LINE
  8
0
  6
DASHED
 62
     7
 10
387.0000915527344
 20
89.99997711181641
 11
387.0000915527344
 21
66.99996185302734
  0
LINE
  8
0
  6
CENTER
 62
     7
 10
504.9999389648438
 20
90.99997711181641
 11
504.9999389648438
 21
15.00000667572022
  0
LINE
  8
0
  6
CONTINUOUS
 62
     7
 10
-31.5
 20
11.49933624267578
 11
-31.5
 21
2.000234603881836
  0
LINE
  8
0
  6
DASHED
 62
     7
 10
-9
 20
30.99998474121094
 11
-9
 21
0
  0
LINE
  8
0
  6
CONTINUOUS
 62
     7
 10
74.688720703125
 20
67.00001525878906
 11
83.50070190429688
 21
67.00001525878906
  0
LINE
  8
0
  6
CONTINUOUS
 62
     7
 10
61.14704895019531
 20
14
 11
69.76369476318359
 21
62.867431640625
  0
LINE
  8
0
  6
DASHED
 62
     7
 10
-74.67149353027344
 20
66.99998474121094
 11
-65.177490234375
 21
66.99998474121094
  0
LINE
  8
0
  6
DASHED
 62
     7
 10
216
 20
30.99998474121094
 11
216
 21
0
  0
LINE
  8
0
  6
CENTER
 62
     7
 10
189
 20
324.9999694824219
 11
711
 21
324.9999694824219
  0
LINE
  8
0
  6
CONTINUOUS
 62
     7
 10
190
 20
47.02178192138672
 11
356.9998168945313
 21
47.02178192138672
  0
LINE
  8
0
  6
CONTINUOUS
 62
     7
 10
190
 20
38.97921752929688
 11
356.9998168945313
 21
38.97921752929688
  0
LINE
  8
0
  6
CONTINUOUS
 62
     7
 10
190
 20
29.99916458129883
 11
356.9998168945313
 21
29.99916458129883
  0
LINE
  8
0
  6
CONTINUOUS
 62
     7
 10
190
 20
11.50084972381592
 11
710
 21
11.50084972381592
  0
LINE
  8
0
  6
CONTINUOUS
 62
     7
 10
190
 20
21.00039482116699
 11
356.9998168945313
 21
21.00039482116699
  0
LINE
  8
0
  6
CONTINUOUS
 62
     7
 10
542.9998779296875
 20
47.02178192138672
 11
710
 21
47.02178192138672
  0
LINE
  8
0
  6
CONTINUOUS
 62
     7
 10
542.9998779296875
 20
38.97921752929688
 11
710
 21
38.97921752929688
  0
LINE
  8
0
  6
CONTINUOUS
 62
     7
 10
542.9998779296875
 20
29.99916458129883
 11
710
 21
29.99916458129883
  0
LINE
  8
0
  6
CONTINUOUS
 62
     7
 10
542.9998779296875
 20
21.00039482116699
 11
710
 21
21.00039482116699
  0
LINE
  8
0
  6
CONTINUOUS
 62
     7
 10
376.4998168945313
 20
239.9994812011719
 11
523.4998779296875
 21
239.9994812011719
  0
LINE
  8
0
  6
CONTINUOUS
 62
     7
 10
376.4998168945313
 20
409.9997253417969
 11
523.4998779296875
 21
409.9997253417969
  0
LINE
  8
0
  6
CONTINUOUS
 62
     7
 10
523.4998779296875
 20
409.9997253417969
 11
523.4998779296875
 21
239.9994812011719
  0
LINE
  8
0
  6
CONTINUOUS
 62
     7
 10
376.4998168945313
 20
409.9997253417969
 11
376.4998168945313
 21
239.9994812011719
  0
LINE
  8
0
  6
CONTINUOUS
 62
     7
 10
376.4998168945313
 20
272.8999633789063
 11
523.4998779296875
 21
272.8999633789063
  0
LINE
  8
0
  6
CONTINUOUS
 62
     7
 10
376.4998168945313
 20
301.0996704101563
 11
523.4998779296875
 21
301.0996704101563
  0
LINE
  8
0
  6
CONTINUOUS
 62
     7
 10
376.4998168945313
 20
348.8997192382813
 11
523.4998779296875
 21
348.8997192382813
  0
LINE
  8
0
  6
CONTINUOUS
 62
     7
 10
376.4998168945313
 20
377.0996398925781
 11
523.4998779296875
 21
377.0996398925781
  0
LINE
  8
0
  6
CONTINUOUS
 62
     7
 10
360.5000610351563
 20
385.9997253417969
 11
376.4998168945313
 21
385.9997253417969
  0
LINE
  8
0
  6
CONTINUOUS
 62
     7
 10
360.5000610351563
 20
263.9994812011719
 11
376.4998168945313
 21
263.9994812011719
  0
LINE
  8
0
  6
CONTINUOUS
 62
     7
 10
360.5000610351563
 20
385.9997253417969
 11
360.5000610351563
 21
263.9994812011719
  0
LINE
  8
0
  6
CONTINUOUS
 62
     7
 10
358.4998168945313
 20
382.9997253417969
 11
360.5000610351563
 21
382.9997253417969
  0
LINE
  8
0
  6
CONTINUOUS
 62
     7
 10
358.4998168945313
 20
266.9994812011719
 11
360.5000610351563
 21
266.9994812011719
  0
LINE
  8
0
  6
CONTINUOUS
 62
     7
 10
358.4998168945313
 20
382.9997253417969
 11
358.4998168945313
 21
266.9994812011719
  0
LINE
  8
0
  6
CONTINUOUS
 62
     7
 10
356.9998168945313
 20
358.9997253417969
 11
356.9998168945313
 21
329.9999694824219
  0
LINE
  8
0
  6
CONTINUOUS
 62
     7
 10
356.9998168945313
 20
290.9994812011719
 11
358.4998168945313
 21
290.9994812011719
  0
LINE
  8
0
  6
CONTINUOUS
 62
     7
 10
356.9998168945313
 20
358.9997253417969
 11
358.4998168945313
 21
358.9997253417969
  0
LINE
  8
0
  6
CENTER
 62
     7
 10
404.0000610351563
 20
253.9997253417969
 11
386.0000610351563
 21
253.9997253417969
  0
LINE
  8
0
  6
CENTER
 62
     7
 10
395.0000610351563
 20
262.9997253417969
 11
395.0000610351563
 21
244.9997253417969
  0
LINE
  8
0
  6
CENTER
 62
     7
 10
504.9996032714844
 20
262.9997253417969
 11
504.9996032714844
 21
244.9997253417969
  0
LINE
  8
0
  6
CENTER
 62
     7
 10
495.9996032714844
 20
253.9997253417969
 11
513.9996337890625
 21
253.9997253417969
  0
LINE
  8
0
  6
CENTER
 62
     7
 10
504.9996032714844
 20
387.0002136230469
 11
504.9996032714844
 21
405.0002136230469
  0
LINE
  8
0
  6
CENTER
 62
     7
 10
395.0000610351563
 20
387.0002136230469
 11
395.0000610351563
 21
405.0002136230469
  0
LINE
  8
0
  6
CENTER
 62
     7
 10
495.9996032714844
 20
396.0002136230469
 11
513.9996337890625
 21
396.0002136230469
  0
LINE
  8
0
  6
CENTER
 62
     7
 10
404.0000610351563
 20
396.0002136230469
 11
386.0000610351563
 21
396.0002136230469
  0
LINE
  8
0
  6
CONTINUOUS
 62
     7
 10
539.4996337890625
 20
385.9997253417969
 11
539.4996337890625
 21
263.9994812011719
  0
LINE
  8
0
  6
CONTINUOUS
 62
     7
 10
539.4996337890625
 20
263.9994812011719
 11
523.4998779296875
 21
263.9994812011719
  0
LINE
  8
0
  6
CONTINUOUS
 62
     7
 10
539.4996337890625
 20
385.9997253417969
 11
523.4998779296875
 21
385.9997253417969
  0
LINE
  8
0
  6
CONTINUOUS
 62
     7
 10
542.9998779296875
 20
358.9997253417969
 11
542.9998779296875
 21
290.9994812011719
  0
LINE
  8
0
  6
CONTINUOUS
 62
     7
 10
541.4998779296875
 20
382.9997253417969
 11
541.4998779296875
 21
266.9994812011719
  0
LINE
  8
0
  6
CONTINUOUS
 62
     7
 10
541.4998779296875
 20
266.9994812011719
 11
539.4996337890625
 21
266.9994812011719
  0
LINE
  8
0
  6
CONTINUOUS
 62
     7
 10
541.4998779296875
 20
382.9997253417969
 11
539.4996337890625
 21
382.9997253417969
  0
LINE
  8
0
  6
CONTINUOUS
 62
     7
 10
542.9998779296875
 20
358.9997253417969
 11
541.4998779296875
 21
358.9997253417969
  0
LINE
  8
0
  6
CONTINUOUS
 62
     7
 10
542.9998779296875
 20
290.9994812011719
 11
541.4998779296875
 21
290.9994812011719
  0
LINE
  8
0
  6
CONTINUOUS
 62
     7
 10
190
 20
293.4999694824219
 11
356.9998168945313
 21
293.4999694824219
  0
LINE
  8
0
  6
CONTINUOUS
 62
     7
 10
190
 20
300.1089782714844
 11
356.9998168945313
 21
300.1089782714844
  0
LINE
  8
0
  6
CONTINUOUS
 62
     7
 10
190
 20
349.8902282714844
 11
356.9998168945313
 21
349.8902282714844
  0
LINE
  8
0
  6
CONTINUOUS
 62
     7
 10
190
 20
356.4992370605469
 11
356.9998168945313
 21
356.4992370605469
  0
LINE
  8
0
  6
CONTINUOUS
 62
     7
 10
190
 20
356.4992370605469
 11
190
 21
293.4999694824219
  0
LINE
  8
0
  6
CONTINUOUS
 62
     7
 10
710
 20
356.4992370605469
 11
710
 21
293.4999694824219
  0
LINE
  8
0
  6
CONTINUOUS
 62
     7
 10
542.9998779296875
 20
293.4999694824219
 11
710
 21
293.4999694824219
  0
LINE
  8
0
  6
CONTINUOUS
 62
     7
 10
542.9998779296875
 20
300.1089782714844
 11
710
 21
300.1089782714844
  0
LINE
  8
0
  6
CONTINUOUS
 62
     7
 10
542.9998779296875
 20
349.8902282714844
 11
710
 21
349.8902282714844
  0
LINE
  8
0
  6
CONTINUOUS
 62
     7
 10
542.9998779296875
 20
356.4992370605469
 11
710
 21
356.4992370605469
  0
LINE
  8
0
  6
CENTER
 62
     7
 10
225
 20
338.9999694824219
 11
225
 21
310.9999694824219
  0
LINE
  8
0
  6
CENTER
 62
     7
 10
375
 20
338.9999694824219
 11
375
 21
310.9999694824219
  0
LINE
  8
0
  6
CENTER
 62
     7
 10
525
 20
338.9999694824219
 11
525
 21
310.9999694824219
  0
LINE
  8
0
  6
CENTER
 62
     7
 10
675
 20
338.9999694824219
 11
675
 21
310.9999694824219
  0
LINE
  8
0
  6
CENTER
 62
     7
 10
343.4626770019531
 20
311.9113159179688
 11
349.0415954589844
 21
325.3800354003906
  0
LINE
  8
0
  6
CONTINUOUS
 62
     7
 10
341.8828430175781
 20
314.3688049316406
 11
346.3174438476563
 21
312.5319213867188
  0
LINE
  8
0
  6
CONTINUOUS
 62
     7
 10
342.0845947265625
 20
317.2077026367188
 11
348.1821899414063
 21
314.6819763183594
  0
LINE
  8
0
  6
CONTINUOUS
 62
     7
 10
341.8828430175781
 20
314.3688049316406
 11
342.0845947265625
 21
317.2077026367188
  0
LINE
  8
0
  6
CONTINUOUS
 62
     7
 10
346.3175048828125
 20
312.5319213867188
 11
348.1822204589844
 21
314.6819763183594
  0
LINE
  8
0
  6
CONTINUOUS
 62
     7
 10
342.8233032226563
 20
320.9285583496094
 11
343.2379760742188
 21
321.9296264648438
  0
LINE
  8
0
  6
CONTINUOUS
 62
     7
 10
350.2909240722656
 20
317.8353881835938
 11
350.7055969238281
 21
318.8364562988281
  0
LINE
  8
0
  6
CONTINUOUS
 62
     7
 10
344.0174560546875
 20
322.2524108886719
 11
343.2380065917969
 21
321.9295654296875
  0
LINE
  8
0
  6
CONTINUOUS
 62
     7
 10
344.4606323242188
 20
319.6009521484375
 11
345.3331909179688
 21
321.7074890136719
  0
LINE
  8
0
  6
CONTINUOUS
 62
     7
 10
348.1943969726563
 20
318.0543823242188
 11
349.0669555664063
 21
320.1609191894531
  0
LINE
  8
0
  6
CONTINUOUS
 62
     7
 10
343.3785705566406
 20
322.5171203613281
 11
350.3827209472656
 21
319.6159057617188
  0
LINE
  8
0
  6
CONTINUOUS
 62
     7
 10
350.7055969238281
 20
318.8363952636719
 11
350.3827209472656
 21
319.6158447265625
  0
LINE
  8
0
  6
CONTINUOUS
 62
     7
 10
343.2148742675781
 20
318.6298522949219
 11
348.3886108398438
 21
316.48681640625
  0
LINE
  8
0
  6
CONTINUOUS
 62
     7
 10
353.7998046875
 20
329.9999694824219
 11
353.7998046875
 21
319.9999694824219
  0
LINE
  8
0
  6
CONTINUOUS
 62
     7
 10
343.2998352050781
 20
326.7999572753906
 11
343.2998352050781
 21
323.145263671875
  0
LINE
  8
0
  6
CONTINUOUS
 62
     7
 10
353.7998046875
 20
329.9999694824219
 11
358.4998168945313
 21
329.9999694824219
  0
LINE
  8
0
  6
CONTINUOUS
 62
     7
 10
346.2998352050781
 20
329.7999572753906
 11
353.7998046875
 21
329.7999572753906
  0
LINE
  8
0
  6
CONTINUOUS
 62
     7
 10
348.9726867675781
 20
320.1999816894531
 11
353.7998046875
 21
320.1999816894531
  0
LINE
  8
0
  6
CONTINUOUS
 62
     7
 10
353.7998046875
 20
319.9999694824219
 11
358.4998168945313
 21
319.9999694824219
  0
LINE
  8
0
  6
CONTINUOUS
 62
     7
 10
356.9998168945313
 20
319.9999694824219
 11
356.9998168945313
 21
290.9994812011719
  0
LINE
  8
0
  6
CONTINUOUS
 62
     7
 10
343.0531005859375
 20
320.1839904785156
 11
349.6018981933594
 21
317.4713745117188
  0
ARC
  8
0
  6
CONTINUOUS
 62
     7
 10
346.2999572753906
 20
72.79996490478516
 40
3.000000000000006
 50
89.99998201391097
 51
165.8646416536697
  0
ARC
  8
0
  6
CONTINUOUS
 62
     7
 10
498.4999084472656
 20
61.99994659423828
 40
4.999999046325688
 50
89.9999820139108
 51
179.9999640278213
  0
ARC
  8
0
  6
CONTINUOUS
 62
     7
 10
362.1179809570313
 20
77.28428649902344
 40
8.435741424560524
 50
189.5825728116531
 51
203.1582021644572
  0
ARC
  8
0
  6
CONTINUOUS
 62
     7
 10
361.9107055664063
 20
70.99999237060547
 40
8.111172676086419
 50
158.545684146651
 51
201.4542985505051
  0
ARC
  8
0
  6
CONTINUOUS
 62
     7
 10
346.2999572753906
 20
69.19999694824219
 40
2.99999999999998
 50
195.6428630584223
 51
270.0000726276024
  0
ARC
  8
0
  6
CONTINUOUS
 62
     7
 10
401.5003051757813
 20
61.99994659423828
 40
4.999999046325684
 50
0
 51
89.9999820139108
  0
ARC
  8
0
  6
CONTINUOUS
 62
     7
 10
350.1817932128906
 20
64.71575164794922
 40
8.435741424560545
 50
9.582570990420338
 51
23.15820034322432
  0
ARC
  8
0
  6
CONTINUOUS
 62
     7
 10
350.3883361816406
 20
70.99999237060547
 40
8.111172676086431
 50
338.5457030433567
 51
21.4543140321162
  0
ARC
  8
0
  6
CONTINUOUS
 62
     7
 10
350.1817932128906
 20
77.28428649902344
 40
8.435741424560527
 50
336.8417996567757
 51
350.4174290095796
  0
ARC
  8
0
  6
CONTINUOUS
 62
     7
 10
362.1179809570313
 20
64.71575164794922
 40
8.435741424560538
 50
156.8417978355428
 51
170.4174271883469
  0
ARC
  8
0
  6
CONTINUOUS
 62
     7
 10
-35.21282577514648
 20
18.00948905944824
 40
2.500000000000001
 50
249.9310097516243
 51
340.0690059829988
  0
ARC
  8
0
  6
CONTINUOUS
 62
     7
 10
-72.218994140625
 20
48
 40
4.999999046325678
 50
9.999967265694401
 51
89.99981808937055
  0
ARC
  8
0
  6
CONTINUOUS
 62
     7
 10
72.2197265625
 20
48
 40
4.999999046325686
 50
90.00009129693736
 51
169.9999933470323
  0
ARC
  8
0
  6
CONTINUOUS
 62
     7
 10
8.447021484375
 20
68.71000671386719
 40
0.9683420658111546
 50
215.3314570768739
 51
278.2972225067941
  0
ARC
  8
0
  6
CONTINUOUS
 62
     7
 10
7.456787109375
 20
66.92001342773438
 40
1.246148109436042
 50
80.76452806729962
 51
142.1250351177267
  0
ARC
  8
0
  6
CONTINUOUS
 62
     7
 10
7.456787109375
 20
75.07997131347656
 40
1.254198908805844
 50
217.8749648822733
 51
279.2353626496737
  0
ARC
  8
0
  6
CONTINUOUS
 62
     7
 10
8.447021484375
 20
73.28997802734375
 40
0.9701611399650598
 50
81.70288677623263
 51
144.668542923126
  0
ARC
  8
0
  6
CONTINUOUS
 62
     7
 10
0
 20
71.00001525878906
 40
4.79999923706055
 50
46.95109601507203
 51
313.1834072577874
  0
ARC
  8
0
  6
CONTINUOUS
 62
     7
 10
-31.07666015625
 20
53.21099853515625
 40
6.189998149871824
 50
270.9142251461173
 51
358.0467214976234
  0
ARC
  8
0
  6
CONTINUOUS
 62
     7
 10
31.077392578125
 20
53.21099853515625
 40
6.189998149871825
 50
181.9533061502623
 51
269.0857561845481
  0
ARC
  8
0
  6
CONTINUOUS
 62
     7
 10
31.077392578125
 20
32.78997802734375
 40
6.189998149871824
 50
90.90500939969404
 51
179.094936642038
  0
ARC
  8
0
  6
CONTINUOUS
 62
     7
 10
-31.07666015625
 20
32.78997802734375
 40
6.189998149871825
 50
0.905046382246974
 51
89.0949546281273
  0
ARC
  8
0
  6
CONTINUOUS
 62
     7
 10
35.21316909790039
 20
18.00932884216309
 40
2.500000000000003
 50
199.9310197438961
 51
290.0690262205544
  0
ARC
  8
0
  6
DASHED
 62
     7
 10
-65.177490234375
 20
63.99998474121094
 40
3.000000000000004
 50
1.999850787562716
 51
89.9999820139107
  0
ARC
  8
0
  6
CONTINUOUS
 62
     7
 10
-74.688720703125
 20
62.00001525878906
 40
4.999999046325677
 50
10.00003386003881
 51
89.99996152334312
  0
ARC
  8
0
  6
CONTINUOUS
 62
     7
 10
74.688720703125
 20
61.9990119934082
 40
5.000998973846436
 50
90.00003665542404
 51
169.9999660262757
  0
CIRCLE
  8
0
  6
CONTINUOUS
 62
     7
 10
395.0000610351563
 20
253.9997253417969
 40
7.999969482421875
  0
CIRCLE
  8
0
  6
CONTINUOUS
 62
     7
 10
395.0000610351563
 20
253.9997253417969
 40
7.149993896484375
  0
CIRCLE
  8
0
  6
CONTINUOUS
 62
     7
 10
225
 20
324.9999694824219
 40
9
  0
CIRCLE
  8
0
  6
CONTINUOUS
 62
     7
 10
225
 20
324.9999694824219
 40
12.999755859375
  0
ARC
  8
0
  6
CONTINUOUS
 62
     7
 10
345.1334228515625
 20
315.9448852539063
 40
3.299999237060546
 50
131.5803705110077
 51
157.4999548639656
  0
ARC
  8
0
  6
CONTINUOUS
 62
     7
 10
345.1334228515625
 20
315.9448852539063
 40
3.299999237060556
 50
337.5000181569004
 51
3.419602296414665
  0
ARC
  8
0
  6
CONTINUOUS
 62
     7
 10
337.2170715332031
 20
318.7909545898438
 40
6.000000000000008
 50
2.433650829345248
 51
20.87173987704925
  0
ARC
  8
0
  6
CONTINUOUS
 62
     7
 10
352.7436218261719
 20
312.3596496582031
 40
6.000000000000011
 50
114.1278165022775
 51
132.566321978077
  0
ARC
  8
0
  6
CONTINUOUS
 62
     7
 10
342.412353515625
 20
319.0117797851563
 40
0.7999999523163035
 50
311.579832747295
 51
2.433049772696593
  0
ARC
  8
0
  6
CONTINUOUS
 62
     7
 10
349.2261047363281
 20
316.1894226074219
 40
0.7999999523162747
 50
132.5669776762372
 51
183.4201402735693
  0
ARC
  8
0
  6
CONTINUOUS
 62
     7
 10
346.2998352050781
 20
326.7999572753906
 40
2.999999999999977
 50
89.99998201391097
 51
179.9999640278208
  0
ARC
  8
0
  6
CONTINUOUS
 62
     7
 10
359.6410522460938
 20
327.4999694824219
 40
5.841244697570769
 50
154.6598529240474
 51
205.3400751315952
  0
ARC
  8
0
  6
CONTINUOUS
 62
     7
 10
359.6410522460938
 20
322.4999694824219
 40
5.841244697570822
 50
154.6595797164804
 51
205.3404029806753
  0
ARC
  8
0
  6
CONTINUOUS
 62
     7
 10
352.6587219238281
 20
327.4999694824219
 40
5.841100692749023
 50
0
 51
25.34079753778579
  0
ARC
  8
0
  6
CONTINUOUS
 62
     7
 10
352.6587219238281
 20
322.4999694824219
 40
5.841100692749023
 50
0
 51
25.34079753778579
  0
ARC
  8
0
  6
CONTINUOUS
 62
     7
 10
352.6587219238281
 20
322.4999694824219
 40
5.841100692749034
 50
334.6592024622142
 51
359.9999826971572
  0
ARC
  8
0
  6
CONTINUOUS
 62
     7
 10
352.6587219238281
 20
327.4999694824219
 40
5.841100692749034
 50
334.6592024622142
 51
359.9999826971572
  0
ARC
  8
0
  6
CONTINUOUS
 62
     7
 10
346.2998352050781
 20
323.1999816894531
 40
3
 50
180.0000906136925
 51
193.1569474081041
  0
POLYLINE
  8
0
  6
CONTINUOUS
 62
     7
 66
     1
 10
0
 20
0
  0
VERTEX
  8
0
  6
CONTINUOUS
 62
     7
 10
343.1184462468856
 20
73.26091663532962
 42
-0.06324826514520135
  0
VERTEX
  8
0
  6
CONTINUOUS
 62
     7
 10
343.7109185035894
 20
73.77989002867949
 42
-0.07421691335926971
  0
VERTEX
  8
0
  6
CONTINUOUS
 62
     7
 10
344.4222050142959
 20
74.11863250836174
 42
-0.0637696568488494
  0
VERTEX
  8
0
  6
CONTINUOUS
 62
     7
 10
345.1998596191406
 20
74.25004577636719
 42
0
  0
SEQEND
  8
0
  0
POLYLINE
  8
0
  6
CONTINUOUS
 62
     7
 66
     1
 10
0
 20
0
  0
VERTEX
  8
0
  6
CONTINUOUS
 62
     7
 10
342.9757927011453
 20
68.81893286870681
 42
0.06283223039194184
  0
VERTEX
  8
0
  6
CONTINUOUS
 62
     7
 10
343.5400939322573
 20
68.29276230864753
 42
0.06649701003859045
  0
VERTEX
  8
0
  6
CONTINUOUS
 62
     7
 10
344.2200964123307
 20
67.92826008412071
 42
0.06915533818143678
  0
VERTEX
  8
0
  6
CONTINUOUS
 62
     7
 10
344.9724524004196
 20
67.75940406528106
 42
0.06975263777162331
  0
VERTEX
  8
0
  6
CONTINUOUS
 62
     7
 10
345.7412079496616
 20
67.80340427601547
 42
0.06816328634557411
  0
VERTEX
  8
0
  6
CONTINUOUS
 62
     7
 10
346.4690517272051
 20
68.05522752948632
 42
0.0649958612743422
  0
VERTEX
  8
0
  6
CONTINUOUS
 62
     7
 10
347.1056174280325
 20
68.49006027976529
 42
0.06129107554716531
  0
VERTEX
  8
0
  6
CONTINUOUS
 62
     7
 10
347.6136743764996
 20
69.07016271478675
 42
0.05807995433322515
  0
VERTEX
  8
0
  6
CONTINUOUS
 62
     7
 10
347.9706698862908
 20
69.75415832473225
 42
0.05590583779631942
  0
VERTEX
  8
0
  6
CONTINUOUS
 62
     7
 10
348.1643254196187
 20
70.5013038227611
 42
0.0549635644415807
  0
VERTEX
  8
0
  6
CONTINUOUS
 62
     7
 10
348.1893358607123
 20
71.27202758695819
 42
0.05547188925080777
  0
VERTEX
  8
0
  6
CONTINUOUS
 62
     7
 10
348.0452572717359
 20
72.02991786805585
 42
0.05727954793857772
  0
VERTEX
  8
0
  6
CONTINUOUS
 62
     7
 10
347.7358519595622
 20
72.73636230182795
 42
0.06026892105975414
  0
VERTEX
  8
0
  6
CONTINUOUS
 62
     7
 10
347.2706168622478
 20
73.35167527787401
 42
0.06395466271242747
  0
VERTEX
  8
0
  6
CONTINUOUS
 62
     7
 10
346.6684105265742
 20
73.83405500743069
 42
0.06744832639446544
  0
VERTEX
  8
0
  6
CONTINUOUS
 62
     7
 10
345.9617496351528
 20
74.14350993412506
 42
0.06944488160936431
  0
VERTEX
  8
0
  6
CONTINUOUS
 62
     7
 10
345.1998596191406
 20
74.25004577636719
 42
0
  0
SEQEND
  8
0
  0
POLYLINE
  8
0
  6
CONTINUOUS
 62
     7
 66
     1
 10
0
 20
0
  0
VERTEX
  8
0
  6
CONTINUOUS
 62
     7
 10
343.1000061035156
 20
68.75999450683594
 42
0.06374700485179269
  0
VERTEX
  8
0
  6
CONTINUOUS
 62
     7
 10
343.6954283444238
 20
68.23056455745849
 42
0.07503499964025177
  0
VERTEX
  8
0
  6
CONTINUOUS
 62
     7
 10
344.4132922958344
 20
67.88417200878629
 42
0.06458424912845139
  0
VERTEX
  8
0
  6
CONTINUOUS
 62
     7
 10
345.1998596191406
 20
67.75005340576172
 42
0
  0
SEQEND
  8
0
  0
POLYLINE
  8
0
  6
CONTINUOUS
 62
     7
 66
     1
 10
0
 20
0
 70
     1
  0
VERTEX
  8
0
  6
CONTINUOUS
 62
     7
 10
344.0997619628906
 20
73.50004577636719
 42
0.1103863350416505
  0
VERTEX
  8
0
  6
CONTINUOUS
 62
     7
 10
343.1876007017143
 20
73.29505745492781
 42
0.1025114974865289
  0
VERTEX
  8
0
  6
CONTINUOUS
 62
     7
 10
342.4402668442028
 20
72.73105171647829
 42
0.09328935153208531
  0
VERTEX
  8
0
  6
CONTINUOUS
 62
     7
 10
341.9626682267086
 20
71.92415669398476
 42
0.08781785784031045
  0
VERTEX
  8
0
  6
CONTINUOUS
 62
     7
 10
341.7997741699219
 20
71.00003814697266
 42
0.08777277952365764
  0
VERTEX
  8
0
  6
CONTINUOUS
 62
     7
 10
341.9624963924732
 20
70.076420015514
 42
0.09326106337835047
  0
VERTEX
  8
0
  6
CONTINUOUS
 62
     7
 10
342.4397905840673
 20
69.26961315179437
 42
0.1026316310440709
  0
VERTEX
  8
0
  6
CONTINUOUS
 62
     7
 10
343.1879957977789
 20
68.70488125485254
 42
0.1103301605611185
  0
VERTEX
  8
0
  6
CONTINUOUS
 62
     7
 10
344.0997619628906
 20
68.50005340576172
 42
0.1103786418811428
  0
VERTEX
  8
0
  6
CONTINUOUS
 62
     7
 10
345.011919328906
 20
68.70506491081137
 42
0.1025067493743536
  0
VERTEX
  8
0
  6
CONTINUOUS
 62
     7
 10
345.7592542667271
 20
69.26907034635032
 42
0.09329029729556661
  0
VERTEX
  8
0
  6
CONTINUOUS
 62
     7
 10
346.236859739791
 20
70.07596140909402
 42
0.08781913582587288
  0
VERTEX
  8
0
  6
CONTINUOUS
 62
     7
 10
346.3997497558594
 20
71.00003814697266
 42
0.08776750639412974
  0
VERTEX
  8
0
  6
CONTINUOUS
 62
     7
 10
346.2370378173411
 20
71.9236589159905
 42
0.09325980459917564
  0
VERTEX
  8
0
  6
CONTINUOUS
 62
     7
 10
345.7597634985309
 20
72.73047791213091
 42
0.1026359880073387
  0
VERTEX
  8
0
  6
CONTINUOUS
 62
     7
 10
345.0115691814627
 20
73.29522366593885
 42
0.1103425425465349
  0
SEQEND
  8
0
  0
POLYLINE
  8
0
  6
CONTINUOUS
 62
     7
 66
     1
 10
0
 20
0
 70
     1
  0
VERTEX
  8
0
  6
CONTINUOUS
 62
     7
 10
11.35693359375
 20
73.50002288818359
 42
0.2551695026668724
  0
VERTEX
  8
0
  6
CONTINUOUS
 62
     7
 10
10.82713939088271
 20
73.0751257089664
 42
0.06318808245678505
  0
VERTEX
  8
0
  6
CONTINUOUS
 62
     7
 10
10.57306138729097
 20
72.41223604873476
 42
0.03518407456257734
  0
VERTEX
  8
0
  6
CONTINUOUS
 62
     7
 10
10.44634140016901
 20
71.71218800647685
 42
0.02798328278341336
  0
VERTEX
  8
0
  6
CONTINUOUS
 62
     7
 10
10.406982421875
 20
71.00001525878906
 42
0.02789738272182814
  0
VERTEX
  8
0
  6
CONTINUOUS
 62
     7
 10
10.44611271044737
 20
70.28987087142484
 42
0.03515785345505832
  0
VERTEX
  8
0
  6
CONTINUOUS
 62
     7
 10
10.57259683790208
 20
69.58958203587706
 42
0.06315239985324177
  0
VERTEX
  8
0
  6
CONTINUOUS
 62
     7
 10
10.82661165189104
 20
68.92583866289526
 42
0.2552947881136317
  0
VERTEX
  8
0
  6
CONTINUOUS
 62
     7
 10
11.35693359375
 20
68.50000762939453
 42
0.2551695026669976
  0
VERTEX
  8
0
  6
CONTINUOUS
 62
     7
 10
11.88672779661729
 20
68.92490480861173
 42
0.06318808245700609
  0
VERTEX
  8
0
  6
CONTINUOUS
 62
     7
 10
12.14080580020903
 20
69.58779446884337
 42
0.03518407456257823
  0
VERTEX
  8
0
  6
CONTINUOUS
 62
     7
 10
12.26752578733099
 20
70.28784251110128
 42
0.02798328278344124
  0
VERTEX
  8
0
  6
CONTINUOUS
 62
     7
 10
12.306884765625
 20
71.00001525878906
 42
0.02789738272183484
  0
VERTEX
  8
0
  6
CONTINUOUS
 62
     7
 10
12.26775447705263
 20
71.71015964615327
 42
0.03515785345479545
  0
VERTEX
  8
0
  6
CONTINUOUS
 62
     7
 10
12.14127034959792
 20
72.41044848170107
 42
0.06315239985285745
  0
VERTEX
  8
0
  6
CONTINUOUS
 62
     7
 10
11.88725553560896
 20
73.07419185468287
 42
0.2552947881146443
  0
SEQEND
  8
0
  0
POLYLINE
  8
0
  6
CONTINUOUS
 62
     7
 66
     1
 10
0
 20
0
  0
VERTEX
  8
0
  6
CONTINUOUS
 62
     7
 10
7.65673828125
 20
73.84996032714844
 42
0.1885623400639816
  0
VERTEX
  8
0
  6
CONTINUOUS
 62
     7
 10
7.297004659462766
 20
73.69027009716125
 42
0.07574382385208643
  0
VERTEX
  8
0
  6
CONTINUOUS
 62
     7
 10
7.052762168044493
 20
73.37243679988549
 42
0.03933653630499097
  0
VERTEX
  8
0
  6
CONTINUOUS
 62
     7
 10
6.882892204764194
 20
73.00710465267626
 42
0.02577194006012237
  0
VERTEX
  8
0
  6
CONTINUOUS
 62
     7
 10
6.760730371501566
 20
72.62295401194631
 42
0.01950585912398713
  0
VERTEX
  8
0
  6
CONTINUOUS
 62
     7
 10
6.67323339562347
 20
72.22874139250249
 42
0.01621521948218624
  0
VERTEX
  8
0
  6
CONTINUOUS
 62
     7
 10
6.613868129466926
 20
71.82914900906901
 42
0.0144671413122838
  0
VERTEX
  8
0
  6
CONTINUOUS
 62
     7
 10
6.57899646449789
 20
71.42662251141015
 42
0.01369189601100161
  0
VERTEX
  8
0
  6
CONTINUOUS
 62
     7
 10
6.56674548575932
 20
71.02247628868419
 42
0.01360508878729863
  0
VERTEX
  8
0
  6
CONTINUOUS
 62
     7
 10
6.576460280285341
 20
70.61962887624229
 42
0.01431559029691398
  0
VERTEX
  8
0
  6
CONTINUOUS
 62
     7
 10
6.608609184798178
 20
70.21737522609786
 42
0.01598229865353613
  0
VERTEX
  8
0
  6
CONTINUOUS
 62
     7
 10
6.665120165572493
 20
69.8165550055291
 42
0.0190273748643785
  0
VERTEX
  8
0
  6
CONTINUOUS
 62
     7
 10
6.749182869150363
 20
69.42139967155187
 42
0.02488072780758203
  0
VERTEX
  8
0
  6
CONTINUOUS
 62
     7
 10
6.867200983432136
 20
69.03500214076479
 42
0.03729782729659607
  0
VERTEX
  8
0
  6
CONTINUOUS
 62
     7
 10
7.031280454175099
 20
68.66581841842822
 42
0.06998635623286685
  0
VERTEX
  8
0
  6
CONTINUOUS
 62
     7
 10
7.266873596954483
 20
68.33849094559663
 42
0.1738240591993728
  0
VERTEX
  8
0
  6
CONTINUOUS
 62
     7
 10
7.616649347820059
 20
68.15190509282479
 42
0
  0
SEQEND
  8
0
  0
TEXT
  8
0
  6
CONTINUOUS
 62
     7
 10
-11.28550004959106
 20
-31.79999995231628
 40
3.599999904632568
 41
1.008382419577613
  1
HSR65A
  0
ENDSEC
  0
EOF
