  0
SECTION
  2
HEADER
  0
ENDSEC
  0
SECTION
  2
TABLES
  0
TABLE
  2
LTYPE
 70
    22
  0
LTYPE
  2
CONTINUOUS
 70
    64
  3
Solid line
 72
    65
 73
     0
 40
0.000000
  0
LTYPE
  2
DASHED
 70
    64
  3
__ __ __ __ __ __ __ __ __ __ __ __ __ __ __
 72
    65
 73
     2
 40
3.500000
 49
2.000000
 49
-1.500000
  0
LTYPE
  2
CENTER
 70
    64
  3
____ _ ____ _ ____ _ ____ _ ____ _ ____ _ ____
 72
    65
 73
     4
 40
17.500000
 49
13.000000
 49
-1.500000
 49
1.500000
 49
-1.500000
  0
LTYPE
  2
PHANTOM
 70
    64
  3
_____ _ _ _____ _ _ _____ _ _ _____ _ _ ____  
 72
    65
 73
     6
 40
15.500000
 49
8.000000
 49
-1.500000
 49
1.500000
 49
-1.500000
 49
1.500000
 49
-1.500000
  0
LTYPE
  2
DOT
 70
    64
  3
. . . . . . . . . . . . . . . . . . . . . . . .
 72
    65
 73
     2
 40
0.25
 49
0.0
 49
-0.25
  0
ENDTAB
  0
TABLE
  2
LAYER
 70
     1
  0
LAYER
  2
0
 70
     0
 62
     7
  6
CONTINUOUS
  0
ENDTAB
  0
TABLE
  2
STYLE
 70
     1
  0
STYLE
  2
STANDARD
 70
     0
 40
0.000000
 41
1.000000
 50
0.000000
 71
     0
 42
0.200000
  3
txt
  0
ENDTAB
  0
TABLE
  2
VIEW
 70
     0
  0
ENDTAB
  0
ENDSEC
  0
SECTION
  2
BLOCKS
  0
ENDSEC
  0
SECTION
  2
ENTITIES
  0
LINE
  8
0
  6
CONTINUOUS
 62
     7
 10
42.00033187866211
 20
14.00014209747315
 11
31.27811050415039
 21
18.99999809265137
  0
LINE
  8
0
  6
CENTER
 62
     7
 10
-7.499359607696533
 20
71.00000762939453
 11
13.72476291656494
 21
71.00000762939453
  0
LINE
  8
0
  6
CONTINUOUS
 62
     7
 10
-59.49985122680664
 20
13.99996948242188
 11
-41.99936294555664
 21
13.99996948242188
  0
LINE
  8
0
  6
CONTINUOUS
 62
     7
 10
41.99991226196289
 20
13.99996948242188
 11
59.50040054321289
 21
13.99996948242188
  0
LINE
  8
0
  6
CONTINUOUS
 62
     7
 10
2.616852045059204
 20
74.49997711181641
 11
6.697174549102783
 21
74.49997711181641
  0
LINE
  8
0
  6
CONTINUOUS
 62
     7
 10
2.616852045059204
 20
67.49999237060547
 11
6.697174549102783
 21
67.49999237060547
  0
LINE
  8
0
  6
CONTINUOUS
 62
     7
 10
1.96694016456604
 20
70.99997711181641
 11
2.616933822631836
 21
67.49997711181641
  0
LINE
  8
0
  6
CONTINUOUS
 62
     7
 10
1.967359304428101
 20
70.99979400634766
 11
2.617353200912476
 21
74.49979400634766
  0
LINE
  8
0
  6
CONTINUOUS
 62
     7
 10
4.276965618133545
 20
71.00004577636719
 11
4.926973819732666
 21
67.50004577636719
  0
LINE
  8
0
  6
CONTINUOUS
 62
     7
 10
4.27724027633667
 20
70.99980926513672
 11
4.927247524261475
 21
74.49980163574219
  0
LINE
  8
0
  6
CONTINUOUS
 62
     7
 10
6.78715705871582
 20
67.96984100341797
 11
6.697144985198975
 21
67.49983215332031
  0
LINE
  8
0
  6
CONTINUOUS
 62
     7
 10
6.787588596343994
 20
74.02008056640625
 11
6.697583675384522
 21
74.50005340576172
  0
LINE
  8
0
  6
CONTINUOUS
 62
     7
 10
61.50002288818359
 20
65.49980926513672
 11
63.00002670288086
 21
66.99981689453125
  0
LINE
  8
0
  6
CONTINUOUS
 62
     7
 10
8.603304862976074
 20
67.75421142578125
 11
11.3569393157959
 21
68.49977874755859
  0
LINE
  8
0
  6
CONTINUOUS
 62
     7
 10
8.58675479888916
 20
74.24990081787109
 11
11.35664939880371
 21
73.49993133544922
  0
LINE
  8
0
  6
CONTINUOUS
 62
     7
 10
3.938055515289307
 20
74.50001525878906
 11
0.0003460644511505961
 21
76.77345275878906
  0
LINE
  8
0
  6
CONTINUOUS
 62
     7
 10
0.0002233822888229042
 20
65.22612762451172
 11
3.9379723072052
 21
67.49958801269531
  0
LINE
  8
0
  6
CONTINUOUS
 62
     7
 10
-26.03549385070801
 20
55.49999237060547
 11
26.03604316711426
 21
55.49999237060547
  0
LINE
  8
0
  6
CONTINUOUS
 62
     7
 10
26.03629493713379
 20
55.50014495849609
 11
34.00069808959961
 21
47.53573989868164
  0
LINE
  8
0
  6
CONTINUOUS
 62
     7
 10
34.00049209594727
 20
47.5355224609375
 11
34.00049209594727
 21
38.4644775390625
  0
LINE
  8
0
  6
CONTINUOUS
 62
     7
 10
24.50068664550781
 20
28.96392631530762
 11
34.00069808959961
 21
38.46393585205078
  0
LINE
  8
0
  6
CONTINUOUS
 62
     7
 10
24.50024604797363
 20
28.96446037292481
 11
24.50024604797363
 21
22.03552055358887
  0
LINE
  8
0
  6
CONTINUOUS
 62
     7
 10
24.50037574768066
 20
22.03592300415039
 11
27.53585052490234
 21
19.00043678283691
  0
LINE
  8
0
  6
CONTINUOUS
 62
     7
 10
-29.49984931945801
 20
0
 11
-22.57699775695801
 21
0
  0
LINE
  8
0
  6
CONTINUOUS
 62
     7
 10
31.50000190734863
 20
46.50001525878906
 11
31.50000190734863
 21
39.49998474121094
  0
LINE
  8
0
  6
CONTINUOUS
 62
     7
 10
-31.49926948547363
 20
46.50001525878906
 11
-31.49926948547363
 21
39.49998474121094
  0
LINE
  8
0
  6
CONTINUOUS
 62
     7
 10
-24.88998603820801
 20
53.00000762939453
 11
24.89053535461426
 21
53.00000762939453
  0
LINE
  8
0
  6
CONTINUOUS
 62
     7
 10
31.50016975402832
 20
1.999977827072144
 11
29.50016593933106
 21
-2.427658546366729E-005
  0
LINE
  8
0
  6
CONTINUOUS
 62
     7
 10
-31.49999809265137
 20
2.000460624694824
 11
-29.49961090087891
 21
7.282975275302306E-005
  0
LINE
  8
0
  6
CONTINUOUS
 62
     7
 10
22.00049018859863
 20
30.00001335144043
 11
22.00049018859863
 21
21.00001335144043
  0
LINE
  8
0
  6
CONTINUOUS
 62
     7
 10
-21.99975776672363
 20
30.00001335144043
 11
-21.99975776672363
 21
21.00001335144043
  0
LINE
  8
0
  6
CONTINUOUS
 62
     7
 10
22.00055503845215
 20
29.99962997436523
 11
24.88830375671387
 21
32.88737869262695
  0
LINE
  8
0
  6
CONTINUOUS
 62
     7
 10
-21.99959182739258
 20
20.99970626831055
 11
-31.49999809265137
 21
11.49928188323975
  0
LINE
  8
0
  6
CONTINUOUS
 62
     7
 10
58.00049209594727
 20
74.99999237060547
 11
58.00049209594727
 21
24.00001335144043
  0
LINE
  8
0
  6
CONTINUOUS
 62
     7
 10
-40.05492401123047
 20
14.90667629241943
 11
-39.63212203979492
 21
13.99996948242188
  0
LINE
  8
0
  6
CONTINUOUS
 62
     7
 10
58.0005989074707
 20
23.99948883056641
 11
53.00058746337891
 21
18.99948120117188
  0
LINE
  8
0
  6
CONTINUOUS
 62
     7
 10
39.63388824462891
 20
13.99996948242188
 11
40.05637359619141
 21
14.90599250793457
  0
LINE
  8
0
  6
CONTINUOUS
 62
     7
 10
-4.999512195587158
 20
73.88666534423828
 11
-4.999512195587158
 21
68.11321258544922
  0
LINE
  8
0
  6
CONTINUOUS
 62
     7
 10
-4.999622821807861
 20
68.11325073242188
 11
0.0005321085918694735
 21
65.22641754150391
  0
LINE
  8
0
  6
CONTINUOUS
 62
     7
 10
0.0003820486599579454
 20
76.77294158935547
 11
-4.999574661254883
 21
73.88621520996094
  0
LINE
  8
0
  6
CONTINUOUS
 62
     7
 10
-27.5346794128418
 20
18.99925994873047
 11
-24.49914169311523
 21
22.03481101989746
  0
LINE
  8
0
  6
CONTINUOUS
 62
     7
 10
-24.49951362609863
 20
22.03552055358887
 11
-24.49951362609863
 21
28.96446037292481
  0
LINE
  8
0
  6
CONTINUOUS
 62
     7
 10
-33.99910354614258
 20
38.46453094482422
 11
-24.4992561340332
 21
28.96468353271484
  0
LINE
  8
0
  6
CONTINUOUS
 62
     7
 10
-33.99975967407227
 20
38.4644775390625
 11
-33.99975967407227
 21
47.5355224609375
  0
LINE
  8
0
  6
CONTINUOUS
 62
     7
 10
-33.99923706054688
 20
47.5346565246582
 11
-26.03477096557617
 21
55.49912261962891
  0
LINE
  8
0
  6
CONTINUOUS
 62
     7
 10
-31.27635002136231
 20
18.99999809265137
 11
-41.99930191040039
 21
13.99979972839356
  0
LINE
  8
0
  6
CONTINUOUS
 62
     7
 10
-52.99919128417969
 20
19.0001335144043
 11
-57.99900436401367
 21
23.99994277954102
  0
LINE
  8
0
  6
CONTINUOUS
 62
     7
 10
-52.99905776977539
 20
18.99999809265137
 11
-23.99936103820801
 21
18.99999809265137
  0
LINE
  8
0
  6
CONTINUOUS
 62
     7
 10
-57.99975967407227
 20
24.00001335144043
 11
-57.99975967407227
 21
75.00027465820313
  0
LINE
  8
0
  6
CONTINUOUS
 62
     7
 10
-57.99979019165039
 20
14.00020408630371
 11
-60.99975967407227
 21
17.00015830993652
  0
LINE
  8
0
  6
CONTINUOUS
 62
     7
 10
-60.99975967407227
 20
17.00015830993652
 11
-60.99975967407227
 21
77.00083160400391
  0
LINE
  8
0
  6
CENTER
 62
     7
 10
38.00024795532227
 20
62.15841293334961
 11
38.00024795532227
 21
90.99996948242188
  0
LINE
  8
0
  6
DASHED
 62
     7
 10
-45.99934387207031
 20
70.00054168701172
 11
-44.99935913085938
 21
68.26851654052734
  0
LINE
  8
0
  6
DASHED
 62
     7
 10
-44.99985122680664
 20
67.20015716552734
 11
-37.99976348876953
 21
63.15864944458008
  0
LINE
  8
0
  6
DASHED
 62
     7
 10
-30.99967575073242
 20
67.19989776611328
 11
-37.99972534179688
 21
63.15841674804688
  0
LINE
  8
0
  6
DASHED
 62
     7
 10
-29.99892997741699
 20
69.99945831298828
 11
-30.99894714355469
 21
68.26737213134766
  0
LINE
  8
0
  6
DASHED
 62
     7
 10
-44.99936294555664
 20
67.19997406005859
 11
-30.99984931945801
 21
67.19997406005859
  0
LINE
  8
0
  6
DASHED
 62
     7
 10
-45.99985122680664
 20
69.99997711181641
 11
-29.99936103820801
 21
69.99997711181641
  0
LINE
  8
0
  6
DASHED
 62
     7
 10
-30.99975776672363
 20
89.99996948242188
 11
-30.99975776672363
 21
67.19997406005859
  0
LINE
  8
0
  6
DASHED
 62
     7
 10
-44.99927139282227
 20
89.99996948242188
 11
-44.99927139282227
 21
67.19997406005859
  0
LINE
  8
0
  6
CONTINUOUS
 62
     7
 10
-53.00006103515625
 20
79.99996185302734
 11
53.00015640258789
 21
79.99996185302734
  0
LINE
  8
0
  6
CONTINUOUS
 62
     7
 10
28.91129302978516
 20
18.99999809265137
 11
39.63388824462891
 21
13.99996948242188
  0
LINE
  8
0
  6
CONTINUOUS
 62
     7
 10
23.99991035461426
 20
18.99999809265137
 11
53.00110244750977
 21
18.99999809265137
  0
LINE
  8
0
  6
CONTINUOUS
 62
     7
 10
-21.99896240234375
 20
29.99996566772461
 11
-24.88677597045898
 21
32.88777923583984
  0
LINE
  8
0
  6
CONTINUOUS
 62
     7
 10
-30.97719192504883
 20
47.02060699462891
 11
-31.49891090393066
 21
46.49888610839844
  0
LINE
  8
0
  6
CONTINUOUS
 62
     7
 10
30.97907257080078
 20
47.02165985107422
 11
31.5005989074707
 21
46.5001335144043
  0
LINE
  8
0
  6
CONTINUOUS
 62
     7
 10
31.50000190734863
 20
11.49998569488525
 11
31.50000190734863
 21
2.000015497207642
  0
LINE
  8
0
  6
CONTINUOUS
 62
     7
 10
-21.99984931945801
 20
0.9999848008155823
 11
-11.99936008453369
 21
0.9999848008155823
  0
LINE
  8
0
  6
CONTINUOUS
 62
     7
 10
11.99990940093994
 20
0.9999848008155823
 11
22.00039863586426
 21
0.9999848008155823
  0
LINE
  8
0
  6
CONTINUOUS
 62
     7
 10
22.00010299682617
 20
1.000085115432739
 11
22.57742881774902
 21
0.000113128568045795
  0
LINE
  8
0
  6
CONTINUOUS
 62
     7
 10
12.00068092346191
 20
0.9996097683906555
 11
11.42331504821777
 21
-0.0004171491018496454
  0
LINE
  8
0
  6
CONTINUOUS
 62
     7
 10
-21.9996452331543
 20
0.9998465180397034
 11
-22.57698059082031
 21
-0.0001444884255761281
  0
LINE
  8
0
  6
CONTINUOUS
 62
     7
 10
-11.99984359741211
 20
1.000206470489502
 11
-11.42251205444336
 21
0.0002390309236943722
  0
LINE
  8
0
  6
CONTINUOUS
 62
     7
 10
-11.42221164703369
 20
0
 11
11.42276096343994
 21
0
  0
LINE
  8
0
  6
CONTINUOUS
 62
     7
 10
22.57754707336426
 20
0
 11
29.50039863586426
 21
0
  0
LINE
  8
0
  6
CONTINUOUS
 62
     7
 10
-30.97832107543945
 20
38.97932434082031
 11
-31.49881172180176
 21
39.49981307983398
  0
LINE
  8
0
  6
CONTINUOUS
 62
     7
 10
30.97975158691406
 20
38.97882843017578
 11
31.50053405761719
 21
39.49960708618164
  0
LINE
  8
0
  6
CONTINUOUS
 62
     7
 10
22.00050163269043
 20
21.00041770935059
 11
31.50052642822266
 21
11.50035667419434
  0
LINE
  8
0
  6
DASHED
 62
     7
 10
13.00048923492432
 20
53.00000762939453
 11
13.00048923492432
 21
30.99999809265137
  0
LINE
  8
0
  6
DASHED
 62
     7
 10
-12.99975681304932
 20
53.00000762939453
 11
-12.99975681304932
 21
30.99999809265137
  0
LINE
  8
0
  6
DASHED
 62
     7
 10
9.000000953674316
 20
30.99997520446777
 11
9.000000953674316
 21
0
  0
LINE
  8
0
  6
DASHED
 62
     7
 10
-12.99975681304932
 20
30.99997520446777
 11
13.00039768218994
 21
30.99997520446777
  0
LINE
  8
0
  6
CENTER
 62
     7
 10
0
 20
90.99996948242188
 11
0
 21
-1
  0
LINE
  8
0
  6
CONTINUOUS
 62
     7
 10
-60.89950942993164
 20
89.99996948242188
 11
-28.49936103820801
 21
89.99996948242188
  0
LINE
  8
0
  6
CONTINUOUS
 62
     7
 10
63.00000381469727
 20
87.89995574951172
 11
63.00000381469727
 21
66.99997711181641
  0
LINE
  8
0
  6
CONTINUOUS
 62
     7
 10
-26.99936103820801
 20
88.49996948242188
 11
-10.99960422515869
 21
88.49996948242188
  0
LINE
  8
0
  6
CONTINUOUS
 62
     7
 10
61.50000381469727
 20
65.49997711181641
 11
61.50000381469727
 21
15.99899959564209
  0
LINE
  8
0
  6
CONTINUOUS
 62
     7
 10
-61.49927139282227
 20
65.49997711181641
 11
-61.49927139282227
 21
16.00030136108398
  0
LINE
  8
0
  6
CONTINUOUS
 62
     7
 10
-60.89966201782227
 20
89.999755859375
 11
-62.99967956542969
 21
87.89973449707031
  0
LINE
  8
0
  6
CONTINUOUS
 62
     7
 10
60.90031433105469
 20
89.99990844726563
 11
63.00039672851563
 21
87.89981842041016
  0
LINE
  8
0
  6
CONTINUOUS
 62
     7
 10
61.50000381469727
 20
15.99899959564209
 11
59.50046920776367
 21
13.9994707107544
  0
LINE
  8
0
  6
CONTINUOUS
 62
     7
 10
-59.49931335449219
 20
14.00033569335938
 11
-61.49927139282227
 21
16.00030136108398
  0
LINE
  8
0
  6
CONTINUOUS
 62
     7
 10
28.49991035461426
 20
89.99996948242188
 11
60.90005874633789
 21
89.99996948242188
  0
LINE
  8
0
  6
CONTINUOUS
 62
     7
 10
-9.499604225158691
 20
89.99996948242188
 11
9.500153541564941
 21
89.99996948242188
  0
LINE
  8
0
  6
CONTINUOUS
 62
     7
 10
11.00015354156494
 20
88.49996948242188
 11
26.99991035461426
 21
88.49996948242188
  0
LINE
  8
0
  6
DASHED
 62
     7
 10
-45.99975967407227
 20
89.99996948242188
 11
-45.99975967407227
 21
69.99997711181641
  0
LINE
  8
0
  6
DASHED
 62
     7
 10
-29.99926948547363
 20
89.99996948242188
 11
-29.99926948547363
 21
69.99997711181641
  0
LINE
  8
0
  6
CONTINUOUS
 62
     7
 10
190
 20
0
 11
710
 21
0
  0
LINE
  8
0
  6
CONTINUOUS
 62
     7
 10
61.00049209594727
 20
76.99996185302734
 11
61.00049209594727
 21
17.0002384185791
  0
LINE
  8
0
  6
CONTINUOUS
 62
     7
 10
543.0011596679688
 20
53.00000762939453
 11
710
 21
53.00000762939453
  0
LINE
  8
0
  6
CONTINUOUS
 62
     7
 10
190
 20
53.00000762939453
 11
357.0043334960938
 21
53.00000762939453
  0
LINE
  8
0
  6
CONTINUOUS
 62
     7
 10
-39.63212203979492
 20
13.99996948242188
 11
-28.90952301025391
 21
18.99999809265137
  0
LINE
  8
0
  6
CENTER
 62
     7
 10
-37.99951553344727
 20
90.99996948242188
 11
-37.99951553344727
 21
62.15841293334961
  0
LINE
  8
0
  6
CONTINUOUS
 62
     7
 10
11.00029754638672
 20
88.50006866455078
 11
9.500452995300293
 21
89.99990081787109
  0
LINE
  8
0
  6
CONTINUOUS
 62
     7
 10
-61.49950408935547
 20
65.49972534179688
 11
-63
 21
67.00022888183594
  0
LINE
  8
0
  6
CONTINUOUS
 62
     7
 10
-26.99954414367676
 20
88.49988555908203
 11
-28.4993896484375
 21
89.99971771240234
  0
LINE
  8
0
  6
CONTINUOUS
 62
     7
 10
61.00049209594727
 20
17.0002384185791
 11
58.00011825561523
 21
13.99987983703613
  0
LINE
  8
0
  6
CONTINUOUS
 62
     7
 10
27.0003604888916
 20
88.49951171875
 11
28.50039672851563
 21
89.99954223632813
  0
LINE
  8
0
  6
CONTINUOUS
 62
     7
 10
-55.00065231323242
 20
82.99993896484375
 11
55.00040054321289
 21
82.99993896484375
  0
LINE
  8
0
  6
CONTINUOUS
 62
     7
 10
-10.99948024749756
 20
88.49953460693359
 11
-9.499505996704102
 21
89.99950408935547
  0
LINE
  8
0
  6
CONTINUOUS
 62
     7
 10
58.00057983398438
 20
74.99945068359375
 11
53.000244140625
 21
79.99977874755859
  0
LINE
  8
0
  6
CONTINUOUS
 62
     7
 10
61.0003547668457
 20
77.000244140625
 11
55.0004768371582
 21
83.00011444091797
  0
LINE
  8
0
  6
DASHED
 62
     7
 10
422.0013427734375
 20
68.26702880859375
 11
423.0013427734375
 21
69.99908447265625
  0
LINE
  8
0
  6
DASHED
 62
     7
 10
415.0003967285156
 20
63.15739440917969
 11
422.0003967285156
 21
67.19886016845703
  0
LINE
  8
0
  6
DASHED
 62
     7
 10
415.0000915527344
 20
63.15822982788086
 11
408
 21
67.19973754882813
  0
LINE
  8
0
  6
DASHED
 62
     7
 10
408.000244140625
 20
68.26771545410156
 11
407.0001220703125
 21
69.99997711181641
  0
LINE
  8
0
  6
DASHED
 62
     7
 10
407.9996337890625
 20
67.19992828369141
 11
421.9998779296875
 21
67.19992828369141
  0
LINE
  8
0
  6
DASHED
 62
     7
 10
406.9998779296875
 20
69.99997711181641
 11
422.9996337890625
 21
69.99997711181641
  0
LINE
  8
0
  6
DASHED
 62
     7
 10
407.9997253417969
 20
67.19997406005859
 11
407.9997253417969
 21
89.99999237060547
  0
LINE
  8
0
  6
DASHED
 62
     7
 10
421.9999694824219
 20
67.19997406005859
 11
421.9999694824219
 21
89.99999237060547
  0
LINE
  8
0
  6
DASHED
 62
     7
 10
406.9999694824219
 20
69.99997711181641
 11
406.9999694824219
 21
89.99999237060547
  0
LINE
  8
0
  6
DASHED
 62
     7
 10
422.9997253417969
 20
69.99997711181641
 11
422.9997253417969
 21
89.99999237060547
  0
LINE
  8
0
  6
CENTER
 62
     7
 10
415.0002136230469
 20
62.15728759765625
 11
415.0002136230469
 21
90.99999237060547
  0
LINE
  8
0
  6
CENTER
 62
     7
 10
484.9997863769531
 20
62.15728759765625
 11
484.9997863769531
 21
90.99999237060547
  0
LINE
  8
0
  6
CONTINUOUS
 62
     7
 10
521.199951171875
 20
89.99954986572266
 11
523.4998168945313
 21
87.69944000244141
  0
LINE
  8
0
  6
CONTINUOUS
 62
     7
 10
376.5009460449219
 20
87.69879913330078
 11
378.8009338378906
 21
89.99880218505859
  0
LINE
  8
0
  6
CONTINUOUS
 62
     7
 10
376.4997253417969
 20
65.49997711181641
 11
523.4996948242188
 21
65.49997711181641
  0
LINE
  8
0
  6
CONTINUOUS
 62
     7
 10
378.8001708984375
 20
89.99999237060547
 11
521.19970703125
 21
89.99999237060547
  0
LINE
  8
0
  6
CONTINUOUS
 62
     7
 10
376.4996337890625
 20
15.99997425079346
 11
523.499755859375
 21
15.99997425079346
  0
LINE
  8
0
  6
CONTINUOUS
 62
     7
 10
523.4996948242188
 20
15.99997425079346
 11
523.4996948242188
 21
87.69972991943359
  0
LINE
  8
0
  6
CONTINUOUS
 62
     7
 10
376.4997253417969
 20
87.69995880126953
 11
376.4997253417969
 21
15.99997425079346
  0
LINE
  8
0
  6
CENTER
 62
     7
 10
339.8236083984375
 20
71.00003814697266
 11
360.1988525390625
 21
71.00003814697266
  0
LINE
  8
0
  6
CONTINUOUS
 62
     7
 10
344.1494750976563
 20
67.420166015625
 11
343.7523803710938
 21
68.1927490234375
  0
LINE
  8
0
  6
CONTINUOUS
 62
     7
 10
348.7247314453125
 20
67.41996002197266
 11
344.1492919921875
 21
67.41996002197266
  0
LINE
  8
0
  6
CONTINUOUS
 62
     7
 10
350.5653991699219
 20
70.99932098388672
 11
348.7254028320313
 21
67.41932678222656
  0
LINE
  8
0
  6
CONTINUOUS
 62
     7
 10
349.6901550292969
 20
70.99942016601563
 11
347.8501586914063
 21
67.41942596435547
  0
LINE
  8
0
  6
CONTINUOUS
 62
     7
 10
347.8497924804688
 20
74.57992553710938
 11
349.6898803710938
 21
70.99973297119141
  0
LINE
  8
0
  6
CONTINUOUS
 62
     7
 10
343.75341796875
 20
73.80648040771484
 11
344.1506042480469
 21
74.57926177978516
  0
LINE
  8
0
  6
CONTINUOUS
 62
     7
 10
348.7247314453125
 20
74.57998657226563
 11
350.5648193359375
 21
70.99978637695313
  0
LINE
  8
0
  6
CONTINUOUS
 62
     7
 10
358.4998779296875
 20
66.11975860595703
 11
357.9378356933594
 21
65.14627838134766
  0
LINE
  8
0
  6
CONTINUOUS
 62
     7
 10
357.9375
 20
76.85334014892578
 11
358.4996337890625
 21
75.87969970703125
  0
LINE
  8
0
  6
CONTINUOUS
 62
     7
 10
357.9371337890625
 20
68.03322601318359
 11
354.3614501953125
 21
68.03322601318359
  0
LINE
  8
0
  6
CONTINUOUS
 62
     7
 10
357.9371337890625
 20
65.14647674560547
 11
354.3614501953125
 21
65.14647674560547
  0
LINE
  8
0
  6
CONTINUOUS
 62
     7
 10
354.3612976074219
 20
65.14637756347656
 11
353.7995300292969
 21
66.119384765625
  0
LINE
  8
0
  6
CONTINUOUS
 62
     7
 10
353.7997741699219
 20
70.99994659423828
 11
353.7997741699219
 21
66.11995697021484
  0
LINE
  8
0
  6
CONTINUOUS
 62
     7
 10
353.7996826171875
 20
75.87972259521484
 11
354.3617248535156
 21
76.85321044921875
  0
LINE
  8
0
  6
CONTINUOUS
 62
     7
 10
344.1492919921875
 20
74.57997894287109
 11
348.7247314453125
 21
74.57997894287109
  0
LINE
  8
0
  6
CONTINUOUS
 62
     7
 10
353.7996826171875
 20
66.19997406005859
 11
346.2996826171875
 21
66.19997406005859
  0
LINE
  8
0
  6
CONTINUOUS
 62
     7
 10
346.2996826171875
 20
75.79996490478516
 11
353.7996826171875
 21
75.79996490478516
  0
LINE
  8
0
  6
CONTINUOUS
 62
     7
 10
353.7997741699219
 20
75.87998199462891
 11
353.7997741699219
 21
70.99999237060547
  0
LINE
  8
0
  6
CONTINUOUS
 62
     7
 10
354.3614501953125
 20
73.96671295166016
 11
357.9371337890625
 21
73.96671295166016
  0
LINE
  8
0
  6
CONTINUOUS
 62
     7
 10
354.3614501953125
 20
76.85341644287109
 11
357.9371337890625
 21
76.85341644287109
  0
LINE
  8
0
  6
CONTINUOUS
 62
     7
 10
541.499755859375
 20
55.09995269775391
 11
542.999755859375
 21
55.09995269775391
  0
LINE
  8
0
  6
CONTINUOUS
 62
     7
 10
539.49951171875
 20
79.99942779541016
 11
536.4998168945313
 21
82.99909973144531
  0
LINE
  8
0
  6
CONTINUOUS
 62
     7
 10
542.9996948242188
 20
18.99997520446777
 11
542.9996948242188
 21
55.09995269775391
  0
LINE
  8
0
  6
CONTINUOUS
 62
     7
 10
541.4996948242188
 20
18.99997520446777
 11
541.4996948242188
 21
79.99996185302734
  0
LINE
  8
0
  6
CONTINUOUS
 62
     7
 10
539.499755859375
 20
15.99997425079346
 11
539.499755859375
 21
79.99996185302734
  0
LINE
  8
0
  6
CONTINUOUS
 62
     7
 10
523.499755859375
 20
15.99997425079346
 11
539.499755859375
 21
15.99997425079346
  0
LINE
  8
0
  6
CONTINUOUS
 62
     7
 10
539.499755859375
 20
18.99997520446777
 11
542.999755859375
 21
18.99997520446777
  0
LINE
  8
0
  6
CONTINUOUS
 62
     7
 10
539.499755859375
 20
79.99991607666016
 11
541.499755859375
 21
79.99991607666016
  0
LINE
  8
0
  6
CONTINUOUS
 62
     7
 10
523.499755859375
 20
82.99991607666016
 11
536.499755859375
 21
82.99991607666016
  0
LINE
  8
0
  6
CONTINUOUS
 62
     7
 10
356.9996337890625
 20
55.09995269775391
 11
358.4996337890625
 21
55.09995269775391
  0
LINE
  8
0
  6
CONTINUOUS
 62
     7
 10
363.5004272460938
 20
82.99927520751953
 11
360.5004577636719
 21
79.99932098388672
  0
LINE
  8
0
  6
CONTINUOUS
 62
     7
 10
356.9997253417969
 20
55.09995269775391
 11
356.9997253417969
 21
18.99997520446777
  0
LINE
  8
0
  6
CONTINUOUS
 62
     7
 10
358.4997253417969
 20
79.99996185302734
 11
358.4997253417969
 21
18.99997520446777
  0
LINE
  8
0
  6
CONTINUOUS
 62
     7
 10
360.4999694824219
 20
79.99996185302734
 11
360.4999694824219
 21
15.99997425079346
  0
LINE
  8
0
  6
CONTINUOUS
 62
     7
 10
356.9996337890625
 20
18.99997520446777
 11
360.4998779296875
 21
18.99997520446777
  0
LINE
  8
0
  6
CONTINUOUS
 62
     7
 10
358.4996337890625
 20
79.99991607666016
 11
360.4998779296875
 21
79.99991607666016
  0
LINE
  8
0
  6
CONTINUOUS
 62
     7
 10
363.4998779296875
 20
82.99991607666016
 11
376.4996337890625
 21
82.99991607666016
  0
LINE
  8
0
  6
CONTINUOUS
 62
     7
 10
-58.00057983398438
 20
74.99945068359375
 11
-53.000244140625
 21
79.99977874755859
  0
LINE
  8
0
  6
CONTINUOUS
 62
     7
 10
-60.99975967407227
 20
77.00083923339844
 11
-55.0004768371582
 21
83.00011444091797
  0
LINE
  8
0
  6
CONTINUOUS
 62
     7
 10
376.5002746582031
 20
15.99997425079346
 11
360.500244140625
 21
15.99997425079346
  0
LINE
  8
0
  6
CONTINUOUS
 62
     7
 10
190
 20
0
 11
190
 21
53.00000762939453
  0
LINE
  8
0
  6
CONTINUOUS
 62
     7
 10
710
 20
0
 11
710
 21
53.00000762939453
  0
LINE
  8
0
  6
DASHED
 62
     7
 10
238.00048828125
 20
53.00000762939453
 11
238.00048828125
 21
30.99999809265137
  0
LINE
  8
0
  6
DASHED
 62
     7
 10
212.000244140625
 20
53.00000762939453
 11
212.000244140625
 21
30.99999809265137
  0
LINE
  8
0
  6
DASHED
 62
     7
 10
234
 20
30.99997520446777
 11
234
 21
0
  0
LINE
  8
0
  6
DASHED
 62
     7
 10
212.000244140625
 20
30.99997520446777
 11
238.0003967285156
 21
30.99997520446777
  0
LINE
  8
0
  6
CENTER
 62
     7
 10
225
 20
54.00000762939453
 11
225
 21
-1
  0
LINE
  8
0
  6
DASHED
 62
     7
 10
216
 20
30.99997520446777
 11
216
 21
0
  0
LINE
  8
0
  6
CENTER
 62
     7
 10
375
 20
16.99997329711914
 11
375
 21
-1
  0
LINE
  8
0
  6
CENTER
 62
     7
 10
525
 20
16.99997329711914
 11
525
 21
-1
  0
LINE
  8
0
  6
CENTER
 62
     7
 10
675
 20
54.00000762939453
 11
675
 21
-1
  0
LINE
  8
0
  6
CONTINUOUS
 62
     7
 10
-63
 20
87.8994140625
 11
-63
 21
67.00022125244141
  0
LINE
  8
0
  6
CONTINUOUS
 62
     7
 10
-31.49999809265137
 20
11.49928092956543
 11
-31.49999809265137
 21
2.000460863113403
  0
LINE
  8
0
  6
DASHED
 62
     7
 10
-8.999999046325684
 20
30.99997520446777
 11
-8.999999046325684
 21
0
  0
LINE
  8
0
  6
CONTINUOUS
 62
     7
 10
190
 20
47.02177429199219
 11
356.9997253417969
 21
47.02177429199219
  0
LINE
  8
0
  6
CONTINUOUS
 62
     7
 10
190
 20
38.97920227050781
 11
356.9997253417969
 21
38.97920227050781
  0
LINE
  8
0
  6
CONTINUOUS
 62
     7
 10
190
 20
29.99962997436523
 11
356.9997253417969
 21
29.99962997436523
  0
LINE
  8
0
  6
CONTINUOUS
 62
     7
 10
190
 20
21.00041770935059
 11
356.9997253417969
 21
21.00041770935059
  0
LINE
  8
0
  6
CONTINUOUS
 62
     7
 10
190
 20
11.50035572052002
 11
710
 21
11.50035572052002
  0
LINE
  8
0
  6
CONTINUOUS
 62
     7
 10
542.9996948242188
 20
47.02177429199219
 11
710
 21
47.02177429199219
  0
LINE
  8
0
  6
CONTINUOUS
 62
     7
 10
542.9996948242188
 20
38.97920227050781
 11
710
 21
38.97920227050781
  0
LINE
  8
0
  6
CONTINUOUS
 62
     7
 10
542.9996948242188
 20
29.99962997436523
 11
710
 21
29.99962997436523
  0
LINE
  8
0
  6
CONTINUOUS
 62
     7
 10
542.9996948242188
 20
21.00041770935059
 11
710
 21
21.00041770935059
  0
LINE
  8
0
  6
CONTINUOUS
 62
     7
 10
343.0532836914063
 20
298.1840209960938
 11
349.6020812988281
 21
295.4714050292969
  0
LINE
  8
0
  6
CONTINUOUS
 62
     7
 10
356.9999694824219
 20
298
 11
356.9999694824219
 21
268.99951171875
  0
LINE
  8
0
  6
CONTINUOUS
 62
     7
 10
353.7999572753906
 20
298
 11
358.4999694824219
 21
298
  0
LINE
  8
0
  6
CONTINUOUS
 62
     7
 10
348.9728393554688
 20
298.2000122070313
 11
353.7999572753906
 21
298.2000122070313
  0
LINE
  8
0
  6
CONTINUOUS
 62
     7
 10
346.2999877929688
 20
307.7999877929688
 11
353.7999572753906
 21
307.7999877929688
  0
LINE
  8
0
  6
CONTINUOUS
 62
     7
 10
353.7999572753906
 20
308
 11
358.4999694824219
 21
308
  0
LINE
  8
0
  6
CONTINUOUS
 62
     7
 10
343.2999877929688
 20
304.7999877929688
 11
343.2999877929688
 21
301.1452941894531
  0
LINE
  8
0
  6
CONTINUOUS
 62
     7
 10
353.7999572753906
 20
308
 11
353.7999572753906
 21
298
  0
LINE
  8
0
  6
CONTINUOUS
 62
     7
 10
343.2150268554688
 20
296.6298828125
 11
348.3887329101563
 21
294.4868469238281
  0
LINE
  8
0
  6
CONTINUOUS
 62
     7
 10
350.7057495117188
 20
296.83642578125
 11
350.3828735351563
 21
297.6158752441406
  0
LINE
  8
0
  6
CONTINUOUS
 62
     7
 10
343.3787231445313
 20
300.5171508789063
 11
350.3828735351563
 21
297.6159362792969
  0
LINE
  8
0
  6
CONTINUOUS
 62
     7
 10
348.1945495605469
 20
296.0544128417969
 11
349.0671081542969
 21
298.1609497070313
  0
LINE
  8
0
  6
CONTINUOUS
 62
     7
 10
344.4607849121094
 20
297.6009826660156
 11
345.3333435058594
 21
299.70751953125
  0
LINE
  8
0
  6
CONTINUOUS
 62
     7
 10
344.0176086425781
 20
300.25244140625
 11
343.2381591796875
 21
299.9295959472656
  0
LINE
  8
0
  6
CONTINUOUS
 62
     7
 10
350.2910766601563
 20
295.8354187011719
 11
350.7057495117188
 21
296.8364868164063
  0
LINE
  8
0
  6
CONTINUOUS
 62
     7
 10
342.8234558105469
 20
298.9285888671875
 11
343.2381286621094
 21
299.9296569824219
  0
LINE
  8
0
  6
CONTINUOUS
 62
     7
 10
346.3176574707031
 20
290.5319519042969
 11
348.182373046875
 21
292.6820068359375
  0
LINE
  8
0
  6
CONTINUOUS
 62
     7
 10
341.8829956054688
 20
292.3688354492188
 11
342.0847473144531
 21
295.2077331542969
  0
LINE
  8
0
  6
CONTINUOUS
 62
     7
 10
342.0847778320313
 20
295.2077331542969
 11
348.1823425292969
 21
292.6820373535156
  0
LINE
  8
0
  6
CONTINUOUS
 62
     7
 10
341.8829956054688
 20
292.3688354492188
 11
346.317626953125
 21
290.5319519042969
  0
LINE
  8
0
  6
CENTER
 62
     7
 10
343.4628295898438
 20
289.9113464355469
 11
349.041748046875
 21
303.3800659179688
  0
LINE
  8
0
  6
CENTER
 62
     7
 10
189.0001525878906
 20
303
 11
711.0001220703125
 21
303
  0
LINE
  8
0
  6
CONTINUOUS
 62
     7
 10
360.5002136230469
 20
363.999755859375
 11
360.5002136230469
 21
241.99951171875
  0
LINE
  8
0
  6
CONTINUOUS
 62
     7
 10
360.5002136230469
 20
241.99951171875
 11
376.4999694824219
 21
241.99951171875
  0
LINE
  8
0
  6
CONTINUOUS
 62
     7
 10
360.5002136230469
 20
363.999755859375
 11
376.4999694824219
 21
363.999755859375
  0
LINE
  8
0
  6
CONTINUOUS
 62
     7
 10
356.9999694824219
 20
336.999755859375
 11
356.9999694824219
 21
308
  0
LINE
  8
0
  6
CONTINUOUS
 62
     7
 10
358.4999694824219
 20
360.999755859375
 11
358.4999694824219
 21
244.99951171875
  0
LINE
  8
0
  6
CONTINUOUS
 62
     7
 10
358.4999694824219
 20
244.99951171875
 11
360.5002136230469
 21
244.99951171875
  0
LINE
  8
0
  6
CONTINUOUS
 62
     7
 10
358.4999694824219
 20
360.999755859375
 11
360.5002136230469
 21
360.999755859375
  0
LINE
  8
0
  6
CONTINUOUS
 62
     7
 10
356.9999694824219
 20
336.999755859375
 11
358.4999694824219
 21
336.999755859375
  0
LINE
  8
0
  6
CONTINUOUS
 62
     7
 10
356.9999694824219
 20
268.99951171875
 11
358.4999694824219
 21
268.99951171875
  0
LINE
  8
0
  6
CONTINUOUS
 62
     7
 10
190.0001525878906
 20
271.5
 11
356.9999694824219
 21
271.5
  0
LINE
  8
0
  6
CENTER
 62
     7
 10
675.0001220703125
 20
317
 11
675.0001220703125
 21
289
  0
LINE
  8
0
  6
CONTINUOUS
 62
     7
 10
539.499755859375
 20
363.999755859375
 11
539.499755859375
 21
241.99951171875
  0
LINE
  8
0
  6
CONTINUOUS
 62
     7
 10
539.499755859375
 20
241.99951171875
 11
523.5
 21
241.99951171875
  0
LINE
  8
0
  6
CONTINUOUS
 62
     7
 10
539.499755859375
 20
363.999755859375
 11
523.5
 21
363.999755859375
  0
LINE
  8
0
  6
CONTINUOUS
 62
     7
 10
543
 20
336.999755859375
 11
543
 21
268.99951171875
  0
LINE
  8
0
  6
CONTINUOUS
 62
     7
 10
541.5
 20
360.999755859375
 11
541.5
 21
244.99951171875
  0
LINE
  8
0
  6
CONTINUOUS
 62
     7
 10
541.5
 20
244.99951171875
 11
539.499755859375
 21
244.99951171875
  0
LINE
  8
0
  6
CONTINUOUS
 62
     7
 10
541.5
 20
360.999755859375
 11
539.499755859375
 21
360.999755859375
  0
LINE
  8
0
  6
CONTINUOUS
 62
     7
 10
543
 20
336.999755859375
 11
541.5
 21
336.999755859375
  0
LINE
  8
0
  6
CONTINUOUS
 62
     7
 10
543
 20
268.99951171875
 11
541.5
 21
268.99951171875
  0
LINE
  8
0
  6
CONTINUOUS
 62
     7
 10
190.0001525878906
 20
278.1090087890625
 11
356.9999694824219
 21
278.1090087890625
  0
LINE
  8
0
  6
CENTER
 62
     7
 10
525.0001220703125
 20
317
 11
525.0001220703125
 21
289
  0
LINE
  8
0
  6
CONTINUOUS
 62
     7
 10
190.0001525878906
 20
327.8902587890625
 11
356.9999694824219
 21
327.8902587890625
  0
LINE
  8
0
  6
CONTINUOUS
 62
     7
 10
190.0001525878906
 20
334.499267578125
 11
356.9999694824219
 21
334.499267578125
  0
LINE
  8
0
  6
CONTINUOUS
 62
     7
 10
190.0001525878906
 20
334.499267578125
 11
190.0001525878906
 21
271.5
  0
LINE
  8
0
  6
CONTINUOUS
 62
     7
 10
710.0001220703125
 20
334.499267578125
 11
710.0001220703125
 21
271.5
  0
LINE
  8
0
  6
CONTINUOUS
 62
     7
 10
543
 20
278.1090087890625
 11
710.0001220703125
 21
278.1090087890625
  0
LINE
  8
0
  6
CONTINUOUS
 62
     7
 10
543
 20
271.5
 11
710.0001220703125
 21
271.5
  0
LINE
  8
0
  6
CENTER
 62
     7
 10
375.0001525878906
 20
317
 11
375.0001525878906
 21
289
  0
LINE
  8
0
  6
CONTINUOUS
 62
     7
 10
543
 20
327.8902587890625
 11
710.0001220703125
 21
327.8902587890625
  0
LINE
  8
0
  6
CONTINUOUS
 62
     7
 10
543
 20
334.499267578125
 11
710.0001220703125
 21
334.499267578125
  0
LINE
  8
0
  6
CENTER
 62
     7
 10
225.0001525878906
 20
317
 11
225.0001525878906
 21
289
  0
LINE
  8
0
  6
CONTINUOUS
 62
     7
 10
376.4997253417969
 20
239.9999847412109
 11
523.4996948242188
 21
239.9999847412109
  0
LINE
  8
0
  6
CONTINUOUS
 62
     7
 10
376.4997253417969
 20
274.5000915527344
 11
523.4996948242188
 21
274.5000915527344
  0
LINE
  8
0
  6
CONTINUOUS
 62
     7
 10
376.4997253417969
 20
293.4995422363281
 11
523.4996948242188
 21
293.4995422363281
  0
LINE
  8
0
  6
CONTINUOUS
 62
     7
 10
376.4997253417969
 20
312.49951171875
 11
523.4996948242188
 21
312.49951171875
  0
LINE
  8
0
  6
CONTINUOUS
 62
     7
 10
376.4997253417969
 20
331.4993591308594
 11
523.4996948242188
 21
331.4993591308594
  0
LINE
  8
0
  6
CONTINUOUS
 62
     7
 10
376.4997253417969
 20
366
 11
523.4996948242188
 21
366
  0
LINE
  8
0
  6
CONTINUOUS
 62
     7
 10
523.4996948242188
 20
366
 11
523.4996948242188
 21
239.9999847412109
  0
LINE
  8
0
  6
CONTINUOUS
 62
     7
 10
376.4997253417969
 20
366
 11
376.4997253417969
 21
239.9999847412109
  0
LINE
  8
0
  6
CENTER
 62
     7
 10
415.0002136230469
 20
273.999755859375
 11
415.0002136230469
 21
255.9997406005859
  0
LINE
  8
0
  6
CENTER
 62
     7
 10
406.0002136230469
 20
264.999755859375
 11
424.0002136230469
 21
264.999755859375
  0
LINE
  8
0
  6
CENTER
 62
     7
 10
493.9992065429688
 20
264.999755859375
 11
475.9992065429688
 21
264.999755859375
  0
LINE
  8
0
  6
CENTER
 62
     7
 10
484.9992065429688
 20
273.999755859375
 11
484.9992065429688
 21
255.9997406005859
  0
LINE
  8
0
  6
CENTER
 62
     7
 10
484.9992065429688
 20
332.000244140625
 11
484.9992065429688
 21
350.000244140625
  0
LINE
  8
0
  6
CENTER
 62
     7
 10
406.0002136230469
 20
341.000244140625
 11
424.0002136230469
 21
341.000244140625
  0
LINE
  8
0
  6
CENTER
 62
     7
 10
493.9992065429688
 20
341.000244140625
 11
475.9992065429688
 21
341.000244140625
  0
LINE
  8
0
  6
CENTER
 62
     7
 10
415.0002136230469
 20
332.000244140625
 11
415.0002136230469
 21
350.000244140625
  0
ARC
  8
0
  6
CONTINUOUS
 62
     7
 10
8.447022438049316
 20
68.70999908447266
 40
0.9683419466018661
 50
215.331457076874
 51
278.2972225067941
  0
ARC
  8
0
  6
CONTINUOUS
 62
     7
 10
-31.07666206359863
 20
32.78997039794922
 40
6.189997196197511
 50
0.9050463822469956
 51
89.0949546281273
  0
ARC
  8
0
  6
CONTINUOUS
 62
     7
 10
31.07739448547363
 20
53.21099090576172
 40
6.18999719619751
 50
181.9533061502623
 51
269.0857561845481
  0
ARC
  8
0
  6
CONTINUOUS
 62
     7
 10
35.21185302734375
 20
18.00993728637695
 40
2.499999761581424
 50
199.9310197438961
 51
290.0690262205544
  0
ARC
  8
0
  6
CONTINUOUS
 62
     7
 10
-35.21297454833984
 20
18.00941467285156
 40
2.499999761581422
 50
249.9310097516243
 51
340.0690059829988
  0
ARC
  8
0
  6
CONTINUOUS
 62
     7
 10
7.456787586212158
 20
66.92000579833984
 40
1.246147990226742
 50
80.76452806729954
 51
142.1250351177267
  0
ARC
  8
0
  6
CONTINUOUS
 62
     7
 10
8.447022438049316
 20
73.28997039794922
 40
0.9701610207557695
 50
81.70288677623265
 51
144.6685429231258
  0
ARC
  8
0
  6
CONTINUOUS
 62
     7
 10
0
 20
71.00000762939453
 40
4.799998760223388
 50
46.95109601507198
 51
313.1834072577873
  0
ARC
  8
0
  6
CONTINUOUS
 62
     7
 10
-31.07666206359863
 20
53.21099090576172
 40
6.189997196197509
 50
270.9142251461173
 51
358.0467214976234
  0
ARC
  8
0
  6
CONTINUOUS
 62
     7
 10
31.07739448547363
 20
32.78997039794922
 40
6.189997196197508
 50
90.905009399694
 51
179.094936642038
  0
ARC
  8
0
  6
CONTINUOUS
 62
     7
 10
7.456787586212158
 20
75.07996368408203
 40
1.254198789596555
 50
217.8749648822733
 51
279.2353626496737
  0
ARC
  8
0
  6
CONTINUOUS
 62
     7
 10
350.1816101074219
 20
77.28426361083984
 40
8.435741424560527
 50
336.8417996567757
 51
350.4174290095796
  0
ARC
  8
0
  6
CONTINUOUS
 62
     7
 10
362.1178894042969
 20
64.71572113037109
 40
8.435741424560538
 50
156.8417978355428
 51
170.4174271883469
  0
ARC
  8
0
  6
CONTINUOUS
 62
     7
 10
362.1178894042969
 20
77.28426361083984
 40
8.435741424560524
 50
189.5825728116531
 51
203.1582021644572
  0
ARC
  8
0
  6
CONTINUOUS
 62
     7
 10
361.9106140136719
 20
70.99999237060547
 40
8.111172676086419
 50
158.545684146651
 51
201.4542985505051
  0
ARC
  8
0
  6
CONTINUOUS
 62
     7
 10
346.2997741699219
 20
69.19997406005859
 40
2.99999999999998
 50
195.6428630584223
 51
270.0000726276024
  0
ARC
  8
0
  6
CONTINUOUS
 62
     7
 10
346.2997741699219
 20
72.79996490478516
 40
3.000000000000006
 50
89.99998201391097
 51
165.8646416536697
  0
ARC
  8
0
  6
CONTINUOUS
 62
     7
 10
350.1816101074219
 20
64.71572113037109
 40
8.435741424560545
 50
9.582570990420338
 51
23.15820034322432
  0
ARC
  8
0
  6
CONTINUOUS
 62
     7
 10
350.3881530761719
 20
70.99999237060547
 40
8.111172676086431
 50
338.5457030433567
 51
21.4543140321162
  0
ARC
  8
0
  6
CONTINUOUS
 62
     7
 10
346.2999877929688
 20
301.2000122070313
 40
3
 50
180.0000906136925
 51
193.1569474081041
  0
ARC
  8
0
  6
CONTINUOUS
 62
     7
 10
352.6588745117188
 20
305.5
 40
5.841100692749034
 50
334.6592024622142
 51
359.9999826971572
  0
ARC
  8
0
  6
CONTINUOUS
 62
     7
 10
352.6588745117188
 20
300.5
 40
5.841100692749034
 50
334.6592024622142
 51
359.9999826971572
  0
ARC
  8
0
  6
CONTINUOUS
 62
     7
 10
352.6588745117188
 20
300.5
 40
5.841100692749023
 50
0
 51
25.34079753778579
  0
ARC
  8
0
  6
CONTINUOUS
 62
     7
 10
352.6588745117188
 20
305.5
 40
5.841100692749023
 50
0
 51
25.34079753778579
  0
ARC
  8
0
  6
CONTINUOUS
 62
     7
 10
359.6412048339844
 20
300.5
 40
5.841244697570822
 50
154.6595797164804
 51
205.3404029806753
  0
ARC
  8
0
  6
CONTINUOUS
 62
     7
 10
359.6412048339844
 20
305.5
 40
5.841244697570769
 50
154.6598529240474
 51
205.3400751315952
  0
ARC
  8
0
  6
CONTINUOUS
 62
     7
 10
346.2999877929688
 20
304.7999877929688
 40
2.999999999999977
 50
89.99998201391097
 51
179.9999640278208
  0
ARC
  8
0
  6
CONTINUOUS
 62
     7
 10
349.2262573242188
 20
294.189453125
 40
0.7999999523162747
 50
132.5669776762372
 51
183.4201402735693
  0
ARC
  8
0
  6
CONTINUOUS
 62
     7
 10
342.4125061035156
 20
297.0118103027344
 40
0.7999999523163035
 50
311.579832747295
 51
2.433049772696593
  0
ARC
  8
0
  6
CONTINUOUS
 62
     7
 10
352.7437744140625
 20
290.3596801757813
 40
6.000000000000011
 50
114.1278165022775
 51
132.566321978077
  0
ARC
  8
0
  6
CONTINUOUS
 62
     7
 10
337.2172241210938
 20
296.7909851074219
 40
6.000000000000008
 50
2.433650829345248
 51
20.87173987704925
  0
ARC
  8
0
  6
CONTINUOUS
 62
     7
 10
345.1335754394531
 20
293.9449157714844
 40
3.299999237060556
 50
337.5000181569004
 51
3.419602296414665
  0
ARC
  8
0
  6
CONTINUOUS
 62
     7
 10
345.1335754394531
 20
293.9449157714844
 40
3.299999237060546
 50
131.5803705110077
 51
157.4999548639656
  0
CIRCLE
  8
0
  6
CONTINUOUS
 62
     7
 10
225.0001525878906
 20
303
 40
9
  0
CIRCLE
  8
0
  6
CONTINUOUS
 62
     7
 10
225.0001525878906
 20
303
 40
12.999755859375
  0
CIRCLE
  8
0
  6
CONTINUOUS
 62
     7
 10
415.0002136230469
 20
264.999755859375
 40
8.000245094299316
  0
CIRCLE
  8
0
  6
CONTINUOUS
 62
     7
 10
415.0002136230469
 20
264.999755859375
 40
7.000488758087158
  0
POLYLINE
  8
0
  6
CONTINUOUS
 62
     7
 66
     1
 10
0
 20
0
 70
     1
  0
VERTEX
  8
0
  6
CONTINUOUS
 62
     7
 10
11.35693454742432
 20
73.50001525878906
 42
0.2551694857266477
  0
VERTEX
  8
0
  6
CONTINUOUS
 62
     7
 10
10.82714037577087
 20
73.07511804905775
 42
0.06318807192526323
  0
VERTEX
  8
0
  6
CONTINUOUS
 62
     7
 10
10.57306236901205
 20
72.41222839763138
 42
0.03518407442438522
  0
VERTEX
  8
0
  6
CONTINUOUS
 62
     7
 10
10.44634236410654
 20
71.71218036656067
 42
0.02798328909427209
  0
VERTEX
  8
0
  6
CONTINUOUS
 62
     7
 10
10.40698337554932
 20
71.00000762939453
 42
0.0278973890078728
  0
VERTEX
  8
0
  6
CONTINUOUS
 62
     7
 10
10.44611367427895
 20
70.28986325302789
 42
0.0351578532970297
  0
VERTEX
  8
0
  6
CONTINUOUS
 62
     7
 10
10.57259781932827
 20
69.58957442914523
 42
0.0631523891787184
  0
VERTEX
  8
0
  6
CONTINUOUS
 62
     7
 10
10.8266126359911
 20
68.92583106545217
 42
0.255294770966477
  0
VERTEX
  8
0
  6
CONTINUOUS
 62
     7
 10
11.35693454742432
 20
68.5
 42
0.2551694857262323
  0
VERTEX
  8
0
  6
CONTINUOUS
 62
     7
 10
11.88672871907776
 20
68.92489720973131
 42
0.06318807192530113
  0
VERTEX
  8
0
  6
CONTINUOUS
 62
     7
 10
12.14080672583659
 20
69.58778686115768
 42
0.03518407442433909
  0
VERTEX
  8
0
  6
CONTINUOUS
 62
     7
 10
12.2675267307421
 20
70.2878348922284
 42
0.02798328909430142
  0
VERTEX
  8
0
  6
CONTINUOUS
 62
     7
 10
12.30688571929932
 20
71.00000762939453
 42
0.0278973890078507
  0
VERTEX
  8
0
  6
CONTINUOUS
 62
     7
 10
12.26775542056969
 20
71.71015200576119
 42
0.03515785329684312
  0
VERTEX
  8
0
  6
CONTINUOUS
 62
     7
 10
12.14127127552036
 20
72.41044082964383
 42
0.06315238917872039
  0
VERTEX
  8
0
  6
CONTINUOUS
 62
     7
 10
11.88725645885753
 20
73.07418419333689
 42
0.2552947709644219
  0
SEQEND
  8
0
  0
POLYLINE
  8
0
  6
CONTINUOUS
 62
     7
 66
     1
 10
0
 20
0
  0
VERTEX
  8
0
  6
CONTINUOUS
 62
     7
 10
7.656738758087158
 20
73.84995269775391
 42
0.1885623597148741
  0
VERTEX
  8
0
  6
CONTINUOUS
 62
     7
 10
7.297005159170254
 20
73.69026243519623
 42
0.07574380419170407
  0
VERTEX
  8
0
  6
CONTINUOUS
 62
     7
 10
7.052762688366364
 20
73.37242912632574
 42
0.03933652698815857
  0
VERTEX
  8
0
  6
CONTINUOUS
 62
     7
 10
6.882892727579318
 20
73.00709698271886
 42
0.02577193619314143
  0
VERTEX
  8
0
  6
CONTINUOUS
 62
     7
 10
6.760730886461338
 20
72.6229463486068
 42
0.01950585811972897
  0
VERTEX
  8
0
  6
CONTINUOUS
 62
     7
 10
6.673233898637331
 20
72.2287337367257
 42
0.01621522046070948
  0
VERTEX
  8
0
  6
CONTINUOUS
 62
     7
 10
6.613868620157794
 20
71.82914136069782
 42
0.01446714406893545
  0
VERTEX
  8
0
  6
CONTINUOUS
 62
     7
 10
6.578996945432932
 20
71.426614869307
 42
0.0136919007222733
  0
VERTEX
  8
0
  6
CONTINUOUS
 62
     7
 10
6.566745962589893
 20
71.02246865202162
 42
0.01360509371222425
  0
VERTEX
  8
0
  6
CONTINUOUS
 62
     7
 10
6.57646076107313
 20
70.61962124582847
 42
0.01431559325254058
  0
VERTEX
  8
0
  6
CONTINUOUS
 62
     7
 10
6.608609675463192
 20
70.21736760302652
 42
0.01598229985859039
  0
VERTEX
  8
0
  6
CONTINUOUS
 62
     7
 10
6.665120668995849
 20
69.81654739101597
 42
0.01902737419271861
  0
VERTEX
  8
0
  6
CONTINUOUS
 62
     7
 10
6.749183385387098
 20
69.42139206539007
 42
0.02488072443205895
  0
VERTEX
  8
0
  6
CONTINUOUS
 62
     7
 10
6.867201508712268
 20
69.0349945430964
 42
0.03729781904513694
  0
VERTEX
  8
0
  6
CONTINUOUS
 62
     7
 10
7.031280979189022
 20
68.66581082648062
 42
0.0699863384539399
  0
VERTEX
  8
0
  6
CONTINUOUS
 62
     7
 10
7.266874104425019
 20
68.33848334666322
 42
0.1738240677661204
  0
VERTEX
  8
0
  6
CONTINUOUS
 62
     7
 10
7.61664983242317
 20
68.15189746356785
 42
0
  0
SEQEND
  8
0
  0
POLYLINE
  8
0
  6
CONTINUOUS
 62
     7
 66
     1
 10
0
 20
0
  0
VERTEX
  8
0
  6
CONTINUOUS
 62
     7
 10
343.1182629507193
 20
73.26089356766111
 42
-0.06324263764569664
  0
VERTEX
  8
0
  6
CONTINUOUS
 62
     7
 10
343.7107299556869
 20
73.77988024865182
 42
-0.07423025477516124
  0
VERTEX
  8
0
  6
CONTINUOUS
 62
     7
 10
344.4220171729138
 20
74.11862557623495
 42
-0.06376400992408561
  0
VERTEX
  8
0
  6
CONTINUOUS
 62
     7
 10
345.1996765136719
 20
74.25002288818359
 42
0
  0
SEQEND
  8
0
  0
POLYLINE
  8
0
  6
CONTINUOUS
 62
     7
 66
     1
 10
0
 20
0
  0
VERTEX
  8
0
  6
CONTINUOUS
 62
     7
 10
342.9756095956757
 20
68.81893294241657
 42
0.0628321426234446
  0
VERTEX
  8
0
  6
CONTINUOUS
 62
     7
 10
343.5399100164253
 20
68.29276294112371
 42
0.0664969172100839
  0
VERTEX
  8
0
  6
CONTINUOUS
 62
     7
 10
344.2199114393879
 20
67.9282608035095
 42
0.06915524956306038
  0
VERTEX
  8
0
  6
CONTINUOUS
 62
     7
 10
344.972266327091
 20
67.75940431100256
 42
0.06975256023975821
  0
VERTEX
  8
0
  6
CONTINUOUS
 62
     7
 10
345.7410209625895
 20
67.80340351141264
 42
0.06816321568449452
  0
VERTEX
  8
0
  6
CONTINUOUS
 62
     7
 10
346.4688641994341
 20
68.05522532453692
 42
0.06499580054222372
  0
VERTEX
  8
0
  6
CONTINUOUS
 62
     7
 10
347.1054298773628
 20
68.49005637938443
 42
0.06129102183562919
  0
VERTEX
  8
0
  6
CONTINUOUS
 62
     7
 10
347.6134873585114
 20
69.07015705095496
 42
0.05807990334145072
  0
VERTEX
  8
0
  6
CONTINUOUS
 62
     7
 10
347.9704839437674
 20
69.75415099642005
 42
0.05590578555560571
  0
VERTEX
  8
0
  6
CONTINUOUS
 62
     7
 10
348.1641410544775
 20
70.50129507824281
 42
0.05496352664379298
  0
VERTEX
  8
0
  6
CONTINUOUS
 62
     7
 10
348.1891534950941
 20
71.2720178555648
 42
0.05547227297746903
  0
VERTEX
  8
0
  6
CONTINUOUS
 62
     7
 10
348.0450766124386
 20
72.02990744783523
 42
0.0572802215556054
  0
VERTEX
  8
0
  6
CONTINUOUS
 62
     7
 10
347.7356715815993
 20
72.73635091018116
 42
0.06026958220677293
  0
VERTEX
  8
0
  6
CONTINUOUS
 62
     7
 10
347.2704353161421
 20
73.35166170629762
 42
0.06395497246062618
  0
VERTEX
  8
0
  6
CONTINUOUS
 62
     7
 10
346.6682274138772
 20
73.83403781435372
 42
0.06744799341815799
  0
VERTEX
  8
0
  6
CONTINUOUS
 62
     7
 10
345.9615659008965
 20
74.14348885253061
 42
0.06944386109593798
  0
VERTEX
  8
0
  6
CONTINUOUS
 62
     7
 10
345.1996765136719
 20
74.25002288818359
 42
0
  0
SEQEND
  8
0
  0
POLYLINE
  8
0
  6
CONTINUOUS
 62
     7
 66
     1
 10
0
 20
0
  0
VERTEX
  8
0
  6
CONTINUOUS
 62
     7
 10
343.0998229980469
 20
68.75997161865234
 42
0.06375298963486861
  0
VERTEX
  8
0
  6
CONTINUOUS
 62
     7
 10
343.6952490388281
 20
68.23055537263537
 42
0.07502784613865109
  0
VERTEX
  8
0
  6
CONTINUOUS
 62
     7
 10
344.4131121404016
 20
67.88417109321517
 42
0.06458397802635217
  0
VERTEX
  8
0
  6
CONTINUOUS
 62
     7
 10
345.1996765136719
 20
67.75005340576172
 42
0
  0
SEQEND
  8
0
  0
POLYLINE
  8
0
  6
CONTINUOUS
 62
     7
 66
     1
 10
0
 20
0
 70
     1
  0
VERTEX
  8
0
  6
CONTINUOUS
 62
     7
 10
344.0995788574219
 20
73.50002288818359
 42
0.1103845743750933
  0
VERTEX
  8
0
  6
CONTINUOUS
 62
     7
 10
343.1874183743008
 20
73.29503871602284
 42
0.1025119582633647
  0
VERTEX
  8
0
  6
CONTINUOUS
 62
     7
 10
342.4400823913625
 20
72.73103912314053
 42
0.09329075398017947
  0
VERTEX
  8
0
  6
CONTINUOUS
 62
     7
 10
341.9624828666427
 20
71.92414712322484
 42
0.087817820008845
  0
VERTEX
  8
0
  6
CONTINUOUS
 62
     7
 10
341.7995910644531
 20
71.00003814697266
 42
0.08777259666514542
  0
VERTEX
  8
0
  6
CONTINUOUS
 62
     7
 10
341.9623126216243
 20
70.07642186917322
 42
0.09326083885684018
  0
VERTEX
  8
0
  6
CONTINUOUS
 62
     7
 10
342.4396048932309
 20
69.26961612052082
 42
0.1026313577903032
  0
VERTEX
  8
0
  6
CONTINUOUS
 62
     7
 10
343.1878073543476
 20
68.7048837784061
 42
0.1103308389524098
  0
VERTEX
  8
0
  6
CONTINUOUS
 62
     7
 10
344.0995788574219
 20
68.50005340576172
 42
0.1103784202859277
  0
VERTEX
  8
0
  6
CONTINUOUS
 62
     7
 10
345.01173443394
 20
68.70506408868496
 42
0.1025065582445154
  0
VERTEX
  8
0
  6
CONTINUOUS
 62
     7
 10
345.759068540129
 20
69.26906741597317
 42
0.09329013834629217
  0
VERTEX
  8
0
  6
CONTINUOUS
 62
     7
 10
346.2366745956221
 20
70.07595587317714
 42
0.08781970715178609
  0
VERTEX
  8
0
  6
CONTINUOUS
 62
     7
 10
346.3995666503906
 20
71.00003814697266
 42
0.08776822802341
  0
VERTEX
  8
0
  6
CONTINUOUS
 62
     7
 10
346.2368542414428
 20
71.92365679535078
 42
0.09326127558960597
  0
VERTEX
  8
0
  6
CONTINUOUS
 62
     7
 10
345.7595764784228
 20
72.73047128879011
 42
0.1026365203937713
  0
VERTEX
  8
0
  6
CONTINUOUS
 62
     7
 10
345.0113781876984
 20
73.29520826124315
 42
0.1103398837174584
  0
SEQEND
  8
0
  0
TEXT
  8
0
  6
CONTINUOUS
 62
     7
 10
-11.28550004959106
 20
-31.79999995231628
 40
3.599999904632568
 41
1.008382419577613
  1
HSR65R
  0
ENDSEC
  0
EOF
