  0
SECTION
  2
HEADER
  0
ENDSEC
  0
SECTION
  2
TABLES
  0
TABLE
  2
LTYPE
 70
    22
  0
LTYPE
  2
CONTINUOUS
 70
    64
  3
Solid line
 72
    65
 73
     0
 40
0.000000
  0
LTYPE
  2
DASHED
 70
    64
  3
__ __ __ __ __ __ __ __ __ __ __ __ __ __ __
 72
    65
 73
     2
 40
3.500000
 49
2.000000
 49
-1.500000
  0
LTYPE
  2
CENTER
 70
    64
  3
____ _ ____ _ ____ _ ____ _ ____ _ ____ _ ____
 72
    65
 73
     4
 40
17.500000
 49
13.000000
 49
-1.500000
 49
1.500000
 49
-1.500000
  0
LTYPE
  2
PHANTOM
 70
    64
  3
_____ _ _ _____ _ _ _____ _ _ _____ _ _ ____  
 72
    65
 73
     6
 40
15.500000
 49
8.000000
 49
-1.500000
 49
1.500000
 49
-1.500000
 49
1.500000
 49
-1.500000
  0
LTYPE
  2
DOT
 70
    64
  3
. . . . . . . . . . . . . . . . . . . . . . . .
 72
    65
 73
     2
 40
0.25
 49
0.0
 49
-0.25
  0
ENDTAB
  0
TABLE
  2
LAYER
 70
     1
  0
LAYER
  2
0
 70
     0
 62
     7
  6
CONTINUOUS
  0
ENDTAB
  0
TABLE
  2
STYLE
 70
     1
  0
STYLE
  2
STANDARD
 70
     0
 40
0.000000
 41
1.000000
 50
0.000000
 71
     0
 42
0.200000
  3
txt
  0
ENDTAB
  0
TABLE
  2
VIEW
 70
     0
  0
ENDTAB
  0
ENDSEC
  0
SECTION
  2
BLOCKS
  0
ENDSEC
  0
SECTION
  2
ENTITIES
  0
LINE
  8
0
  6
CONTINUOUS
 62
     7
 10
42.00033187866211
 20
14.00014972686768
 11
31.27812576293945
 21
18.99999809265137
  0
LINE
  8
0
  6
CENTER
 62
     7
 10
7.499359607696533
 20
71.00000762939453
 11
-13.72476291656494
 21
71.00000762939453
  0
LINE
  8
0
  6
CONTINUOUS
 62
     7
 10
-59.49985122680664
 20
13.99997711181641
 11
-41.99936294555664
 21
13.99997711181641
  0
LINE
  8
0
  6
CONTINUOUS
 62
     7
 10
41.99991226196289
 20
13.99997711181641
 11
59.50040054321289
 21
13.99997711181641
  0
LINE
  8
0
  6
CONTINUOUS
 62
     7
 10
-2.616852045059204
 20
74.49997711181641
 11
-6.697174549102783
 21
74.49997711181641
  0
LINE
  8
0
  6
CONTINUOUS
 62
     7
 10
-2.616852045059204
 20
67.49999237060547
 11
-6.697174549102783
 21
67.49999237060547
  0
LINE
  8
0
  6
CONTINUOUS
 62
     7
 10
-1.96694016456604
 20
70.99997711181641
 11
-2.616933822631836
 21
67.49997711181641
  0
LINE
  8
0
  6
CONTINUOUS
 62
     7
 10
-1.967359304428101
 20
70.99979400634766
 11
-2.617353200912476
 21
74.49979400634766
  0
LINE
  8
0
  6
CONTINUOUS
 62
     7
 10
-4.276965618133545
 20
71.00004577636719
 11
-4.926973819732666
 21
67.50004577636719
  0
LINE
  8
0
  6
CONTINUOUS
 62
     7
 10
-4.27724027633667
 20
70.99980926513672
 11
-4.927247524261475
 21
74.49980163574219
  0
LINE
  8
0
  6
CONTINUOUS
 62
     7
 10
-6.78715705871582
 20
67.96984100341797
 11
-6.697144985198975
 21
67.49983215332031
  0
LINE
  8
0
  6
CONTINUOUS
 62
     7
 10
-6.787588596343994
 20
74.02008056640625
 11
-6.697583675384522
 21
74.50005340576172
  0
LINE
  8
0
  6
CONTINUOUS
 62
     7
 10
-8.603304862976074
 20
67.75421142578125
 11
-11.3569393157959
 21
68.49977874755859
  0
LINE
  8
0
  6
CONTINUOUS
 62
     7
 10
-8.58675479888916
 20
74.24990081787109
 11
-11.35664939880371
 21
73.49993133544922
  0
LINE
  8
0
  6
CONTINUOUS
 62
     7
 10
-3.938055515289307
 20
74.50001525878906
 11
-0.0003460644511505961
 21
76.77345275878906
  0
LINE
  8
0
  6
CONTINUOUS
 62
     7
 10
-0.0002233822888229042
 20
65.22612762451172
 11
-3.9379723072052
 21
67.49958801269531
  0
LINE
  8
0
  6
CONTINUOUS
 62
     7
 10
-26.03549385070801
 20
55.49999237060547
 11
26.03604316711426
 21
55.49999237060547
  0
LINE
  8
0
  6
CONTINUOUS
 62
     7
 10
26.03629493713379
 20
55.50014495849609
 11
34.00069808959961
 21
47.53573989868164
  0
LINE
  8
0
  6
CONTINUOUS
 62
     7
 10
34.00049209594727
 20
47.5355224609375
 11
34.00049209594727
 21
38.4644775390625
  0
LINE
  8
0
  6
CONTINUOUS
 62
     7
 10
24.50068664550781
 20
28.96392631530762
 11
34.00069808959961
 21
38.46393585205078
  0
LINE
  8
0
  6
CONTINUOUS
 62
     7
 10
24.50024604797363
 20
28.96446037292481
 11
24.50024604797363
 21
22.03552055358887
  0
LINE
  8
0
  6
CONTINUOUS
 62
     7
 10
24.50037574768066
 20
22.03592300415039
 11
27.53585052490234
 21
19.00043678283691
  0
LINE
  8
0
  6
CONTINUOUS
 62
     7
 10
-29.49984931945801
 20
0
 11
-22.57699775695801
 21
0
  0
LINE
  8
0
  6
CONTINUOUS
 62
     7
 10
31.50000190734863
 20
46.50001525878906
 11
31.50000190734863
 21
39.49998474121094
  0
LINE
  8
0
  6
CONTINUOUS
 62
     7
 10
-31.49926948547363
 20
46.50001525878906
 11
-31.49926948547363
 21
39.49998474121094
  0
LINE
  8
0
  6
CONTINUOUS
 62
     7
 10
-24.88998603820801
 20
53.00000762939453
 11
24.89053535461426
 21
53.00000762939453
  0
LINE
  8
0
  6
CONTINUOUS
 62
     7
 10
31.50016975402832
 20
1.999977827072144
 11
29.50016593933106
 21
-2.427658546366729E-005
  0
LINE
  8
0
  6
CONTINUOUS
 62
     7
 10
-31.49999809265137
 20
2.000460624694824
 11
-29.49961090087891
 21
7.282975275302306E-005
  0
LINE
  8
0
  6
CONTINUOUS
 62
     7
 10
22.00049018859863
 20
30.00001335144043
 11
22.00049018859863
 21
21.00001335144043
  0
LINE
  8
0
  6
CONTINUOUS
 62
     7
 10
-21.99975776672363
 20
30.00001335144043
 11
-21.99975776672363
 21
21.00001335144043
  0
LINE
  8
0
  6
CONTINUOUS
 62
     7
 10
22.00055503845215
 20
29.99962997436523
 11
24.88830375671387
 21
32.88737869262695
  0
LINE
  8
0
  6
CONTINUOUS
 62
     7
 10
-21.99959182739258
 20
20.99970626831055
 11
-31.49999809265137
 21
11.49928188323975
  0
LINE
  8
0
  6
CONTINUOUS
 62
     7
 10
58.00049209594727
 20
74.99999237060547
 11
58.00049209594727
 21
24.00001335144043
  0
LINE
  8
0
  6
CONTINUOUS
 62
     7
 10
-40.05492401123047
 20
14.90668392181397
 11
-39.63227462768555
 21
14.00030899047852
  0
LINE
  8
0
  6
CONTINUOUS
 62
     7
 10
58.0005989074707
 20
23.99948883056641
 11
53.00058746337891
 21
18.99948120117188
  0
LINE
  8
0
  6
CONTINUOUS
 62
     7
 10
39.63467788696289
 20
13.99928188323975
 11
40.05728912353516
 21
14.90557384490967
  0
LINE
  8
0
  6
CONTINUOUS
 62
     7
 10
4.999512195587158
 20
73.88666534423828
 11
4.999512195587158
 21
68.11321258544922
  0
LINE
  8
0
  6
CONTINUOUS
 62
     7
 10
4.999622821807861
 20
68.11325073242188
 11
-0.0005321085918694735
 21
65.22641754150391
  0
LINE
  8
0
  6
CONTINUOUS
 62
     7
 10
-0.0003820486599579454
 20
76.77294158935547
 11
4.999574661254883
 21
73.88621520996094
  0
LINE
  8
0
  6
CONTINUOUS
 62
     7
 10
-27.5346794128418
 20
18.99925994873047
 11
-24.49914169311523
 21
22.03481101989746
  0
LINE
  8
0
  6
CONTINUOUS
 62
     7
 10
-24.49951362609863
 20
22.03552055358887
 11
-24.49951362609863
 21
28.96446037292481
  0
LINE
  8
0
  6
CONTINUOUS
 62
     7
 10
-33.99910354614258
 20
38.46453094482422
 11
-24.4992561340332
 21
28.96468353271484
  0
LINE
  8
0
  6
CONTINUOUS
 62
     7
 10
-33.99975967407227
 20
38.4644775390625
 11
-33.99975967407227
 21
47.5355224609375
  0
LINE
  8
0
  6
CONTINUOUS
 62
     7
 10
-33.99923706054688
 20
47.5346565246582
 11
-26.03477096557617
 21
55.49912261962891
  0
LINE
  8
0
  6
CONTINUOUS
 62
     7
 10
-31.27636528015137
 20
18.99999809265137
 11
-41.99930191040039
 21
13.99980735778809
  0
LINE
  8
0
  6
CONTINUOUS
 62
     7
 10
-52.99919128417969
 20
19.0001335144043
 11
-57.99900436401367
 21
23.99994277954102
  0
LINE
  8
0
  6
CONTINUOUS
 62
     7
 10
-52.99905776977539
 20
18.99999809265137
 11
-23.99936103820801
 21
18.99999809265137
  0
LINE
  8
0
  6
CONTINUOUS
 62
     7
 10
-57.99975967407227
 20
24.00001335144043
 11
-57.99975967407227
 21
75.00027465820313
  0
LINE
  8
0
  6
CONTINUOUS
 62
     7
 10
-57.99979019165039
 20
14.00021171569824
 11
-60.99929809570313
 21
16.99970436096191
  0
LINE
  8
0
  6
CONTINUOUS
 62
     7
 10
-60.99975967407227
 20
18.99999809265137
 11
-60.99975967407227
 21
77.00083160400391
  0
LINE
  8
0
  6
CONTINUOUS
 62
     7
 10
-53.00006103515625
 20
79.99996185302734
 11
53.00015640258789
 21
79.99996185302734
  0
LINE
  8
0
  6
CONTINUOUS
 62
     7
 10
28.91131019592285
 20
18.99999809265137
 11
39.63388824462891
 21
13.99997711181641
  0
LINE
  8
0
  6
CONTINUOUS
 62
     7
 10
23.99991035461426
 20
18.99999809265137
 11
53.00110244750977
 21
18.99999809265137
  0
LINE
  8
0
  6
CONTINUOUS
 62
     7
 10
-21.99896240234375
 20
29.99996566772461
 11
-24.88677597045898
 21
32.88777923583984
  0
LINE
  8
0
  6
CONTINUOUS
 62
     7
 10
-30.97719192504883
 20
47.02060699462891
 11
-31.49891090393066
 21
46.49888610839844
  0
LINE
  8
0
  6
CONTINUOUS
 62
     7
 10
30.97907257080078
 20
47.02165985107422
 11
31.5005989074707
 21
46.5001335144043
  0
LINE
  8
0
  6
CONTINUOUS
 62
     7
 10
31.50000190734863
 20
11.49998569488525
 11
31.50000190734863
 21
2.000015497207642
  0
LINE
  8
0
  6
CONTINUOUS
 62
     7
 10
-21.99984931945801
 20
0.9999848008155823
 11
-11.99936008453369
 21
0.9999848008155823
  0
LINE
  8
0
  6
CONTINUOUS
 62
     7
 10
11.99990940093994
 20
0.9999848008155823
 11
22.00039863586426
 21
0.9999848008155823
  0
LINE
  8
0
  6
CONTINUOUS
 62
     7
 10
22.00010299682617
 20
1.000085115432739
 11
22.57742881774902
 21
0.000113128568045795
  0
LINE
  8
0
  6
CONTINUOUS
 62
     7
 10
12.00068092346191
 20
0.9996097683906555
 11
11.42331504821777
 21
-0.0004171491018496454
  0
LINE
  8
0
  6
CONTINUOUS
 62
     7
 10
-21.9996452331543
 20
0.9998465180397034
 11
-22.57698059082031
 21
-0.0001444884255761281
  0
LINE
  8
0
  6
CONTINUOUS
 62
     7
 10
-11.99984359741211
 20
1.000206470489502
 11
-11.42251205444336
 21
0.0002390309236943722
  0
LINE
  8
0
  6
CONTINUOUS
 62
     7
 10
-11.42221164703369
 20
0
 11
11.42276096343994
 21
0
  0
LINE
  8
0
  6
CONTINUOUS
 62
     7
 10
22.57754707336426
 20
0
 11
29.50039863586426
 21
0
  0
LINE
  8
0
  6
CONTINUOUS
 62
     7
 10
-30.97832107543945
 20
38.97932434082031
 11
-31.49881172180176
 21
39.49981307983398
  0
LINE
  8
0
  6
CONTINUOUS
 62
     7
 10
30.97975158691406
 20
38.97882843017578
 11
31.50053405761719
 21
39.49960708618164
  0
LINE
  8
0
  6
CONTINUOUS
 62
     7
 10
22.00050163269043
 20
21.00041770935059
 11
31.50052642822266
 21
11.50035667419434
  0
LINE
  8
0
  6
DASHED
 62
     7
 10
13.00048923492432
 20
53.00000762939453
 11
13.00048923492432
 21
30.99999809265137
  0
LINE
  8
0
  6
DASHED
 62
     7
 10
-12.99975681304932
 20
53.00000762939453
 11
-12.99975681304932
 21
30.99999809265137
  0
LINE
  8
0
  6
DASHED
 62
     7
 10
9.000000953674316
 20
30.99997520446777
 11
9.000000953674316
 21
0
  0
LINE
  8
0
  6
DASHED
 62
     7
 10
-12.99975681304932
 20
30.99997520446777
 11
13.00039768218994
 21
30.99997520446777
  0
LINE
  8
0
  6
CENTER
 62
     7
 10
0
 20
90.99996948242188
 11
0
 21
-1
  0
LINE
  8
0
  6
CONTINUOUS
 62
     7
 10
190
 20
0
 11
710
 21
0
  0
LINE
  8
0
  6
CONTINUOUS
 62
     7
 10
61.00049209594727
 20
76.99996185302734
 11
61.00049209594727
 21
17.00024604797363
  0
LINE
  8
0
  6
CONTINUOUS
 62
     7
 10
543.0011596679688
 20
53.00000762939453
 11
710
 21
53.00000762939453
  0
LINE
  8
0
  6
CONTINUOUS
 62
     7
 10
190
 20
53.00000762939453
 11
357.0043334960938
 21
53.00000762939453
  0
LINE
  8
0
  6
CONTINUOUS
 62
     7
 10
-39.63212203979492
 20
13.99997711181641
 11
-28.9095401763916
 21
18.99999809265137
  0
LINE
  8
0
  6
CONTINUOUS
 62
     7
 10
61.00049209594727
 20
17.00024604797363
 11
58.00011825561523
 21
13.99988746643066
  0
LINE
  8
0
  6
CONTINUOUS
 62
     7
 10
-55.00065231323242
 20
82.99993896484375
 11
55.00040054321289
 21
82.99993896484375
  0
LINE
  8
0
  6
CONTINUOUS
 62
     7
 10
58.00057983398438
 20
74.99945068359375
 11
53.000244140625
 21
79.99977874755859
  0
LINE
  8
0
  6
CONTINUOUS
 62
     7
 10
61.0003547668457
 20
77.000244140625
 11
55.0004768371582
 21
83.00011444091797
  0
LINE
  8
0
  6
CONTINUOUS
 62
     7
 10
521.199951171875
 20
89.99954986572266
 11
523.4998168945313
 21
87.69944000244141
  0
LINE
  8
0
  6
CONTINUOUS
 62
     7
 10
376.5009460449219
 20
87.69879913330078
 11
378.8009338378906
 21
89.99880218505859
  0
LINE
  8
0
  6
CONTINUOUS
 62
     7
 10
378.8001708984375
 20
89.99999237060547
 11
521.19970703125
 21
89.99999237060547
  0
LINE
  8
0
  6
CONTINUOUS
 62
     7
 10
376.4996337890625
 20
15.99997425079346
 11
523.499755859375
 21
15.99997425079346
  0
LINE
  8
0
  6
CONTINUOUS
 62
     7
 10
523.4996948242188
 20
15.99997425079346
 11
523.4996948242188
 21
87.69972991943359
  0
LINE
  8
0
  6
CONTINUOUS
 62
     7
 10
376.4997253417969
 20
87.69995880126953
 11
376.4997253417969
 21
15.99997425079346
  0
LINE
  8
0
  6
CONTINUOUS
 62
     7
 10
541.499755859375
 20
55.09995269775391
 11
542.999755859375
 21
55.09995269775391
  0
LINE
  8
0
  6
CONTINUOUS
 62
     7
 10
539.49951171875
 20
79.99942779541016
 11
536.4998168945313
 21
82.99909973144531
  0
LINE
  8
0
  6
CONTINUOUS
 62
     7
 10
542.9996948242188
 20
18.99997520446777
 11
542.9996948242188
 21
55.09995269775391
  0
LINE
  8
0
  6
CONTINUOUS
 62
     7
 10
541.4996948242188
 20
18.99997520446777
 11
541.4996948242188
 21
79.99996185302734
  0
LINE
  8
0
  6
CONTINUOUS
 62
     7
 10
539.499755859375
 20
15.99997425079346
 11
539.499755859375
 21
79.99996185302734
  0
LINE
  8
0
  6
CONTINUOUS
 62
     7
 10
523.499755859375
 20
15.99997425079346
 11
539.499755859375
 21
15.99997425079346
  0
LINE
  8
0
  6
CONTINUOUS
 62
     7
 10
539.499755859375
 20
18.99997520446777
 11
542.999755859375
 21
18.99997520446777
  0
LINE
  8
0
  6
CONTINUOUS
 62
     7
 10
539.499755859375
 20
79.99991607666016
 11
541.499755859375
 21
79.99991607666016
  0
LINE
  8
0
  6
CONTINUOUS
 62
     7
 10
523.499755859375
 20
82.99991607666016
 11
536.499755859375
 21
82.99991607666016
  0
LINE
  8
0
  6
CONTINUOUS
 62
     7
 10
356.9996337890625
 20
55.09995269775391
 11
358.4996337890625
 21
55.09995269775391
  0
LINE
  8
0
  6
CONTINUOUS
 62
     7
 10
363.5004272460938
 20
82.99927520751953
 11
360.5004577636719
 21
79.99932098388672
  0
LINE
  8
0
  6
CONTINUOUS
 62
     7
 10
356.9997253417969
 20
55.09995269775391
 11
356.9997253417969
 21
18.99997520446777
  0
LINE
  8
0
  6
CONTINUOUS
 62
     7
 10
358.4997253417969
 20
79.99996185302734
 11
358.4997253417969
 21
18.99997520446777
  0
LINE
  8
0
  6
CONTINUOUS
 62
     7
 10
360.4999694824219
 20
79.99996185302734
 11
360.4999694824219
 21
15.99997425079346
  0
LINE
  8
0
  6
CONTINUOUS
 62
     7
 10
356.9996337890625
 20
18.99997520446777
 11
360.4998779296875
 21
18.99997520446777
  0
LINE
  8
0
  6
CONTINUOUS
 62
     7
 10
358.4996337890625
 20
79.99991607666016
 11
360.4998779296875
 21
79.99991607666016
  0
LINE
  8
0
  6
CONTINUOUS
 62
     7
 10
363.4998779296875
 20
82.99991607666016
 11
376.4996337890625
 21
82.99991607666016
  0
LINE
  8
0
  6
CONTINUOUS
 62
     7
 10
-58.00057983398438
 20
74.99945068359375
 11
-53.000244140625
 21
79.99977874755859
  0
LINE
  8
0
  6
CONTINUOUS
 62
     7
 10
-60.99975967407227
 20
77.00083923339844
 11
-55.0004768371582
 21
83.00011444091797
  0
LINE
  8
0
  6
CONTINUOUS
 62
     7
 10
376.5002746582031
 20
15.99997425079346
 11
360.500244140625
 21
15.99997425079346
  0
LINE
  8
0
  6
CONTINUOUS
 62
     7
 10
190
 20
0
 11
190
 21
53.00000762939453
  0
LINE
  8
0
  6
CONTINUOUS
 62
     7
 10
710
 20
0
 11
710
 21
53.00000762939453
  0
LINE
  8
0
  6
DASHED
 62
     7
 10
238.00048828125
 20
53.00000762939453
 11
238.00048828125
 21
30.99999809265137
  0
LINE
  8
0
  6
DASHED
 62
     7
 10
212.000244140625
 20
53.00000762939453
 11
212.000244140625
 21
30.99999809265137
  0
LINE
  8
0
  6
DASHED
 62
     7
 10
234
 20
30.99997520446777
 11
234
 21
0
  0
LINE
  8
0
  6
DASHED
 62
     7
 10
212.000244140625
 20
30.99997520446777
 11
238.0003967285156
 21
30.99997520446777
  0
LINE
  8
0
  6
CENTER
 62
     7
 10
225
 20
54.00000762939453
 11
225
 21
-1
  0
LINE
  8
0
  6
DASHED
 62
     7
 10
216
 20
30.99997520446777
 11
216
 21
0
  0
LINE
  8
0
  6
CENTER
 62
     7
 10
375
 20
16.99997329711914
 11
375
 21
-1
  0
LINE
  8
0
  6
CENTER
 62
     7
 10
525
 20
16.99997329711914
 11
525
 21
-1
  0
LINE
  8
0
  6
CENTER
 62
     7
 10
675
 20
54.00000762939453
 11
675
 21
-1
  0
LINE
  8
0
  6
CONTINUOUS
 62
     7
 10
-31.49999809265137
 20
11.49928092956543
 11
-31.49999809265137
 21
2.000460863113403
  0
LINE
  8
0
  6
DASHED
 62
     7
 10
-8.999999046325684
 20
30.99997520446777
 11
-8.999999046325684
 21
0
  0
LINE
  8
0
  6
CONTINUOUS
 62
     7
 10
190
 20
47.02177429199219
 11
356.9997253417969
 21
47.02177429199219
  0
LINE
  8
0
  6
CONTINUOUS
 62
     7
 10
190
 20
38.97920227050781
 11
356.9997253417969
 21
38.97920227050781
  0
LINE
  8
0
  6
CONTINUOUS
 62
     7
 10
190
 20
29.99962997436523
 11
356.9997253417969
 21
29.99962997436523
  0
LINE
  8
0
  6
CONTINUOUS
 62
     7
 10
190
 20
21.00041770935059
 11
356.9997253417969
 21
21.00041770935059
  0
LINE
  8
0
  6
CONTINUOUS
 62
     7
 10
190
 20
11.50035572052002
 11
710
 21
11.50035572052002
  0
LINE
  8
0
  6
CONTINUOUS
 62
     7
 10
542.9996948242188
 20
47.02177429199219
 11
710
 21
47.02177429199219
  0
LINE
  8
0
  6
CONTINUOUS
 62
     7
 10
542.9996948242188
 20
38.97920227050781
 11
710
 21
38.97920227050781
  0
LINE
  8
0
  6
CONTINUOUS
 62
     7
 10
542.9996948242188
 20
29.99962997436523
 11
710
 21
29.99962997436523
  0
LINE
  8
0
  6
CONTINUOUS
 62
     7
 10
542.9996948242188
 20
21.00041770935059
 11
710
 21
21.00041770935059
  0
LINE
  8
0
  6
CONTINUOUS
 62
     7
 10
343.0531005859375
 20
277.8159790039063
 11
349.6019287109375
 21
280.528564453125
  0
LINE
  8
0
  6
CONTINUOUS
 62
     7
 10
356.9998168945313
 20
268
 11
356.9998168945313
 21
238.99951171875
  0
LINE
  8
0
  6
CONTINUOUS
 62
     7
 10
353.7998046875
 20
278
 11
358.4998168945313
 21
278
  0
LINE
  8
0
  6
CONTINUOUS
 62
     7
 10
348.9726867675781
 20
277.7999877929688
 11
353.7998046875
 21
277.7999877929688
  0
LINE
  8
0
  6
CONTINUOUS
 62
     7
 10
346.2998352050781
 20
268.2000122070313
 11
353.7998046875
 21
268.2000122070313
  0
LINE
  8
0
  6
CONTINUOUS
 62
     7
 10
353.7998046875
 20
268
 11
358.4998168945313
 21
268
  0
LINE
  8
0
  6
CONTINUOUS
 62
     7
 10
343.2998352050781
 20
271.2000122070313
 11
343.2998352050781
 21
274.8547058105469
  0
LINE
  8
0
  6
CONTINUOUS
 62
     7
 10
353.7998046875
 20
268
 11
353.7998046875
 21
278
  0
LINE
  8
0
  6
CONTINUOUS
 62
     7
 10
343.2148742675781
 20
279.3701171875
 11
348.3886108398438
 21
281.5131530761719
  0
LINE
  8
0
  6
CONTINUOUS
 62
     7
 10
350.7055969238281
 20
279.1636047363281
 11
350.3827209472656
 21
278.3841247558594
  0
LINE
  8
0
  6
CONTINUOUS
 62
     7
 10
343.3785705566406
 20
275.4828186035156
 11
350.3827209472656
 21
278.384033203125
  0
LINE
  8
0
  6
CONTINUOUS
 62
     7
 10
348.1943969726563
 20
279.945556640625
 11
349.0669555664063
 21
277.8390502929688
  0
LINE
  8
0
  6
CONTINUOUS
 62
     7
 10
344.4606323242188
 20
278.3990173339844
 11
345.3331909179688
 21
276.29248046875
  0
LINE
  8
0
  6
CONTINUOUS
 62
     7
 10
344.0174560546875
 20
275.74755859375
 11
343.2380065917969
 21
276.0704040527344
  0
LINE
  8
0
  6
CONTINUOUS
 62
     7
 10
350.2909240722656
 20
280.1645812988281
 11
350.7055969238281
 21
279.1635131835938
  0
LINE
  8
0
  6
CONTINUOUS
 62
     7
 10
342.8233032226563
 20
277.0714111328125
 11
343.2379760742188
 21
276.0703430175781
  0
LINE
  8
0
  6
CONTINUOUS
 62
     7
 10
346.3175048828125
 20
285.4680480957031
 11
348.1822204589844
 21
283.3179931640625
  0
LINE
  8
0
  6
CONTINUOUS
 62
     7
 10
341.8828430175781
 20
283.6311950683594
 11
342.0845947265625
 21
280.7922668457031
  0
LINE
  8
0
  6
CONTINUOUS
 62
     7
 10
342.0845947265625
 20
280.7922668457031
 11
348.1821899414063
 21
283.3179626464844
  0
LINE
  8
0
  6
CONTINUOUS
 62
     7
 10
341.8828430175781
 20
283.6311645507813
 11
346.3174438476563
 21
285.4680480957031
  0
LINE
  8
0
  6
CENTER
 62
     7
 10
343.4626770019531
 20
286.088623046875
 11
349.0415954589844
 21
272.6199035644531
  0
LINE
  8
0
  6
CENTER
 62
     7
 10
189
 20
273
 11
711
 21
273
  0
LINE
  8
0
  6
CONTINUOUS
 62
     7
 10
360.5000610351563
 20
333.999755859375
 11
360.5000610351563
 21
211.99951171875
  0
LINE
  8
0
  6
CONTINUOUS
 62
     7
 10
360.5000610351563
 20
211.99951171875
 11
376.4998168945313
 21
211.99951171875
  0
LINE
  8
0
  6
CONTINUOUS
 62
     7
 10
360.5000610351563
 20
333.999755859375
 11
376.4998168945313
 21
333.999755859375
  0
LINE
  8
0
  6
CONTINUOUS
 62
     7
 10
356.9998168945313
 20
306.999755859375
 11
356.9998168945313
 21
278
  0
LINE
  8
0
  6
CONTINUOUS
 62
     7
 10
358.4998168945313
 20
330.999755859375
 11
358.4998168945313
 21
214.99951171875
  0
LINE
  8
0
  6
CONTINUOUS
 62
     7
 10
358.4998168945313
 20
214.99951171875
 11
360.5000610351563
 21
214.99951171875
  0
LINE
  8
0
  6
CONTINUOUS
 62
     7
 10
358.4998168945313
 20
330.999755859375
 11
360.5000610351563
 21
330.999755859375
  0
LINE
  8
0
  6
CONTINUOUS
 62
     7
 10
356.9998168945313
 20
306.999755859375
 11
358.4998168945313
 21
306.999755859375
  0
LINE
  8
0
  6
CONTINUOUS
 62
     7
 10
356.9998168945313
 20
238.99951171875
 11
358.4998168945313
 21
238.99951171875
  0
LINE
  8
0
  6
CONTINUOUS
 62
     7
 10
190
 20
241.5
 11
356.9998168945313
 21
241.5
  0
LINE
  8
0
  6
CENTER
 62
     7
 10
675
 20
287
 11
675
 21
259
  0
LINE
  8
0
  6
CONTINUOUS
 62
     7
 10
539.4996337890625
 20
333.999755859375
 11
539.4996337890625
 21
211.99951171875
  0
LINE
  8
0
  6
CONTINUOUS
 62
     7
 10
539.4996337890625
 20
211.99951171875
 11
523.4998779296875
 21
211.99951171875
  0
LINE
  8
0
  6
CONTINUOUS
 62
     7
 10
539.4996337890625
 20
333.999755859375
 11
523.4998779296875
 21
333.999755859375
  0
LINE
  8
0
  6
CONTINUOUS
 62
     7
 10
542.9998779296875
 20
306.999755859375
 11
542.9998779296875
 21
238.99951171875
  0
LINE
  8
0
  6
CONTINUOUS
 62
     7
 10
541.4998779296875
 20
330.999755859375
 11
541.4998779296875
 21
214.99951171875
  0
LINE
  8
0
  6
CONTINUOUS
 62
     7
 10
541.4998779296875
 20
214.99951171875
 11
539.4996337890625
 21
214.99951171875
  0
LINE
  8
0
  6
CONTINUOUS
 62
     7
 10
541.4998779296875
 20
330.999755859375
 11
539.4996337890625
 21
330.999755859375
  0
LINE
  8
0
  6
CONTINUOUS
 62
     7
 10
542.9998779296875
 20
306.999755859375
 11
541.4998779296875
 21
306.999755859375
  0
LINE
  8
0
  6
CONTINUOUS
 62
     7
 10
542.9998779296875
 20
238.99951171875
 11
541.4998779296875
 21
238.99951171875
  0
LINE
  8
0
  6
CONTINUOUS
 62
     7
 10
190
 20
248.1090087890625
 11
356.9998168945313
 21
248.1090087890625
  0
LINE
  8
0
  6
CENTER
 62
     7
 10
525
 20
287
 11
525
 21
259
  0
LINE
  8
0
  6
CONTINUOUS
 62
     7
 10
190
 20
297.8902587890625
 11
356.9998168945313
 21
297.8902587890625
  0
LINE
  8
0
  6
CONTINUOUS
 62
     7
 10
190
 20
304.499267578125
 11
356.9998168945313
 21
304.499267578125
  0
LINE
  8
0
  6
CONTINUOUS
 62
     7
 10
190
 20
304.499267578125
 11
190
 21
241.5
  0
LINE
  8
0
  6
CONTINUOUS
 62
     7
 10
710
 20
304.499267578125
 11
710
 21
241.5
  0
LINE
  8
0
  6
CONTINUOUS
 62
     7
 10
542.9998779296875
 20
248.1090087890625
 11
710
 21
248.1090087890625
  0
LINE
  8
0
  6
CONTINUOUS
 62
     7
 10
542.9998779296875
 20
241.5
 11
710
 21
241.5
  0
LINE
  8
0
  6
CENTER
 62
     7
 10
375
 20
287
 11
375
 21
259
  0
LINE
  8
0
  6
CONTINUOUS
 62
     7
 10
542.9998779296875
 20
297.8902587890625
 11
710
 21
297.8902587890625
  0
LINE
  8
0
  6
CONTINUOUS
 62
     7
 10
542.9998779296875
 20
304.499267578125
 11
710
 21
304.499267578125
  0
LINE
  8
0
  6
CENTER
 62
     7
 10
225
 20
287
 11
225
 21
259
  0
LINE
  8
0
  6
CONTINUOUS
 62
     7
 10
-59.95925903320313
 20
89.99997711181641
 11
-28.49935913085938
 21
89.99997711181641
  0
LINE
  8
0
  6
CONTINUOUS
 62
     7
 10
63
 20
87.89996337890625
 11
63
 21
66.99998474121094
  0
LINE
  8
0
  6
CONTINUOUS
 62
     7
 10
-26.99935913085938
 20
88.49997711181641
 11
-10.99960327148438
 21
88.49997711181641
  0
LINE
  8
0
  6
CONTINUOUS
 62
     7
 10
61.5
 20
65.49998474121094
 11
61.5
 21
15.99838638305664
  0
LINE
  8
0
  6
CONTINUOUS
 62
     7
 10
60.9002685546875
 20
90.00002288818359
 11
63.0003547668457
 21
87.89993286132813
  0
LINE
  8
0
  6
CONTINUOUS
 62
     7
 10
61.5
 20
15.99838638305664
 11
59.50078201293945
 21
13.99917507171631
  0
LINE
  8
0
  6
CONTINUOUS
 62
     7
 10
-59.49898529052734
 20
14.00055694580078
 11
-60.99929809570313
 21
15.50087356567383
  0
LINE
  8
0
  6
CONTINUOUS
 62
     7
 10
28.49990844726563
 20
89.99997711181641
 11
60.90005493164063
 21
89.99997711181641
  0
LINE
  8
0
  6
CONTINUOUS
 62
     7
 10
-9.499603271484375
 20
89.99997711181641
 11
9.500152587890625
 21
89.99997711181641
  0
LINE
  8
0
  6
CONTINUOUS
 62
     7
 10
11.00015258789063
 20
88.49997711181641
 11
26.99990844726563
 21
88.49997711181641
  0
LINE
  8
0
  6
CONTINUOUS
 62
     7
 10
27.00054931640625
 20
88.49945831298828
 11
28.50058555603027
 21
89.99948883056641
  0
LINE
  8
0
  6
CONTINUOUS
 62
     7
 10
-10.99932670593262
 20
88.49945068359375
 11
-9.49935245513916
 21
89.99942016601563
  0
LINE
  8
0
  6
CONTINUOUS
 62
     7
 10
61.49998474121094
 20
65.49980163574219
 11
62.99998474121094
 21
66.99980163574219
  0
LINE
  8
0
  6
CONTINUOUS
 62
     7
 10
-26.99935913085938
 20
88.49996185302734
 11
-28.49920272827148
 21
89.99979400634766
  0
LINE
  8
0
  6
CONTINUOUS
 62
     7
 10
11.00038909912109
 20
88.50031280517578
 11
9.500544548034668
 21
90.00014495849609
  0
LINE
  8
0
  6
CENTER
 62
     7
 10
-62.5
 20
77.99997711181641
 11
-27.46746063232422
 21
77.99997711181641
  0
LINE
  8
0
  6
DASHED
 62
     7
 10
-61.5
 20
69.99973297119141
 11
-39.50023651123047
 21
69.99973297119141
  0
LINE
  8
0
  6
DASHED
 62
     7
 10
-61.5
 20
86.00022125244141
 11
-39.50023651123047
 21
86.00022125244141
  0
LINE
  8
0
  6
DASHED
 62
     7
 10
-61.5
 20
71.00022125244141
 11
-33.70027923583984
 21
71.00022125244141
  0
LINE
  8
0
  6
DASHED
 62
     7
 10
-61.5
 20
84.99973297119141
 11
-33.70027923583984
 21
84.99973297119141
  0
LINE
  8
0
  6
DASHED
 62
     7
 10
-39.50023651123047
 20
69.99964141845703
 11
-39.50023651123047
 21
86.00012969970703
  0
LINE
  8
0
  6
DASHED
 62
     7
 10
-33.70027923583984
 20
71.00012969970703
 11
-33.70027923583984
 21
84.99964141845703
  0
LINE
  8
0
  6
DASHED
 62
     7
 10
-39.49957656860352
 20
86.00124359130859
 11
-37.76747131347656
 21
85.00121307373047
  0
LINE
  8
0
  6
DASHED
 62
     7
 10
-33.70005035400391
 20
84.99994659423828
 11
-29.65861511230469
 21
77.99997711181641
  0
LINE
  8
0
  6
DASHED
 62
     7
 10
-33.70063018798828
 20
70.99980926513672
 11
-29.65912246704102
 21
77.99989318847656
  0
LINE
  8
0
  6
DASHED
 62
     7
 10
-39.50123977661133
 20
70.00050354003906
 11
-37.76913452148438
 21
71.00053405761719
  0
LINE
  8
0
  6
CENTER
 62
     7
 10
-62.5
 20
42.99998474121094
 11
-35.34164428710938
 21
42.99998474121094
  0
LINE
  8
0
  6
CONTINUOUS
 62
     7
 10
-60.99929809570313
 20
65.49998474121094
 11
-60.99929809570313
 21
55.49997711181641
  0
LINE
  8
0
  6
CONTINUOUS
 62
     7
 10
-61.5
 20
66.00070953369141
 11
-60.99925994873047
 21
65.49996948242188
  0
LINE
  8
0
  6
CONTINUOUS
 62
     7
 10
-61.50000381469727
 20
54.99921798706055
 11
-60.99925994873047
 21
55.49995803833008
  0
LINE
  8
0
  6
CONTINUOUS
 62
     7
 10
-61.5
 20
26.54070854187012
 11
-60.9992561340332
 21
26.03996658325195
  0
LINE
  8
0
  6
CONTINUOUS
 62
     7
 10
-60.99929809570313
 20
26.03997802734375
 11
-60.99929809570313
 21
15.50087356567383
  0
LINE
  8
0
  6
CONTINUOUS
 62
     7
 10
-59.95928955078125
 20
90.00001525878906
 11
-61.49929809570313
 21
88.45999908447266
  0
LINE
  8
0
  6
CONTINUOUS
 62
     7
 10
-61.5
 20
88.45930480957031
 11
-61.5
 21
66.00070953369141
  0
LINE
  8
0
  6
CONTINUOUS
 62
     7
 10
-61.5
 20
54.99921417236328
 11
-61.5
 21
26.54070854187012
  0
LINE
  8
0
  6
CENTER
 62
     7
 10
407.4996948242188
 20
85.99999237060547
 11
407.4996948242188
 21
69.99999237060547
  0
LINE
  8
0
  6
CENTER
 62
     7
 10
399.4996948242188
 20
77.99999237060547
 11
415.4996948242188
 21
77.99999237060547
  0
LINE
  8
0
  6
CENTER
 62
     7
 10
407.4996948242188
 20
50.99997711181641
 11
407.4996948242188
 21
34.99997711181641
  0
LINE
  8
0
  6
CENTER
 62
     7
 10
399.4996948242188
 20
42.99997711181641
 11
415.4996948242188
 21
42.99997711181641
  0
LINE
  8
0
  6
CENTER
 62
     7
 10
492.4997253417969
 20
50.99997711181641
 11
492.4997253417969
 21
34.99997711181641
  0
LINE
  8
0
  6
CENTER
 62
     7
 10
484.4997253417969
 20
42.99997711181641
 11
500.4997253417969
 21
42.99997711181641
  0
LINE
  8
0
  6
CENTER
 62
     7
 10
492.4997253417969
 20
85.99999237060547
 11
492.4997253417969
 21
69.99999237060547
  0
LINE
  8
0
  6
CENTER
 62
     7
 10
484.4997253417969
 20
77.99999237060547
 11
500.4997253417969
 21
77.99999237060547
  0
LINE
  8
0
  6
CONTINUOUS
 62
     7
 10
376.4997253417969
 20
65.49998474121094
 11
523.4996948242188
 21
65.49998474121094
  0
LINE
  8
0
  6
CONTINUOUS
 62
     7
 10
354.3615417480469
 20
76.85346221923828
 11
357.9377136230469
 21
76.85346221923828
  0
LINE
  8
0
  6
CONTINUOUS
 62
     7
 10
354.3615417480469
 20
73.96671295166016
 11
357.9377136230469
 21
73.96671295166016
  0
LINE
  8
0
  6
CONTINUOUS
 62
     7
 10
353.7995300292969
 20
75.87998199462891
 11
353.7995300292969
 21
70.99997711181641
  0
LINE
  8
0
  6
CONTINUOUS
 62
     7
 10
346.3014831542969
 20
75.79987335205078
 11
353.8014831542969
 21
75.79987335205078
  0
LINE
  8
0
  6
CONTINUOUS
 62
     7
 10
353.8014831542969
 20
66.19989776611328
 11
346.3014831542969
 21
66.19989776611328
  0
LINE
  8
0
  6
CONTINUOUS
 62
     7
 10
353.8012084960938
 20
75.87862396240234
 11
354.3632507324219
 21
76.85211181640625
  0
LINE
  8
0
  6
CONTINUOUS
 62
     7
 10
353.8019714355469
 20
70.99988555908203
 11
353.8019714355469
 21
66.11988067626953
  0
LINE
  8
0
  6
CONTINUOUS
 62
     7
 10
354.3627014160156
 20
65.14438629150391
 11
353.8006896972656
 21
66.11782073974609
  0
LINE
  8
0
  6
CONTINUOUS
 62
     7
 10
357.9401550292969
 20
65.14640045166016
 11
354.3639831542969
 21
65.14640045166016
  0
LINE
  8
0
  6
CONTINUOUS
 62
     7
 10
357.9401550292969
 20
68.03314971923828
 11
354.3639831542969
 21
68.03314971923828
  0
LINE
  8
0
  6
CONTINUOUS
 62
     7
 10
357.9386291503906
 20
76.85137939453125
 11
358.5006408691406
 21
75.87794494628906
  0
LINE
  8
0
  6
CONTINUOUS
 62
     7
 10
358.5011291503906
 20
66.11874389648438
 11
357.9390869140625
 21
65.14525604248047
  0
LINE
  8
0
  6
CENTER
 62
     7
 10
338.6512451171875
 20
71.00003814697266
 11
362.5906372070313
 21
71.00003814697266
  0
LINE
  8
0
  6
CONTINUOUS
 62
     7
 10
343.3903198242188
 20
73.53261566162109
 11
343.41064453125
 21
68.39105224609375
  0
LINE
  8
0
  6
CONTINUOUS
 62
     7
 10
376.4997253417969
 20
210
 11
523.4996948242188
 21
210
  0
LINE
  8
0
  6
CONTINUOUS
 62
     7
 10
376.4997253417969
 20
244.5000915527344
 11
523.4996948242188
 21
244.5000915527344
  0
LINE
  8
0
  6
CONTINUOUS
 62
     7
 10
376.4997253417969
 20
263.4998474121094
 11
523.4996948242188
 21
263.4998474121094
  0
LINE
  8
0
  6
CONTINUOUS
 62
     7
 10
376.4997253417969
 20
282.4996032714844
 11
523.4996948242188
 21
282.4996032714844
  0
LINE
  8
0
  6
CONTINUOUS
 62
     7
 10
376.4997253417969
 20
301.4993591308594
 11
523.4996948242188
 21
301.4993591308594
  0
LINE
  8
0
  6
CONTINUOUS
 62
     7
 10
376.4997253417969
 20
334.5
 11
523.4996948242188
 21
334.5
  0
LINE
  8
0
  6
CONTINUOUS
 62
     7
 10
376.4997253417969
 20
334.5
 11
376.4997253417969
 21
210
  0
LINE
  8
0
  6
CONTINUOUS
 62
     7
 10
523.4996948242188
 20
334.5
 11
523.4996948242188
 21
210
  0
LINE
  8
0
  6
DASHED
 62
     7
 10
399.5002136230469
 20
312.501220703125
 11
400.500244140625
 21
310.7691345214844
  0
LINE
  8
0
  6
DASHED
 62
     7
 10
400.49951171875
 20
306.7006225585938
 11
407.4996032714844
 21
302.6591186523438
  0
LINE
  8
0
  6
DASHED
 62
     7
 10
414.4996643066406
 20
306.7000427246094
 11
407.4996948242188
 21
302.6585998535156
  0
LINE
  8
0
  6
DASHED
 62
     7
 10
415.5009765625
 20
312.4995727539063
 11
414.5009460449219
 21
310.7674865722656
  0
LINE
  8
0
  6
DASHED
 62
     7
 10
400.4998474121094
 20
306.7002563476563
 11
414.4993591308594
 21
306.7002563476563
  0
LINE
  8
0
  6
DASHED
 62
     7
 10
399.4993591308594
 20
312.5002136230469
 11
415.4998474121094
 21
312.5002136230469
  0
LINE
  8
0
  6
DASHED
 62
     7
 10
414.4994506835938
 20
334.5
 11
414.4994506835938
 21
306.7002563476563
  0
LINE
  8
0
  6
DASHED
 62
     7
 10
400.4999389648438
 20
334.5
 11
400.4999389648438
 21
306.7002563476563
  0
LINE
  8
0
  6
DASHED
 62
     7
 10
415.4999389648438
 20
334.5
 11
415.4999389648438
 21
312.5002136230469
  0
LINE
  8
0
  6
DASHED
 62
     7
 10
399.4994506835938
 20
334.5
 11
399.4994506835938
 21
312.5002136230469
  0
LINE
  8
0
  6
CENTER
 62
     7
 10
407.4996948242188
 20
335.5
 11
407.4996948242188
 21
300.4674377441406
  0
LINE
  8
0
  6
CENTER
 62
     7
 10
492.4997253417969
 20
335.5
 11
492.4997253417969
 21
300.4674377441406
  0
ARC
  8
0
  6
CONTINUOUS
 62
     7
 10
-8.447022438049316
 20
68.70999908447266
 40
0.9683419466018675
 50
261.7027793144388
 51
324.6685413292641
  0
ARC
  8
0
  6
CONTINUOUS
 62
     7
 10
-31.07666206359863
 20
32.78997039794922
 40
6.189997196197511
 50
0.9050463822469956
 51
89.0949546281273
  0
ARC
  8
0
  6
CONTINUOUS
 62
     7
 10
31.07739448547363
 20
53.21099090576172
 40
6.18999719619751
 50
181.9533061502623
 51
269.0857561845481
  0
ARC
  8
0
  6
CONTINUOUS
 62
     7
 10
35.21276473999023
 20
18.00951957702637
 40
2.499999761581424
 50
199.9310197438961
 51
290.0690262205544
  0
ARC
  8
0
  6
CONTINUOUS
 62
     7
 10
-35.21297454833984
 20
18.00942230224609
 40
2.499999761581422
 50
249.9310097516243
 51
340.0690059829988
  0
ARC
  8
0
  6
CONTINUOUS
 62
     7
 10
-7.456787586212158
 20
66.92000579833984
 40
1.246147990226747
 50
37.87496647613531
 51
99.23547011146758
  0
ARC
  8
0
  6
CONTINUOUS
 62
     7
 10
-8.447022438049316
 20
73.28997039794922
 40
0.9701610207557714
 50
35.3314586707361
 51
98.29711140253461
  0
ARC
  8
0
  6
CONTINUOUS
 62
     7
 10
0
 20
71.00000762939453
 40
4.799998760223392
 50
226.816597751169
 51
133.0489021636952
  0
ARC
  8
0
  6
CONTINUOUS
 62
     7
 10
-31.07666206359863
 20
53.21099090576172
 40
6.189997196197509
 50
270.9142251461173
 51
358.0467214976234
  0
ARC
  8
0
  6
CONTINUOUS
 62
     7
 10
31.07739448547363
 20
32.78997039794922
 40
6.189997196197508
 50
90.905009399694
 51
179.094936642038
  0
ARC
  8
0
  6
CONTINUOUS
 62
     7
 10
-7.456787586212158
 20
75.07996368408203
 40
1.254198789596561
 50
260.7646391715592
 51
322.1250335238647
  0
ARC
  8
0
  6
CONTINUOUS
 62
     7
 10
346.2998352050781
 20
274.7999877929688
 40
3.000000000000009
 50
166.8430525918959
 51
179.9999093863075
  0
ARC
  8
0
  6
CONTINUOUS
 62
     7
 10
346.2998352050781
 20
271.2000122070313
 40
3.000000000000023
 50
180.0000359721792
 51
270.000017986089
  0
ARC
  8
0
  6
CONTINUOUS
 62
     7
 10
349.2261047363281
 20
281.810546875
 40
0.7999999523162699
 50
176.5798560839654
 51
227.4330186812979
  0
ARC
  8
0
  6
CONTINUOUS
 62
     7
 10
342.412353515625
 20
278.9881896972656
 40
0.7999999523162782
 50
357.5669502273034
 51
48.42016725270503
  0
ARC
  8
0
  6
CONTINUOUS
 62
     7
 10
352.7436218261719
 20
285.6403198242188
 40
5.999999999999975
 50
227.433678021923
 51
245.8721834977224
  0
ARC
  8
0
  6
CONTINUOUS
 62
     7
 10
337.2170715332031
 20
279.2090148925781
 40
6.000000000000012
 50
339.1282601229507
 51
357.5663491706548
  0
ARC
  8
0
  6
CONTINUOUS
 62
     7
 10
345.1334228515625
 20
282.0550842285156
 40
3.299999237060569
 50
356.5803977035844
 51
22.49998184309958
  0
ARC
  8
0
  6
CONTINUOUS
 62
     7
 10
345.1334228515625
 20
282.0550842285156
 40
3.299999237060531
 50
202.5000451360344
 51
228.4196294889923
  0
CIRCLE
  8
0
  6
CONTINUOUS
 62
     7
 10
225
 20
273
 40
9
  0
CIRCLE
  8
0
  6
CONTINUOUS
 62
     7
 10
225
 20
273
 40
12.999755859375
  0
CIRCLE
  8
0
  6
DASHED
 62
     7
 10
407.4996948242188
 20
77.99999237060547
 40
8
  0
CIRCLE
  8
0
  6
DASHED
 62
     7
 10
407.4996948242188
 20
77.99999237060547
 40
7
  0
ARC
  8
0
  6
CONTINUOUS
 62
     7
 10
346.2995300292969
 20
72.79996490478516
 40
3.000000000000006
 50
89.99998201391097
 51
165.8646416536697
  0
ARC
  8
0
  6
CONTINUOUS
 62
     7
 10
346.2995300292969
 20
69.19998931884766
 40
2.99999999999998
 50
195.6428630584223
 51
270.0000726276024
  0
ARC
  8
0
  6
CONTINUOUS
 62
     7
 10
361.9108581542969
 20
70.99997711181641
 40
8.111171722412115
 50
158.545684146651
 51
201.4542985505051
  0
ARC
  8
0
  6
CONTINUOUS
 62
     7
 10
362.1174011230469
 20
77.28424835205078
 40
8.435743331909185
 50
189.5825728116531
 51
203.1582021644571
  0
ARC
  8
0
  6
CONTINUOUS
 62
     7
 10
362.1174011230469
 20
64.71570587158203
 40
8.435743331909164
 50
156.8417978355429
 51
170.4174271883469
  0
ARC
  8
0
  6
CONTINUOUS
 62
     7
 10
350.1813659667969
 20
77.28424835205078
 40
8.43574333190919
 50
336.8417996567757
 51
350.4174290095796
  0
ARC
  8
0
  6
CONTINUOUS
 62
     7
 10
350.3883972167969
 20
70.99997711181641
 40
8.111171722412133
 50
338.5457030433568
 51
21.45431403211627
  0
ARC
  8
0
  6
CONTINUOUS
 62
     7
 10
350.1813659667969
 20
64.71570587158203
 40
8.435743331909194
 50
9.582570990420237
 51
23.15820034322427
  0
ARC
  8
0
  6
CONTINUOUS
 62
     7
 10
347.0353088378906
 20
71.00003814697266
 40
4.521574020385759
 50
149.6344046384272
 51
211.1049870175181
  0
POLYLINE
  8
0
  6
CONTINUOUS
 62
     7
 66
     1
 10
0
 20
0
 70
     1
  0
VERTEX
  8
0
  6
CONTINUOUS
 62
     7
 10
-11.35693454742432
 20
73.50001525878906
 42
0.2551694857713255
  0
VERTEX
  8
0
  6
CONTINUOUS
 62
     7
 10
-11.88672871965387
 20
73.07511804803903
 42
0.06318807187862012
  0
VERTEX
  8
0
  6
CONTINUOUS
 62
     7
 10
-12.14080672634452
 20
72.41222839567868
 42
0.03518407439273859
  0
VERTEX
  8
0
  6
CONTINUOUS
 62
     7
 10
-12.26752673098441
 20
71.71218036441488
 42
0.02798328900286251
  0
VERTEX
  8
0
  6
CONTINUOUS
 62
     7
 10
-12.30688571929932
 20
71.00000762939453
 42
0.02789738905743184
  0
VERTEX
  8
0
  6
CONTINUOUS
 62
     7
 10
-12.26775542043944
 20
70.2898632518709
 42
0.03515785326111717
  0
VERTEX
  8
0
  6
CONTINUOUS
 62
     7
 10
-12.14127127546975
 20
69.5895744289503
 42
0.06315238904286923
  0
VERTEX
  8
0
  6
CONTINUOUS
 62
     7
 10
-11.88725645931969
 20
68.92583106627059
 42
0.2552947708183375
  0
VERTEX
  8
0
  6
CONTINUOUS
 62
     7
 10
-11.35693454742432
 20
68.5
 42
0.255169485770964
  0
VERTEX
  8
0
  6
CONTINUOUS
 62
     7
 10
-10.82714037519476
 20
68.92489721075002
 42
0.06318807187918937
  0
VERTEX
  8
0
  6
CONTINUOUS
 62
     7
 10
-10.57306236850411
 20
69.58778686311037
 42
0.03518407439269636
  0
VERTEX
  8
0
  6
CONTINUOUS
 62
     7
 10
-10.44634236386423
 20
70.2878348943742
 42
0.02798328900292007
  0
VERTEX
  8
0
  6
CONTINUOUS
 62
     7
 10
-10.40698337554932
 20
71.00000762939453
 42
0.02789738905728127
  0
VERTEX
  8
0
  6
CONTINUOUS
 62
     7
 10
-10.44611367440919
 20
71.71015200691817
 42
0.03515785326105658
  0
VERTEX
  8
0
  6
CONTINUOUS
 62
     7
 10
-10.57259781937888
 20
72.41044082983876
 42
0.0631523890423055
  0
VERTEX
  8
0
  6
CONTINUOUS
 62
     7
 10
-10.82661263552894
 20
73.07418419251847
 42
0.2552947708192335
  0
SEQEND
  8
0
  0
POLYLINE
  8
0
  6
CONTINUOUS
 62
     7
 66
     1
 10
0
 20
0
  0
VERTEX
  8
0
  6
CONTINUOUS
 62
     7
 10
-7.620754583105568
 20
68.15152289963696
 42
0.1748984838540695
  0
VERTEX
  8
0
  6
CONTINUOUS
 62
     7
 10
-7.271104978600778
 20
68.33427302978559
 42
0.07058563474191495
  0
VERTEX
  8
0
  6
CONTINUOUS
 62
     7
 10
-7.035068571212957
 20
68.65890392443377
 42
0.03759475643601359
  0
VERTEX
  8
0
  6
CONTINUOUS
 62
     7
 10
-6.870223108585119
 20
69.02672798088111
 42
0.02501847580960567
  0
VERTEX
  8
0
  6
CONTINUOUS
 62
     7
 10
-6.751546825670517
 20
69.41214217493248
 42
0.01912001941230642
  0
VERTEX
  8
0
  6
CONTINUOUS
 62
     7
 10
-6.666793934687206
 20
69.80700884144585
 42
0.01600653225654874
  0
VERTEX
  8
0
  6
CONTINUOUS
 62
     7
 10
-6.609756474610499
 20
70.20694265357649
 42
0.01436184097402746
  0
VERTEX
  8
0
  6
CONTINUOUS
 62
     7
 10
-6.576981112620628
 20
70.60965014297869
 42
0.01364860949545646
  0
VERTEX
  8
0
  6
CONTINUOUS
 62
     7
 10
-6.566724329811518
 20
71.01354782304863
 42
0.01363302992127745
  0
VERTEX
  8
0
  6
CONTINUOUS
 62
     7
 10
-6.578404102415394
 20
71.41624936380454
 42
0.01442101817643718
  0
VERTEX
  8
0
  6
CONTINUOUS
 62
     7
 10
-6.612630583201604
 20
71.81842157604199
 42
0.01619239173119985
  0
VERTEX
  8
0
  6
CONTINUOUS
 62
     7
 10
-6.671471698224407
 20
72.21904499571473
 42
0.01940863148595398
  0
VERTEX
  8
0
  6
CONTINUOUS
 62
     7
 10
-6.758267593902004
 20
72.61361020872566
 42
0.02563352038737393
  0
VERTEX
  8
0
  6
CONTINUOUS
 62
     7
 10
-6.879802172571992
 20
72.99891842227612
 42
0.03903374548172423
  0
VERTEX
  8
0
  6
CONTINUOUS
 62
     7
 10
-7.048963644055125
 20
73.3657873930045
 42
0.0751866025289586
  0
VERTEX
  8
0
  6
CONTINUOUS
 62
     7
 10
-7.293024635249874
 20
73.68660110551528
 42
0.1875480520024572
  0
VERTEX
  8
0
  6
CONTINUOUS
 62
     7
 10
-7.652899416291628
 20
73.84993485781234
 42
0
  0
SEQEND
  8
0
  0
POLYLINE
  8
0
  6
CONTINUOUS
 62
     7
 66
     1
 10
0
 20
0
  0
VERTEX
  8
0
  6
CONTINUOUS
 62
     7
 10
343.1198740597399
 20
73.26201726698815
 42
0.03811127959549675
  0
VERTEX
  8
0
  6
CONTINUOUS
 62
     7
 10
342.8269313300337
 20
73.08262836820926
 42
0.0369051163308145
  0
VERTEX
  8
0
  6
CONTINUOUS
 62
     7
 10
342.5634651083136
 20
72.86096267850073
 42
0.03552801212042849
  0
VERTEX
  8
0
  6
CONTINUOUS
 62
     7
 10
342.3352190720804
 20
72.60414333790044
 42
0.0343339156057161
  0
VERTEX
  8
0
  6
CONTINUOUS
 62
     7
 10
342.1449118705846
 20
72.31801721611952
 42
0.03331613745895088
  0
VERTEX
  8
0
  6
CONTINUOUS
 62
     7
 10
341.9948810321682
 20
72.0087975722321
 42
0.03252144898913859
  0
VERTEX
  8
0
  6
CONTINUOUS
 62
     7
 10
341.8866976289299
 20
71.68252250620765
 42
0.03197652618410597
  0
VERTEX
  8
0
  6
CONTINUOUS
 62
     7
 10
341.8213455017546
 20
71.34503937732434
 42
0.03169675275199373
  0
VERTEX
  8
0
  6
CONTINUOUS
 62
     7
 10
341.7993475994251
 20
71.00202176553474
 42
0.03164801508629916
  0
VERTEX
  8
0
  6
CONTINUOUS
 62
     7
 10
341.8207813049583
 20
70.65946018471747
 42
0.03196083935886152
  0
VERTEX
  8
0
  6
CONTINUOUS
 62
     7
 10
341.8855463126138
 20
70.32196522842396
 42
0.03249761031079613
  0
VERTEX
  8
0
  6
CONTINUOUS
 62
     7
 10
341.9931077291823
 20
69.9956415674184
 42
0.03329334821279573
  0
VERTEX
  8
0
  6
CONTINUOUS
 62
     7
 10
342.1425199941023
 20
69.68623594536142
 42
0.03431832792569415
  0
VERTEX
  8
0
  6
CONTINUOUS
 62
     7
 10
342.3322728244319
 20
69.39974392324996
 42
0.03552168028559397
  0
VERTEX
  8
0
  6
CONTINUOUS
 62
     7
 10
342.5600774756299
 20
69.1423982799874
 42
0.03682562972098844
  0
VERTEX
  8
0
  6
CONTINUOUS
 62
     7
 10
342.8226266661762
 20
68.92053915830566
 42
0.03812163244746694
  0
VERTEX
  8
0
  6
CONTINUOUS
 62
     7
 10
343.1153697409289
 20
68.74034959670348
 42
0
  0
SEQEND
  8
0
  0
POLYLINE
  8
0
  6
CONTINUOUS
 62
     7
 66
     1
 10
0
 20
0
  0
VERTEX
  8
0
  6
CONTINUOUS
 62
     7
 10
343.0993347167969
 20
73.24002838134766
 42
-0.01042958755404608
  0
VERTEX
  8
0
  6
CONTINUOUS
 62
     7
 10
343.1916674119003
 20
73.34114555565175
 42
-0.01059991159951598
  0
VERTEX
  8
0
  6
CONTINUOUS
 62
     7
 10
343.2884191934542
 20
73.43854513337986
 42
-0.0108231665792214
  0
VERTEX
  8
0
  6
CONTINUOUS
 62
     7
 10
343.3894352536986
 20
73.53188160805019
 42
0
  0
SEQEND
  8
0
  0
POLYLINE
  8
0
  6
CONTINUOUS
 62
     7
 66
     1
 10
0
 20
0
  0
VERTEX
  8
0
  6
CONTINUOUS
 62
     7
 10
343.0993347167969
 20
68.76004791259766
 42
0.0111909894998622
  0
VERTEX
  8
0
  6
CONTINUOUS
 62
     7
 10
343.198158225304
 20
68.65214228839746
 42
0.01137438192493961
  0
VERTEX
  8
0
  6
CONTINUOUS
 62
     7
 10
343.3020418932124
 20
68.548508714416
 42
0.01162384191639799
  0
VERTEX
  8
0
  6
CONTINUOUS
 62
     7
 10
343.4107888266776
 20
68.44956799066424
 42
0
  0
SEQEND
  8
0
  0
TEXT
  8
0
  6
CONTINUOUS
 62
     7
 10
-11.28550004959106
 20
-31.79999995231628
 40
3.599999904632568
 41
1.007125066575079
  1
HSR65YR
  0
ENDSEC
  0
EOF
