  0
SECTION
  2
HEADER
  0
ENDSEC
  0
SECTION
  2
TABLES
  0
TABLE
  2
LTYPE
 70
    22
  0
LTYPE
  2
CONTINUOUS
 70
    64
  3
Solid line
 72
    65
 73
     0
 40
0.000000
  0
LTYPE
  2
DASHED
 70
    64
  3
__ __ __ __ __ __ __ __ __ __ __ __ __ __ __
 72
    65
 73
     2
 40
3.500000
 49
2.000000
 49
-1.500000
  0
LTYPE
  2
CENTER
 70
    64
  3
____ _ ____ _ ____ _ ____ _ ____ _ ____ _ ____
 72
    65
 73
     4
 40
17.500000
 49
13.000000
 49
-1.500000
 49
1.500000
 49
-1.500000
  0
LTYPE
  2
PHANTOM
 70
    64
  3
_____ _ _ _____ _ _ _____ _ _ _____ _ _ ____  
 72
    65
 73
     6
 40
15.500000
 49
8.000000
 49
-1.500000
 49
1.500000
 49
-1.500000
 49
1.500000
 49
-1.500000
  0
LTYPE
  2
DOT
 70
    64
  3
. . . . . . . . . . . . . . . . . . . . . . . .
 72
    65
 73
     2
 40
0.25
 49
0.0
 49
-0.25
  0
ENDTAB
  0
TABLE
  2
LAYER
 70
     1
  0
LAYER
  2
0
 70
     0
 62
     7
  6
CONTINUOUS
  0
ENDTAB
  0
TABLE
  2
STYLE
 70
     1
  0
STYLE
  2
STANDARD
 70
     0
 40
0.000000
 41
1.000000
 50
0.000000
 71
     0
 42
0.200000
  3
txt
  0
ENDTAB
  0
TABLE
  2
VIEW
 70
     0
  0
ENDTAB
  0
ENDSEC
  0
SECTION
  2
BLOCKS
  0
ENDSEC
  0
SECTION
  2
ENTITIES
  0
LINE
  8
0
  6
CONTINUOUS
 62
     7
 10
225.0003051757813
 20
64.99998474121094
 11
416.5003051757813
 21
64.99998474121094
  0
LINE
  8
0
  6
CONTINUOUS
 62
     7
 10
225.0003051757813
 20
0
 11
855.0003051757813
 21
0
  0
LINE
  8
0
  6
CENTER
 62
     7
 10
470.0003051757813
 20
19.60195732116699
 11
470.0003051757813
 21
110.9999847412109
  0
LINE
  8
0
  6
CONTINUOUS
 62
     7
 10
627.6006469726563
 20
109.9987411499023
 11
629.30078125
 21
108.2985687255859
  0
LINE
  8
0
  6
CONTINUOUS
 62
     7
 10
452.3984069824219
 20
109.9980621337891
 11
450.6983947753906
 21
108.2980575561523
  0
LINE
  8
0
  6
CONTINUOUS
 62
     7
 10
450.7005310058594
 20
15.99991703033447
 11
450.7005310058594
 21
108.2997131347656
  0
LINE
  8
0
  6
CONTINUOUS
 62
     7
 10
485.000244140625
 20
74.99992370605469
 11
485.000244140625
 21
59.99992370605469
  0
LINE
  8
0
  6
CONTINUOUS
 62
     7
 10
490.0003051757813
 20
54.99990844726563
 11
589.9973754882813
 21
54.99990844726563
  0
LINE
  8
0
  6
CONTINUOUS
 62
     7
 10
629.300048828125
 20
108.2997131347656
 11
629.300048828125
 21
15.99991703033447
  0
LINE
  8
0
  6
CONTINUOUS
 62
     7
 10
452.399658203125
 20
109.9999847412109
 11
627.5995483398438
 21
109.9999847412109
  0
LINE
  8
0
  6
CONTINUOUS
 62
     7
 10
450.700439453125
 20
15.99992847442627
 11
629.3001098632813
 21
15.99992847442627
  0
LINE
  8
0
  6
CONTINUOUS
 62
     7
 10
450.700439453125
 20
79.99998474121094
 11
629.3001098632813
 21
79.99998474121094
  0
LINE
  8
0
  6
CENTER
 62
     7
 10
399.3234252929688
 20
86.99998474121094
 11
419.6994018554688
 21
86.99998474121094
  0
LINE
  8
0
  6
CONTINUOUS
 62
     7
 10
403.6488037109375
 20
83.41712188720703
 11
403.2515258789063
 21
84.19010925292969
  0
LINE
  8
0
  6
CONTINUOUS
 62
     7
 10
408.224853515625
 20
83.41940307617188
 11
403.649658203125
 21
83.41940307617188
  0
LINE
  8
0
  6
CONTINUOUS
 62
     7
 10
410.0651245117188
 20
86.99730682373047
 11
408.2251281738281
 21
83.41732788085938
  0
LINE
  8
0
  6
CONTINUOUS
 62
     7
 10
409.1896667480469
 20
86.99722290039063
 11
407.3496704101563
 21
83.417236328125
  0
LINE
  8
0
  6
CONTINUOUS
 62
     7
 10
407.3487243652344
 20
90.57728576660156
 11
409.1888122558594
 21
86.99709320068359
  0
LINE
  8
0
  6
CONTINUOUS
 62
     7
 10
403.2528381347656
 20
89.80441284179688
 11
403.64990234375
 21
90.57699584960938
  0
LINE
  8
0
  6
CONTINUOUS
 62
     7
 10
408.22412109375
 20
90.57682037353516
 11
410.0642395019531
 21
86.99662017822266
  0
LINE
  8
0
  6
CONTINUOUS
 62
     7
 10
418.0016784667969
 20
82.11655426025391
 11
417.4396362304688
 21
81.14306640625
  0
LINE
  8
0
  6
CONTINUOUS
 62
     7
 10
418.0003051757813
 20
82.03982543945313
 11
418.0003051757813
 21
86.91972351074219
  0
LINE
  8
0
  6
CONTINUOUS
 62
     7
 10
417.4376220703125
 20
92.84947967529297
 11
417.9996643066406
 21
91.87599182128906
  0
LINE
  8
0
  6
CONTINUOUS
 62
     7
 10
417.4376831054688
 20
84.03276062011719
 11
413.861572265625
 21
84.03276062011719
  0
LINE
  8
0
  6
CONTINUOUS
 62
     7
 10
417.4376831054688
 20
81.14596557617188
 11
413.861572265625
 21
81.14596557617188
  0
LINE
  8
0
  6
CONTINUOUS
 62
     7
 10
413.8617248535156
 20
81.14241790771484
 11
413.2992248535156
 21
82.11669921875
  0
LINE
  8
0
  6
CONTINUOUS
 62
     7
 10
413.3001708984375
 20
86.99948120117188
 11
413.3001708984375
 21
82.11935424804688
  0
LINE
  8
0
  6
CONTINUOUS
 62
     7
 10
413.30078125
 20
91.87696838378906
 11
413.8628234863281
 21
92.85045623779297
  0
LINE
  8
0
  6
CONTINUOUS
 62
     7
 10
403.649658203125
 20
90.57987976074219
 11
408.224853515625
 21
90.57987976074219
  0
LINE
  8
0
  6
CONTINUOUS
 62
     7
 10
413.300048828125
 20
82.19950866699219
 11
405.800048828125
 21
82.19950866699219
  0
LINE
  8
0
  6
CONTINUOUS
 62
     7
 10
405.800048828125
 20
91.79954528808594
 11
413.300048828125
 21
91.79954528808594
  0
LINE
  8
0
  6
CONTINUOUS
 62
     7
 10
413.3001708984375
 20
91.8798828125
 11
413.3001708984375
 21
86.999755859375
  0
LINE
  8
0
  6
CONTINUOUS
 62
     7
 10
418.0003051757813
 20
91.79998779296875
 11
418.0003051757813
 21
86.91986083984375
  0
LINE
  8
0
  6
CONTINUOUS
 62
     7
 10
413.861572265625
 20
89.96652221679688
 11
417.4376831054688
 21
89.96652221679688
  0
LINE
  8
0
  6
CONTINUOUS
 62
     7
 10
413.861572265625
 20
92.85331726074219
 11
417.4376831054688
 21
92.85331726074219
  0
LINE
  8
0
  6
CONTINUOUS
 62
     7
 10
662.0006103515625
 20
66.79995727539063
 11
663.5006103515625
 21
66.79995727539063
  0
LINE
  8
0
  6
CONTINUOUS
 62
     7
 10
660.0036010742188
 20
98.99546813964844
 11
656.0032958984375
 21
102.9957275390625
  0
LINE
  8
0
  6
CONTINUOUS
 62
     7
 10
663.5005493164063
 20
20.99992179870606
 11
663.5005493164063
 21
66.79995727539063
  0
LINE
  8
0
  6
CONTINUOUS
 62
     7
 10
662.0005493164063
 20
20.99992179870606
 11
662.0005493164063
 21
95.99992370605469
  0
LINE
  8
0
  6
CONTINUOUS
 62
     7
 10
660.0005493164063
 20
15.99991703033447
 11
660.0005493164063
 21
98.99992370605469
  0
LINE
  8
0
  6
CONTINUOUS
 62
     7
 10
660.0006103515625
 20
20.99999046325684
 11
663.5006103515625
 21
20.99999046325684
  0
LINE
  8
0
  6
CONTINUOUS
 62
     7
 10
629.3003540039063
 20
15.99992847442627
 11
660.0006103515625
 21
15.99992847442627
  0
LINE
  8
0
  6
CONTINUOUS
 62
     7
 10
660.0006103515625
 20
95.99992370605469
 11
662.0006103515625
 21
95.99992370605469
  0
LINE
  8
0
  6
CONTINUOUS
 62
     7
 10
629.3003540039063
 20
102.9999084472656
 11
656.0006103515625
 21
102.9999084472656
  0
LINE
  8
0
  6
CONTINUOUS
 62
     7
 10
416.5001831054688
 20
66.79995727539063
 11
418.0001831054688
 21
66.79995727539063
  0
LINE
  8
0
  6
CONTINUOUS
 62
     7
 10
424.0015563964844
 20
102.9951248168945
 11
420.0015563964844
 21
98.99512481689453
  0
LINE
  8
0
  6
CONTINUOUS
 62
     7
 10
416.5003051757813
 20
66.79995727539063
 11
416.5003051757813
 21
20.99992179870606
  0
LINE
  8
0
  6
CONTINUOUS
 62
     7
 10
418.0003051757813
 20
95.99992370605469
 11
418.0003051757813
 21
20.99992179870606
  0
LINE
  8
0
  6
CONTINUOUS
 62
     7
 10
420.0003662109375
 20
98.99992370605469
 11
420.0003662109375
 21
15.99991703033447
  0
LINE
  8
0
  6
CONTINUOUS
 62
     7
 10
416.5001831054688
 20
20.99999046325684
 11
420.000244140625
 21
20.99999046325684
  0
LINE
  8
0
  6
CONTINUOUS
 62
     7
 10
420.000244140625
 20
15.99992847442627
 11
450.7005004882813
 21
15.99992847442627
  0
LINE
  8
0
  6
CONTINUOUS
 62
     7
 10
418.0001831054688
 20
95.99992370605469
 11
420.000244140625
 21
95.99992370605469
  0
LINE
  8
0
  6
CONTINUOUS
 62
     7
 10
424.0001831054688
 20
102.9999084472656
 11
450.7005004882813
 21
102.9999084472656
  0
LINE
  8
0
  6
CONTINUOUS
 62
     7
 10
663.5003051757813
 20
64.99815368652344
 11
855.0003051757813
 21
64.99815368652344
  0
LINE
  8
0
  6
CONTINUOUS
 62
     7
 10
76.50000762939453
 20
95.99999237060547
 11
76.50000762939453
 21
23.0000057220459
  0
LINE
  8
0
  6
CONTINUOUS
 62
     7
 10
-69.49906158447266
 20
103
 11
69.49997711181641
 21
103
  0
LINE
  8
0
  6
CONTINUOUS
 62
     7
 10
69.50141906738281
 20
102.9991149902344
 11
76.50135803222656
 21
95.99916839599609
  0
LINE
  8
0
  6
CONTINUOUS
 62
     7
 10
76.5013427734375
 20
22.99909400939941
 11
69.50120544433594
 21
15.99896049499512
  0
LINE
  8
0
  6
CONTINUOUS
 62
     7
 10
-69.99912261962891
 20
95.99996948242188
 11
70.00003814697266
 21
95.99996948242188
  0
LINE
  8
0
  6
CONTINUOUS
 62
     7
 10
33.49997329711914
 20
20.99999046325684
 11
70.00003814697266
 21
20.99999046325684
  0
LINE
  8
0
  6
CONTINUOUS
 62
     7
 10
75.00000762939453
 20
91
 11
75.00000762939453
 21
26.0000057220459
  0
LINE
  8
0
  6
CONTINUOUS
 62
     7
 10
70.00111389160156
 20
95.99951171875
 11
75.00124359130859
 21
90.99937438964844
  0
LINE
  8
0
  6
CONTINUOUS
 62
     7
 10
75.00141143798828
 20
25.99894332885742
 11
70.00147247314453
 21
20.99900054931641
  0
LINE
  8
0
  6
CONTINUOUS
 62
     7
 10
58.50131988525391
 20
15.9999885559082
 11
47.77871704101563
 21
21.00002288818359
  0
LINE
  8
0
  6
CONTINUOUS
 62
     7
 10
-106.0996475219727
 20
109.9999847412109
 11
-66.19931793212891
 21
109.9999847412109
  0
LINE
  8
0
  6
CONTINUOUS
 62
     7
 10
107.5000381469727
 20
108.3000564575195
 11
107.5000381469727
 21
82
  0
LINE
  8
0
  6
CONTINUOUS
 62
     7
 10
-77.99900054931641
 20
15.99999713897705
 11
-58.49899673461914
 21
15.99999713897705
  0
LINE
  8
0
  6
CONTINUOUS
 62
     7
 10
-58.49843597412109
 20
15.99982929229736
 11
-47.77582931518555
 21
20.99986457824707
  0
LINE
  8
0
  6
CONTINUOUS
 62
     7
 10
-77.99736022949219
 20
16.00023078918457
 11
-88.55372619628906
 21
75.86842346191406
  0
LINE
  8
0
  6
CONTINUOUS
 62
     7
 10
78.00138854980469
 20
15.99971961975098
 11
88.55776214599609
 21
75.86790466308594
  0
LINE
  8
0
  6
CONTINUOUS
 62
     7
 10
-105.4990615844727
 20
79.99998474121094
 11
-93.47946929931641
 21
79.99998474121094
  0
LINE
  8
0
  6
CONTINUOUS
 62
     7
 10
-103.3125991821289
 20
55
 11
-93.26761627197266
 21
55
  0
LINE
  8
0
  6
CONTINUOUS
 62
     7
 10
93.48038482666016
 20
79.99998474121094
 11
105.4999771118164
 21
79.99998474121094
  0
LINE
  8
0
  6
CONTINUOUS
 62
     7
 10
93.26853179931641
 20
55
 11
103.3135147094727
 21
55
  0
LINE
  8
0
  6
CONTINUOUS
 62
     7
 10
-105.4985580444336
 20
79.99964141845703
 11
-107.4984283447266
 21
81.99951934814453
  0
LINE
  8
0
  6
CONTINUOUS
 62
     7
 10
-105.4979705810547
 20
80.00009918212891
 11
-103.3107528686523
 21
55.00014495849609
  0
LINE
  8
0
  6
CONTINUOUS
 62
     7
 10
105.5020980834961
 20
79.99811553955078
 11
107.5020904541016
 21
81.99812316894531
  0
LINE
  8
0
  6
CONTINUOUS
 62
     7
 10
105.50146484375
 20
79.99981689453125
 11
103.3142471313477
 21
54.99985885620117
  0
LINE
  8
0
  6
CONTINUOUS
 62
     7
 10
-64.99906158447266
 20
108.800048828125
 11
-29.99899482727051
 21
108.800048828125
  0
LINE
  8
0
  6
CONTINUOUS
 62
     7
 10
-64.99813842773438
 20
108.7994384765625
 11
-66.19830322265625
 21
109.9996032714844
  0
LINE
  8
0
  6
CONTINUOUS
 62
     7
 10
-29.99800300598145
 20
108.7982940673828
 11
-28.7978572845459
 21
109.998420715332
  0
LINE
  8
0
  6
CONTINUOUS
 62
     7
 10
30.00143814086914
 20
108.799201965332
 11
28.80197334289551
 21
109.998649597168
  0
LINE
  8
0
  6
CONTINUOUS
 62
     7
 10
65.00150299072266
 20
108.7991561889648
 11
66.20147705078125
 21
109.9991302490234
  0
LINE
  8
0
  6
CONTINUOUS
 62
     7
 10
-28.79983711242676
 20
109.9999847412109
 11
28.80075263977051
 21
109.9999847412109
  0
LINE
  8
0
  6
CONTINUOUS
 62
     7
 10
66.20023345947266
 20
109.9999847412109
 11
105.8008193969727
 21
109.9999847412109
  0
LINE
  8
0
  6
CONTINUOUS
 62
     7
 10
29.99991035461426
 20
108.800048828125
 11
64.99997711181641
 21
108.800048828125
  0
LINE
  8
0
  6
CONTINUOUS
 62
     7
 10
58.49991226196289
 20
15.99999713897705
 11
77.99991607666016
 21
15.99999713897705
  0
LINE
  8
0
  6
CONTINUOUS
 62
     7
 10
-107.4998550415039
 20
108.5997543334961
 11
-107.4998550415039
 21
81.99965667724609
  0
LINE
  8
0
  6
CONTINUOUS
 62
     7
 10
-106.0978927612305
 20
109.9983749389648
 11
-107.4980010986328
 21
108.598258972168
  0
LINE
  8
0
  6
CONTINUOUS
 62
     7
 10
105.8015899658203
 20
109.9987945556641
 11
107.5010070800781
 21
108.2993621826172
  0
LINE
  8
0
  6
CENTER
 62
     7
 10
92.50003814697266
 20
110.9999847412109
 11
92.50003814697266
 21
54
  0
LINE
  8
0
  6
CENTER
 62
     7
 10
-7.143585681915283
 20
86.99996948242188
 11
14.14737033843994
 21
86.99996948242188
  0
LINE
  8
0
  6
CONTINUOUS
 62
     7
 10
2.617218255996704
 20
90.49998474121094
 11
6.697174549102783
 21
90.49998474121094
  0
LINE
  8
0
  6
CONTINUOUS
 62
     7
 10
2.617218255996704
 20
83.5
 11
6.697174549102783
 21
83.5
  0
LINE
  8
0
  6
CONTINUOUS
 62
     7
 10
1.967961430549622
 20
86.99986267089844
 11
2.617955207824707
 21
83.49986267089844
  0
LINE
  8
0
  6
CONTINUOUS
 62
     7
 10
1.968388676643372
 20
86.99958038330078
 11
2.618378162384033
 21
90.49955749511719
  0
LINE
  8
0
  6
CONTINUOUS
 62
     7
 10
4.278096675872803
 20
87.00017547607422
 11
4.928146839141846
 21
83.49994659423828
  0
LINE
  8
0
  6
CONTINUOUS
 62
     7
 10
4.278528213500977
 20
86.99956512451172
 11
4.928543567657471
 21
90.49960327148438
  0
LINE
  8
0
  6
CONTINUOUS
 62
     7
 10
6.788893222808838
 20
83.96950531005859
 11
6.698873996734619
 21
83.49945831298828
  0
LINE
  8
0
  6
CONTINUOUS
 62
     7
 10
6.788782119750977
 20
90.0201416015625
 11
6.698793888092041
 21
90.50003051757813
  0
LINE
  8
0
  6
CONTINUOUS
 62
     7
 10
8.603983879089356
 20
83.7540283203125
 11
11.35832405090332
 21
84.49978637695313
  0
LINE
  8
0
  6
CONTINUOUS
 62
     7
 10
8.587667465209961
 20
90.24959564208984
 11
11.35809326171875
 21
89.49948120117188
  0
LINE
  8
0
  6
CONTINUOUS
 62
     7
 10
3.939214706420898
 20
90.49980926513672
 11
0.001505370601080358
 21
92.77324676513672
  0
LINE
  8
0
  6
CONTINUOUS
 62
     7
 10
0.0009753613849170506
 20
81.22618865966797
 11
3.938684701919556
 21
83.49962615966797
  0
LINE
  8
0
  6
CONTINUOUS
 62
     7
 10
-32.72763442993164
 20
67
 11
32.72854995727539
 21
67
  0
LINE
  8
0
  6
CONTINUOUS
 62
     7
 10
32.72964477539063
 20
66.99971008300781
 11
44.50112533569336
 21
55.22821426391602
  0
LINE
  8
0
  6
CONTINUOUS
 62
     7
 10
44.50003433227539
 20
55.22828674316406
 11
44.50003433227539
 21
46.77146911621094
  0
LINE
  8
0
  6
CONTINUOUS
 62
     7
 10
30.50134086608887
 20
32.77065277099609
 11
44.50142288208008
 21
46.77073287963867
  0
LINE
  8
0
  6
CONTINUOUS
 62
     7
 10
30.49997138977051
 20
32.77147674560547
 11
30.49997138977051
 21
26.8283748626709
  0
LINE
  8
0
  6
CONTINUOUS
 62
     7
 10
30.50153732299805
 20
26.82805252075195
 11
36.32959747314453
 21
20.99998474121094
  0
LINE
  8
0
  6
CONTINUOUS
 62
     7
 10
42.49997329711914
 20
54.39991760253906
 11
42.49997329711914
 21
47.59983825683594
  0
LINE
  8
0
  6
CONTINUOUS
 62
     7
 10
-31.89944648742676
 20
65.00000762939453
 11
31.90036201477051
 21
65.00000762939453
  0
LINE
  8
0
  6
CONTINUOUS
 62
     7
 10
42.50150680541992
 20
1.998398900032044
 11
40.50137329101563
 21
-0.001727876602672041
  0
LINE
  8
0
  6
CONTINUOUS
 62
     7
 10
28.50000190734863
 20
33.59984588623047
 11
28.50000190734863
 21
26.0000057220459
  0
LINE
  8
0
  6
CONTINUOUS
 62
     7
 10
28.50143814086914
 20
25.99918556213379
 11
42.50131607055664
 21
11.99929141998291
  0
LINE
  8
0
  6
CONTINUOUS
 62
     7
 10
28.50146865844727
 20
33.59903335571289
 11
33.4177360534668
 21
38.51530075073242
  0
LINE
  8
0
  6
CONTINUOUS
 62
     7
 10
31.90168190002441
 20
64.99909973144531
 11
33.41809463500977
 21
63.48268127441406
  0
LINE
  8
0
  6
CONTINUOUS
 62
     7
 10
42.49997329711914
 20
11.99976062774658
 11
42.49997329711914
 21
2.000004053115845
  0
LINE
  8
0
  6
CONTINUOUS
 62
     7
 10
40.70183944702148
 20
56.19892501831055
 11
42.50135040283203
 21
54.3994140625
  0
LINE
  8
0
  6
CONTINUOUS
 62
     7
 10
40.70200729370117
 20
45.7995719909668
 11
42.5013542175293
 21
47.59891891479492
  0
LINE
  8
0
  6
CONTINUOUS
 62
     7
 10
14.99990940093994
 20
0.9999962449073792
 11
29.99991035461426
 21
0.9999962449073792
  0
LINE
  8
0
  6
CONTINUOUS
 62
     7
 10
30.00093269348145
 20
1.000140428543091
 11
30.57835197448731
 21
1.279103435081197E-005
  0
LINE
  8
0
  6
CONTINUOUS
 62
     7
 10
15.00159549713135
 20
0.9993127584457398
 11
14.4241943359375
 21
-0.0007734752143733203
  0
LINE
  8
0
  6
CONTINUOUS
 62
     7
 10
30.57815742492676
 20
0
 11
40.49991226196289
 21
0
  0
LINE
  8
0
  6
CONTINUOUS
 62
     7
 10
-14.42184543609619
 20
0
 11
14.42276096343994
 21
0
  0
LINE
  8
0
  6
CENTER
 62
     7
 10
0
 20
110.9999847412109
 11
0
 21
-7.369869709014893
  0
LINE
  8
0
  6
DASHED
 62
     7
 10
-17.49911689758301
 20
37
 11
17.50003242492676
 21
37
  0
LINE
  8
0
  6
CONTINUOUS
 62
     7
 10
-76.49900054931641
 20
23.0000057220459
 11
-76.49900054931641
 21
95.99999237060547
  0
LINE
  8
0
  6
CONTINUOUS
 62
     7
 10
-76.49889373779297
 20
95.99935913085938
 11
-69.49892425537109
 21
102.9993362426758
  0
LINE
  8
0
  6
CONTINUOUS
 62
     7
 10
-69.49861145019531
 20
15.99975109100342
 11
-76.49855804443359
 21
22.99969291687012
  0
LINE
  8
0
  6
CONTINUOUS
 62
     7
 10
-69.99912261962891
 20
20.99999046325684
 11
-33.49905776977539
 21
20.99999046325684
  0
LINE
  8
0
  6
CONTINUOUS
 62
     7
 10
-74.99900054931641
 20
26.0000057220459
 11
-74.99900054931641
 21
91
  0
LINE
  8
0
  6
CONTINUOUS
 62
     7
 10
-74.99848937988281
 20
90.99920654296875
 11
-69.99851226806641
 21
95.99918365478516
  0
LINE
  8
0
  6
CONTINUOUS
 62
     7
 10
-69.99884796142578
 20
20.99948883056641
 11
-74.99897766113281
 21
25.99962615966797
  0
LINE
  8
0
  6
CONTINUOUS
 62
     7
 10
-4.180845280643553E-005
 20
92.77311706542969
 11
-4.999760627746582
 21
89.88653564453125
  0
LINE
  8
0
  6
CONTINUOUS
 62
     7
 10
-4.998683929443359
 20
84.11284637451172
 11
0.0005195399862714112
 21
81.22655487060547
  0
LINE
  8
0
  6
CONTINUOUS
 62
     7
 10
-4.999054431915283
 20
89.88671875
 11
-4.999054431915283
 21
84.113037109375
  0
LINE
  8
0
  6
CONTINUOUS
 62
     7
 10
54.9531364440918
 20
15.99999713897705
 11
44.23062133789063
 21
20.99999046325684
  0
LINE
  8
0
  6
CONTINUOUS
 62
     7
 10
54.95510864257813
 20
15.9993896484375
 11
55.5888557434082
 21
17.35837936401367
  0
LINE
  8
0
  6
CONTINUOUS
 62
     7
 10
-44.22864532470703
 20
20.99999046325684
 11
-54.94893264770508
 21
16.00103569030762
  0
LINE
  8
0
  6
CONTINUOUS
 62
     7
 10
-55.58523559570313
 20
17.35969352722168
 11
-54.95145034790039
 21
16.00061988830566
  0
LINE
  8
0
  6
DASHED
 62
     7
 10
-17.5
 20
65.00000762939453
 11
-17.5
 21
37
  0
LINE
  8
0
  6
DASHED
 62
     7
 10
17.5
 20
65.00000762939453
 11
17.5
 21
37
  0
LINE
  8
0
  6
DASHED
 62
     7
 10
12
 20
37
 11
12
 21
0
  0
LINE
  8
0
  6
DASHED
 62
     7
 10
-12
 20
37
 11
-12
 21
0
  0
LINE
  8
0
  6
CONTINUOUS
 62
     7
 10
595.0003662109375
 20
74.99992370605469
 11
595.0003662109375
 21
59.99992370605469
  0
LINE
  8
0
  6
CENTER
 62
     7
 10
610.0003051757813
 20
19.60195732116699
 11
610.0003051757813
 21
110.9999847412109
  0
LINE
  8
0
  6
CONTINUOUS
 62
     7
 10
225.0003051757813
 20
0
 11
225.0003051757813
 21
64.99998474121094
  0
LINE
  8
0
  6
DASHED
 62
     7
 10
287.5003051757813
 20
65.00000762939453
 11
287.5003051757813
 21
37
  0
LINE
  8
0
  6
DASHED
 62
     7
 10
258.0003051757813
 20
37
 11
258.0003051757813
 21
0
  0
LINE
  8
0
  6
DASHED
 62
     7
 10
252.5011749267578
 20
37
 11
287.5003356933594
 21
37
  0
LINE
  8
0
  6
DASHED
 62
     7
 10
282.0003051757813
 20
37
 11
282.0003051757813
 21
0
  0
LINE
  8
0
  6
DASHED
 62
     7
 10
252.5003051757813
 20
65.00000762939453
 11
252.5003051757813
 21
37
  0
LINE
  8
0
  6
CENTER
 62
     7
 10
270.0003051757813
 20
65.99998474121094
 11
270.0003051757813
 21
-1
  0
LINE
  8
0
  6
CENTER
 62
     7
 10
810.0003051757813
 20
65.99998474121094
 11
810.0003051757813
 21
-1
  0
LINE
  8
0
  6
CONTINUOUS
 62
     7
 10
855.0003051757813
 20
0
 11
855.0003051757813
 21
64.99815368652344
  0
LINE
  8
0
  6
CONTINUOUS
 62
     7
 10
-30.57815742492676
 20
0
 11
-40.49991226196289
 21
0
  0
LINE
  8
0
  6
CONTINUOUS
 62
     7
 10
-14.99990940093994
 20
0.9999962449073792
 11
-29.99991035461426
 21
0.9999962449073792
  0
LINE
  8
0
  6
CONTINUOUS
 62
     7
 10
-40.70200729370117
 20
45.7995719909668
 11
-42.5013542175293
 21
47.59891891479492
  0
LINE
  8
0
  6
CONTINUOUS
 62
     7
 10
-40.70183944702148
 20
56.19892501831055
 11
-42.50135040283203
 21
54.3994140625
  0
LINE
  8
0
  6
CONTINUOUS
 62
     7
 10
-42.49997329711914
 20
11.99976062774658
 11
-42.49997329711914
 21
2.000004053115845
  0
LINE
  8
0
  6
CONTINUOUS
 62
     7
 10
-31.90168190002441
 20
64.99909973144531
 11
-33.41809463500977
 21
63.48268127441406
  0
LINE
  8
0
  6
CONTINUOUS
 62
     7
 10
-28.50146865844727
 20
33.59903335571289
 11
-33.4177360534668
 21
38.51530075073242
  0
LINE
  8
0
  6
CONTINUOUS
 62
     7
 10
-28.50143814086914
 20
25.99918556213379
 11
-42.50131607055664
 21
11.99929141998291
  0
LINE
  8
0
  6
CONTINUOUS
 62
     7
 10
-28.50000190734863
 20
33.59984588623047
 11
-28.50000190734863
 21
26.0000057220459
  0
LINE
  8
0
  6
CONTINUOUS
 62
     7
 10
-42.50150680541992
 20
1.998398900032044
 11
-40.50137329101563
 21
-0.001727876602672041
  0
LINE
  8
0
  6
CONTINUOUS
 62
     7
 10
-42.49997329711914
 20
54.39991760253906
 11
-42.49997329711914
 21
47.59983825683594
  0
LINE
  8
0
  6
CONTINUOUS
 62
     7
 10
-30.50153732299805
 20
26.82805252075195
 11
-36.32959747314453
 21
20.99998474121094
  0
LINE
  8
0
  6
CONTINUOUS
 62
     7
 10
-30.49997138977051
 20
32.77147674560547
 11
-30.49997138977051
 21
26.8283748626709
  0
LINE
  8
0
  6
CONTINUOUS
 62
     7
 10
-30.50134086608887
 20
32.77065277099609
 11
-44.50142288208008
 21
46.77073287963867
  0
LINE
  8
0
  6
CONTINUOUS
 62
     7
 10
-44.50003433227539
 20
55.22828674316406
 11
-44.50003433227539
 21
46.77146911621094
  0
LINE
  8
0
  6
CONTINUOUS
 62
     7
 10
-32.72964477539063
 20
66.99971008300781
 11
-44.50112533569336
 21
55.22821426391602
  0
LINE
  8
0
  6
CONTINUOUS
 62
     7
 10
-30.00093269348145
 20
1.000140428543091
 11
-30.57835197448731
 21
1.279103435081197E-005
  0
LINE
  8
0
  6
CONTINUOUS
 62
     7
 10
-15.00159549713135
 20
0.9993127584457398
 11
-14.4241943359375
 21
-0.0007734752143733203
  0
LINE
  8
0
  6
CENTER
 62
     7
 10
-92.5
 20
110.9999847412109
 11
-92.5
 21
54
  0
LINE
  8
0
  6
CONTINUOUS
 62
     7
 10
225.0003051757813
 20
54.39991760253906
 11
416.5003051757813
 21
54.39991760253906
  0
LINE
  8
0
  6
CONTINUOUS
 62
     7
 10
225.0003051757813
 20
47.59983825683594
 11
416.5003051757813
 21
47.59983825683594
  0
LINE
  8
0
  6
CONTINUOUS
 62
     7
 10
225.0003051757813
 20
33.59984588623047
 11
416.5003051757813
 21
33.59984588623047
  0
LINE
  8
0
  6
CONTINUOUS
 62
     7
 10
225.0003051757813
 20
26.0000057220459
 11
416.5003051757813
 21
26.0000057220459
  0
LINE
  8
0
  6
CONTINUOUS
 62
     7
 10
225.0003051757813
 20
11.99976062774658
 11
855.0003051757813
 21
11.99976062774658
  0
LINE
  8
0
  6
CONTINUOUS
 62
     7
 10
855.0003051757813
 20
26.0000057220459
 11
663.5005493164063
 21
26.0000057220459
  0
LINE
  8
0
  6
CONTINUOUS
 62
     7
 10
855.0003051757813
 20
33.59984588623047
 11
663.5005493164063
 21
33.59984588623047
  0
LINE
  8
0
  6
CONTINUOUS
 62
     7
 10
855.0003051757813
 20
47.59983825683594
 11
663.5005493164063
 21
47.59983825683594
  0
LINE
  8
0
  6
CONTINUOUS
 62
     7
 10
855.0003051757813
 20
54.39991760253906
 11
663.5005493164063
 21
54.39991760253906
  0
LINE
  8
0
  6
CENTER
 62
     7
 10
450.0003051757813
 20
16.99992752075195
 11
450.0003051757813
 21
-1
  0
LINE
  8
0
  6
CENTER
 62
     7
 10
630.0003051757813
 20
16.99992752075195
 11
630.0003051757813
 21
-1
  0
LINE
  8
0
  6
CONTINUOUS
 62
     7
 10
450.7005310058594
 20
290
 11
629.300048828125
 21
290
  0
LINE
  8
0
  6
CENTER
 62
     7
 10
856.0003051757813
 20
397.5
 11
224.0003051757813
 21
397.5
  0
LINE
  8
0
  6
CONTINUOUS
 62
     7
 10
450.7005310058594
 20
505
 11
450.7005310058594
 21
290
  0
LINE
  8
0
  6
CONTINUOUS
 62
     7
 10
420.0003662109375
 20
474
 11
420.0003662109375
 21
320.9999694824219
  0
LINE
  8
0
  6
CONTINUOUS
 62
     7
 10
418.0003051757813
 20
472.5
 11
418.0003051757813
 21
322.4999694824219
  0
LINE
  8
0
  6
CONTINUOUS
 62
     7
 10
416.5003051757813
 20
442.0000305175781
 11
416.5003051757813
 21
402.5
  0
LINE
  8
0
  6
CONTINUOUS
 62
     7
 10
418.0003051757813
 20
322.4999694824219
 11
420.0003662109375
 21
322.4999694824219
  0
LINE
  8
0
  6
CONTINUOUS
 62
     7
 10
420.0003662109375
 20
320.9999694824219
 11
450.7005310058594
 21
320.9999694824219
  0
LINE
  8
0
  6
CONTINUOUS
 62
     7
 10
416.5003051757813
 20
352.9999694824219
 11
418.0003051757813
 21
352.9999694824219
  0
LINE
  8
0
  6
CONTINUOUS
 62
     7
 10
418.0003051757813
 20
472.5
 11
420.0003662109375
 21
472.5
  0
LINE
  8
0
  6
CONTINUOUS
 62
     7
 10
420.0003662109375
 20
474
 11
450.7005310058594
 21
474
  0
LINE
  8
0
  6
CONTINUOUS
 62
     7
 10
416.5003051757813
 20
442.0000305175781
 11
418.0003051757813
 21
442.0000305175781
  0
LINE
  8
0
  6
CONTINUOUS
 62
     7
 10
225.0003051757813
 20
439.9999694824219
 11
225.0003051757813
 21
355.0000305175781
  0
LINE
  8
0
  6
CONTINUOUS
 62
     7
 10
225.0003051757813
 20
355.0000305175781
 11
416.5003051757813
 21
355.0000305175781
  0
LINE
  8
0
  6
CONTINUOUS
 62
     7
 10
225.0003051757813
 20
439.9999694824219
 11
416.5003051757813
 21
439.9999694824219
  0
LINE
  8
0
  6
CONTINUOUS
 62
     7
 10
225.0003051757813
 20
364.0828857421875
 11
416.5003051757813
 21
364.0828857421875
  0
LINE
  8
0
  6
CONTINUOUS
 62
     7
 10
225.0003051757813
 20
356.7985534667969
 11
416.5003051757813
 21
356.7985534667969
  0
LINE
  8
0
  6
CONTINUOUS
 62
     7
 10
225.0003051757813
 20
438.201416015625
 11
416.5003051757813
 21
438.201416015625
  0
LINE
  8
0
  6
CONTINUOUS
 62
     7
 10
225.0003051757813
 20
430.9170837402344
 11
416.5003051757813
 21
430.9170837402344
  0
LINE
  8
0
  6
CENTER
 62
     7
 10
270.0003051757813
 20
416
 11
270.0003051757813
 21
379
  0
LINE
  8
0
  6
CENTER
 62
     7
 10
810.0003051757813
 20
416
 11
810.0003051757813
 21
379
  0
LINE
  8
0
  6
CENTER
 62
     7
 10
630.0003051757813
 20
416
 11
630.0003051757813
 21
379
  0
LINE
  8
0
  6
CONTINUOUS
 62
     7
 10
855.0003051757813
 20
430.9170837402344
 11
663.5003051757813
 21
430.9170837402344
  0
LINE
  8
0
  6
CONTINUOUS
 62
     7
 10
855.0003051757813
 20
438.201416015625
 11
663.5003051757813
 21
438.201416015625
  0
LINE
  8
0
  6
CONTINUOUS
 62
     7
 10
855.0003051757813
 20
356.7985534667969
 11
663.5003051757813
 21
356.7985534667969
  0
LINE
  8
0
  6
CONTINUOUS
 62
     7
 10
629.300048828125
 20
505
 11
629.300048828125
 21
290
  0
LINE
  8
0
  6
CONTINUOUS
 62
     7
 10
660.000244140625
 20
474
 11
660.000244140625
 21
320.9999694824219
  0
LINE
  8
0
  6
CONTINUOUS
 62
     7
 10
662.0003051757813
 20
472.5
 11
662.0003051757813
 21
322.4999694824219
  0
LINE
  8
0
  6
CONTINUOUS
 62
     7
 10
663.5003051757813
 20
442.0000305175781
 11
663.5003051757813
 21
352.9999694824219
  0
LINE
  8
0
  6
CONTINUOUS
 62
     7
 10
855.0003051757813
 20
364.0828857421875
 11
663.5003051757813
 21
364.0828857421875
  0
LINE
  8
0
  6
CONTINUOUS
 62
     7
 10
855.0003051757813
 20
439.9999694824219
 11
663.5003051757813
 21
439.9999694824219
  0
LINE
  8
0
  6
CONTINUOUS
 62
     7
 10
662.0003051757813
 20
322.4999694824219
 11
660.000244140625
 21
322.4999694824219
  0
LINE
  8
0
  6
CONTINUOUS
 62
     7
 10
660.000244140625
 20
320.9999694824219
 11
629.300048828125
 21
320.9999694824219
  0
LINE
  8
0
  6
CONTINUOUS
 62
     7
 10
855.0003051757813
 20
355.0000305175781
 11
663.5003051757813
 21
355.0000305175781
  0
LINE
  8
0
  6
CONTINUOUS
 62
     7
 10
663.5003051757813
 20
352.9999694824219
 11
662.0003051757813
 21
352.9999694824219
  0
LINE
  8
0
  6
CONTINUOUS
 62
     7
 10
662.0003051757813
 20
472.5
 11
660.000244140625
 21
472.5
  0
LINE
  8
0
  6
CONTINUOUS
 62
     7
 10
660.000244140625
 20
474
 11
629.300048828125
 21
474
  0
LINE
  8
0
  6
CONTINUOUS
 62
     7
 10
855.0003051757813
 20
439.9999694824219
 11
855.0003051757813
 21
355.0000305175781
  0
LINE
  8
0
  6
CONTINUOUS
 62
     7
 10
663.5003051757813
 20
442.0000305175781
 11
662.0003051757813
 21
442.0000305175781
  0
LINE
  8
0
  6
CONTINUOUS
 62
     7
 10
450.7005310058594
 20
505
 11
629.300048828125
 21
505
  0
LINE
  8
0
  6
CONTINUOUS
 62
     7
 10
450.7005310058594
 20
368.6992492675781
 11
629.300048828125
 21
368.6992492675781
  0
LINE
  8
0
  6
CONTINUOUS
 62
     7
 10
450.7005310058594
 20
331.2997436523438
 11
629.300048828125
 21
331.2997436523438
  0
LINE
  8
0
  6
CENTER
 62
     7
 10
450.0003051757813
 20
416
 11
450.0003051757813
 21
379
  0
LINE
  8
0
  6
CENTER
 62
     7
 10
470.0003051757813
 20
316
 11
470.0003051757813
 21
294
  0
LINE
  8
0
  6
CENTER
 62
     7
 10
459.0003051757813
 20
305
 11
481.0003051757813
 21
305
  0
LINE
  8
0
  6
CENTER
 62
     7
 10
621.0003051757813
 20
305
 11
599.0003051757813
 21
305
  0
LINE
  8
0
  6
CENTER
 62
     7
 10
610.0003051757813
 20
316
 11
610.0003051757813
 21
294
  0
LINE
  8
0
  6
CENTER
 62
     7
 10
459.0003051757813
 20
490
 11
481.0003051757813
 21
490
  0
LINE
  8
0
  6
CENTER
 62
     7
 10
470.0003051757813
 20
479
 11
470.0003051757813
 21
501
  0
LINE
  8
0
  6
CENTER
 62
     7
 10
610.0003051757813
 20
479
 11
610.0003051757813
 21
501
  0
LINE
  8
0
  6
CONTINUOUS
 62
     7
 10
450.7005310058594
 20
426.3007507324219
 11
629.300048828125
 21
426.3007507324219
  0
LINE
  8
0
  6
CONTINUOUS
 62
     7
 10
450.7005310058594
 20
463.7002258300781
 11
629.300048828125
 21
463.7002258300781
  0
LINE
  8
0
  6
CENTER
 62
     7
 10
621.0003051757813
 20
490
 11
599.0003051757813
 21
490
  0
LINE
  8
0
  6
CENTER
 62
     7
 10
403.2179260253906
 20
385.0264892578125
 11
408.5420532226563
 21
397.8800659179688
  0
LINE
  8
0
  6
CONTINUOUS
 62
     7
 10
401.38330078125
 20
386.8688354492188
 11
405.8179321289063
 21
385.0319519042969
  0
LINE
  8
0
  6
CONTINUOUS
 62
     7
 10
401.5850830078125
 20
389.7077331542969
 11
407.6826477050781
 21
387.1820068359375
  0
LINE
  8
0
  6
CONTINUOUS
 62
     7
 10
401.38330078125
 20
386.8688354492188
 11
401.5850830078125
 21
389.7077026367188
  0
LINE
  8
0
  6
CONTINUOUS
 62
     7
 10
405.8179931640625
 20
385.0319519042969
 11
407.6826782226563
 21
387.1819763183594
  0
LINE
  8
0
  6
CONTINUOUS
 62
     7
 10
402.3237609863281
 20
393.4285583496094
 11
402.7384338378906
 21
394.4296264648438
  0
LINE
  8
0
  6
CONTINUOUS
 62
     7
 10
409.7914123535156
 20
390.3354187011719
 11
410.2060241699219
 21
391.33642578125
  0
LINE
  8
0
  6
CONTINUOUS
 62
     7
 10
403.5178833007813
 20
394.75244140625
 11
402.7384948730469
 21
394.4295959472656
  0
LINE
  8
0
  6
CONTINUOUS
 62
     7
 10
403.9610595703125
 20
392.1009521484375
 11
404.8336486816406
 21
394.2074890136719
  0
LINE
  8
0
  6
CONTINUOUS
 62
     7
 10
407.6948547363281
 20
390.5544128417969
 11
408.5674133300781
 21
392.6609497070313
  0
LINE
  8
0
  6
CONTINUOUS
 62
     7
 10
402.8790283203125
 20
395.0171508789063
 11
409.8831787109375
 21
392.1159362792969
  0
LINE
  8
0
  6
CONTINUOUS
 62
     7
 10
410.2060546875
 20
391.33642578125
 11
409.8831787109375
 21
392.1158752441406
  0
LINE
  8
0
  6
CONTINUOUS
 62
     7
 10
402.71533203125
 20
391.1298522949219
 11
407.8890380859375
 21
388.98681640625
  0
LINE
  8
0
  6
CONTINUOUS
 62
     7
 10
413.30029296875
 20
402.5
 11
413.30029296875
 21
392.5
  0
LINE
  8
0
  6
CONTINUOUS
 62
     7
 10
402.80029296875
 20
399.2999877929688
 11
402.80029296875
 21
395.6452941894531
  0
LINE
  8
0
  6
CONTINUOUS
 62
     7
 10
413.30029296875
 20
402.5
 11
418.0003051757813
 21
402.5
  0
LINE
  8
0
  6
CONTINUOUS
 62
     7
 10
405.80029296875
 20
402.2999877929688
 11
413.30029296875
 21
402.2999877929688
  0
LINE
  8
0
  6
CONTINUOUS
 62
     7
 10
408.47314453125
 20
392.6999816894531
 11
413.30029296875
 21
392.6999816894531
  0
LINE
  8
0
  6
CONTINUOUS
 62
     7
 10
413.30029296875
 20
392.5
 11
418.0003051757813
 21
392.5
  0
LINE
  8
0
  6
CONTINUOUS
 62
     7
 10
402.5535583496094
 20
392.6840209960938
 11
409.0106201171875
 21
390.0093994140625
  0
LINE
  8
0
  6
CONTINUOUS
 62
     7
 10
416.5003051757813
 20
392.5
 11
416.5003051757813
 21
352.9999694824219
  0
LINE
  8
0
  6
DASHED
 62
     7
 10
-93.48043823242188
 20
79.99998474121094
 11
-79.49996948242188
 21
79.99998474121094
  0
LINE
  8
0
  6
DASHED
 62
     7
 10
-79.49996948242188
 20
79.99998474121094
 11
-79.49996948242188
 21
24.51540565490723
  0
LINE
  8
0
  6
DASHED
 62
     7
 10
-83.5
 20
109.9999847412109
 11
-83.5
 21
79.99998474121094
  0
LINE
  8
0
  6
DASHED
 62
     7
 10
-101.5
 20
109.9999847412109
 11
-101.5
 21
79.99998474121094
  0
LINE
  8
0
  6
CONTINUOUS
 62
     7
 10
457.0001525878906
 20
80.00001525878906
 11
470.0002136230469
 21
24.49405097961426
  0
LINE
  8
0
  6
DASHED
 62
     7
 10
460.9993286132813
 20
109.9999847412109
 11
460.9993286132813
 21
79.99998474121094
  0
LINE
  8
0
  6
DASHED
 62
     7
 10
478.9993591308594
 20
109.9999847412109
 11
478.9993591308594
 21
79.99998474121094
  0
LINE
  8
0
  6
CONTINUOUS
 62
     7
 10
470.0000915527344
 20
24.49418449401856
 11
482.7993774414063
 21
79.1429443359375
  0
LINE
  8
0
  6
CONTINUOUS
 62
     7
 10
610.0005493164063
 20
24.49419212341309
 11
597.2012329101563
 21
79.14295196533203
  0
LINE
  8
0
  6
CONTINUOUS
 62
     7
 10
623.00048828125
 20
80.00000762939453
 11
610.0004272460938
 21
24.49404525756836
  0
LINE
  8
0
  6
DASHED
 62
     7
 10
8.998993873596191
 20
109.9999618530273
 11
8.998993873596191
 21
86.99996948242188
  0
LINE
  8
0
  6
DASHED
 62
     7
 10
-9.001008033752441
 20
109.9999618530273
 11
-9.001008033752441
 21
86.99996948242188
  0
LINE
  8
0
  6
DASHED
 62
     7
 10
-13.00003147125244
 20
86.99996948242188
 11
-13.00003147125244
 21
69.99997711181641
  0
LINE
  8
0
  6
DASHED
 62
     7
 10
-13.00003147125244
 20
86.99996948242188
 11
13.00003147125244
 21
86.99996948242188
  0
LINE
  8
0
  6
DASHED
 62
     7
 10
13.00003147125244
 20
86.99996948242188
 11
13.00003147125244
 21
69.99997711181641
  0
LINE
  8
0
  6
DASHED
 62
     7
 10
-13.99997043609619
 20
69.99997711181641
 11
13.99997043609619
 21
69.99997711181641
  0
LINE
  8
0
  6
CENTER
 62
     7
 10
610.0003051757813
 20
386.5
 11
610.0003051757813
 21
408.5
  0
LINE
  8
0
  6
CENTER
 62
     7
 10
470.0003051757813
 20
386.5
 11
470.0003051757813
 21
408.5
  0
ARC
  8
0
  6
CONTINUOUS
 62
     7
 10
421.6184692382813
 20
80.71562194824219
 40
8.43573760986328
 50
156.8417978355429
 51
170.4174271883469
  0
ARC
  8
0
  6
CONTINUOUS
 62
     7
 10
421.6184692382813
 20
93.28416442871094
 40
8.435737609863256
 50
189.5825728116531
 51
203.1582021644572
  0
ARC
  8
0
  6
CONTINUOUS
 62
     7
 10
421.4114379882813
 20
86.99980163574219
 40
8.11116790771486
 50
158.545684146651
 51
201.4542985505049
  0
ARC
  8
0
  6
CONTINUOUS
 62
     7
 10
405.8001708984375
 20
88.79977416992188
 40
2.999999046325689
 50
89.99998201391068
 51
165.8646416536697
  0
ARC
  8
0
  6
CONTINUOUS
 62
     7
 10
405.8001708984375
 20
85.19992065429688
 40
2.999999046325698
 50
195.6428630584219
 51
270.0000726276027
  0
ARC
  8
0
  6
CONTINUOUS
 62
     7
 10
409.6820068359375
 20
93.28416442871094
 40
8.435737609863262
 50
336.8417996567757
 51
350.4174290095797
  0
ARC
  8
0
  6
CONTINUOUS
 62
     7
 10
490.0003051757813
 20
59.99992370605469
 40
4.999996185302754
 50
179.9999640278213
 51
270.0000006832455
  0
ARC
  8
0
  6
CONTINUOUS
 62
     7
 10
480.0003662109375
 20
74.99992370605469
 40
4.999996185302734
 50
0
 51
89.99998201391092
  0
ARC
  8
0
  6
CONTINUOUS
 62
     7
 10
409.8889770507813
 20
86.99980163574219
 40
8.111167907714826
 50
338.5457030433566
 51
21.45431403211611
  0
ARC
  8
0
  6
CONTINUOUS
 62
     7
 10
409.6820068359375
 20
80.71562194824219
 40
8.435737609863297
 50
9.582570990420285
 51
23.15820034322435
  0
ARC
  8
0
  6
CONTINUOUS
 62
     7
 10
40.84570693969727
 20
63.6279296875
 40
7.429996013641359
 50
181.1136300144576
 51
268.8863146607837
  0
ARC
  8
0
  6
CONTINUOUS
 62
     7
 10
-51.10258102416992
 20
21.5450611114502
 40
4.99998903274536
 50
247.8298796383883
 51
342.1701121905727
  0
ARC
  8
0
  6
CONTINUOUS
 62
     7
 10
51.10423278808594
 20
21.54429054260254
 40
4.999989032745362
 50
197.8298896306601
 51
292.1701563337904
  0
ARC
  8
0
  6
CONTINUOUS
 62
     7
 10
7.457062244415283
 20
82.919921875
 40
1.246147155761712
 50
80.76452806729954
 51
142.1250351177263
  0
ARC
  8
0
  6
CONTINUOUS
 62
     7
 10
8.447297096252441
 20
89.29002380371094
 40
0.970160663127899
 50
81.70288677623256
 51
144.6685429231262
  0
ARC
  8
0
  6
CONTINUOUS
 62
     7
 10
93.48047637939453
 20
74.99999237060547
 40
4.99999618530273
 50
90.00009129693731
 51
170.000020667789
  0
ARC
  8
0
  6
CONTINUOUS
 62
     7
 10
-93.26761627197266
 20
44.99999237060547
 40
9.999996185302734
 50
9.99997751097812
 51
89.99987273088389
  0
ARC
  8
0
  6
CONTINUOUS
 62
     7
 10
93.26853179931641
 20
44.99999237060547
 40
9.999996185302734
 50
90.00003665542397
 51
170.000020667789
  0
ARC
  8
0
  6
CONTINUOUS
 62
     7
 10
8.447297096252441
 20
84.7099609375
 40
0.9683417677879301
 50
215.3314570768738
 51
278.297222506794
  0
ARC
  8
0
  6
CONTINUOUS
 62
     7
 10
-93.47946929931641
 20
74.99999237060547
 40
4.999996185302742
 50
9.999970680788934
 51
89.99987273088388
  0
ARC
  8
0
  6
CONTINUOUS
 62
     7
 10
40.84570693969727
 20
38.371826171875
 40
7.429996013641358
 50
91.1134667731628
 51
178.8864792685692
  0
ARC
  8
0
  6
CONTINUOUS
 62
     7
 10
7.457062244415283
 20
91.079833984375
 40
1.254198074340825
 50
217.8749648822737
 51
279.2353626496737
  0
ARC
  8
0
  6
CONTINUOUS
 62
     7
 10
0.001007080194540322
 20
86.99996948242188
 40
4.799995422363283
 50
46.81658568465237
 51
313.1834072577873
  0
ARC
  8
0
  6
CONTINUOUS
 62
     7
 10
600.000244140625
 20
74.99992370605469
 40
4.999996185302734
 50
90.00001616485677
 51
180.0000050089564
  0
ARC
  8
0
  6
CONTINUOUS
 62
     7
 10
590.0003051757813
 20
59.99992370605469
 40
4.999996185302732
 50
269.9999974955216
 51
3.597217808019434E-005
  0
ARC
  8
0
  6
CONTINUOUS
 62
     7
 10
-40.84570693969727
 20
63.6279296875
 40
7.42999601364136
 50
271.1136871604491
 51
358.8863699925063
  0
ARC
  8
0
  6
CONTINUOUS
 62
     7
 10
-40.84570693969727
 20
38.371826171875
 40
7.429996013641357
 50
1.113520724466989
 51
88.88653140560433
  0
CIRCLE
  8
0
  6
CONTINUOUS
 62
     7
 10
270.0003051757813
 20
397.5
 40
17.5
  0
CIRCLE
  8
0
  6
CONTINUOUS
 62
     7
 10
270.0003051757813
 20
397.5
 40
12
  0
ARC
  8
0
  6
CONTINUOUS
 62
     7
 10
404.6338500976563
 20
388.4448852539063
 40
3.299999237060546
 50
131.5803705110077
 51
157.4999548639656
  0
ARC
  8
0
  6
CONTINUOUS
 62
     7
 10
404.6338500976563
 20
388.4448852539063
 40
3.299999237060556
 50
337.5000181569004
 51
3.419602296414665
  0
ARC
  8
0
  6
CONTINUOUS
 62
     7
 10
396.717529296875
 20
391.2909851074219
 40
6.000000000000008
 50
2.433650829345248
 51
20.87173987704925
  0
ARC
  8
0
  6
CONTINUOUS
 62
     7
 10
412.2440795898438
 20
384.8596801757813
 40
6.000000000000011
 50
114.1278165022775
 51
132.566321978077
  0
ARC
  8
0
  6
CONTINUOUS
 62
     7
 10
401.912841796875
 20
391.5117797851563
 40
0.7999999523163035
 50
311.579832747295
 51
2.433049772696593
  0
ARC
  8
0
  6
CONTINUOUS
 62
     7
 10
408.7265625
 20
388.689453125
 40
0.7999999523162747
 50
132.5669776762372
 51
183.4201402735693
  0
ARC
  8
0
  6
CONTINUOUS
 62
     7
 10
405.80029296875
 20
399.2999877929688
 40
2.999999999999977
 50
89.99998201391097
 51
179.9999640278208
  0
ARC
  8
0
  6
CONTINUOUS
 62
     7
 10
405.80029296875
 20
395.7000122070313
 40
3
 50
180.0000906136925
 51
193.1569474081041
  0
CIRCLE
  8
0
  6
CONTINUOUS
 62
     7
 10
469.9993286132813
 20
305
 40
9.000000953674316
  0
POLYLINE
  8
0
  6
CONTINUOUS
 62
     7
 66
     1
 10
0
 20
0
 70
     1
  0
VERTEX
  8
0
  6
CONTINUOUS
 62
     7
 10
403.5999603271484
 20
89.49996948242188
 42
0.1103671516633431
  0
VERTEX
  8
0
  6
CONTINUOUS
 62
     7
 10
402.6878015677144
 20
89.29495310907166
 42
0.1024992756176599
  0
VERTEX
  8
0
  6
CONTINUOUS
 62
     7
 10
401.9404456066769
 20
88.73097283332625
 42
0.09329106328543994
  0
VERTEX
  8
0
  6
CONTINUOUS
 62
     7
 10
401.4628008765027
 20
87.92410419630554
 42
0.08783037776411788
  0
VERTEX
  8
0
  6
CONTINUOUS
 62
     7
 10
401.2998809814453
 20
86.99998474121094
 42
0.08777536072797521
  0
VERTEX
  8
0
  6
CONTINUOUS
 62
     7
 10
401.462606496247
 20
86.07636675762637
 42
0.09326535318205174
  0
VERTEX
  8
0
  6
CONTINUOUS
 62
     7
 10
401.9399155942974
 20
85.26956861566025
 42
0.1026320883817123
  0
VERTEX
  8
0
  6
CONTINUOUS
 62
     7
 10
402.6881374566451
 20
84.70485846015626
 42
0.1103297020418507
  0
VERTEX
  8
0
  6
CONTINUOUS
 62
     7
 10
403.5999603271484
 20
84.50004577636719
 42
0.110377314820904
  0
VERTEX
  8
0
  6
CONTINUOUS
 62
     7
 10
404.5121255776479
 20
84.70502634705927
 42
0.1025142392270964
  0
VERTEX
  8
0
  6
CONTINUOUS
 62
     7
 10
405.2594709248631
 20
85.2690173684496
 42
0.09329541408931449
  0
VERTEX
  8
0
  6
CONTINUOUS
 62
     7
 10
405.7370696284904
 20
86.07591216943349
 42
0.0878151321725885
  0
VERTEX
  8
0
  6
CONTINUOUS
 62
     7
 10
405.8999481201172
 20
86.99998474121094
 42
0.08777350449887321
  0
VERTEX
  8
0
  6
CONTINUOUS
 62
     7
 10
405.7372249319673
 20
87.92360307929947
 42
0.0932623086216547
  0
VERTEX
  8
0
  6
CONTINUOUS
 62
     7
 10
405.2599262540879
 20
88.73040771091671
 42
0.1026306722896158
  0
VERTEX
  8
0
  6
CONTINUOUS
 62
     7
 10
404.5117169575904
 20
89.29513472704575
 42
0.110322586426886
  0
SEQEND
  8
0
  0
POLYLINE
  8
0
  6
CONTINUOUS
 62
     7
 66
     1
 10
0
 20
0
  0
VERTEX
  8
0
  6
CONTINUOUS
 62
     7
 10
402.5999298095703
 20
84.76005554199219
 42
0.06385386198093906
  0
VERTEX
  8
0
  6
CONTINUOUS
 62
     7
 10
403.1964838701941
 20
84.23003246108398
 42
0.07503750072763894
  0
VERTEX
  8
0
  6
CONTINUOUS
 62
     7
 10
403.9146934484843
 20
83.88379164596553
 42
0.06446568214302059
  0
VERTEX
  8
0
  6
CONTINUOUS
 62
     7
 10
404.7005157470703
 20
83.75004577636719
 42
0
  0
SEQEND
  8
0
  0
POLYLINE
  8
0
  6
CONTINUOUS
 62
     7
 66
     1
 10
0
 20
0
  0
VERTEX
  8
0
  6
CONTINUOUS
 62
     7
 10
402.6183626734514
 20
89.26083096138702
 42
-0.06328185219705436
  0
VERTEX
  8
0
  6
CONTINUOUS
 62
     7
 10
403.2109191849658
 20
89.77952356249109
 42
-0.07399665146359552
  0
VERTEX
  8
0
  6
CONTINUOUS
 62
     7
 10
403.9221120867812
 20
90.11841698614803
 42
-0.06391809275321222
  0
VERTEX
  8
0
  6
CONTINUOUS
 62
     7
 10
404.6995086669922
 20
90.24996948242188
 42
0
  0
SEQEND
  8
0
  0
POLYLINE
  8
0
  6
CONTINUOUS
 62
     7
 66
     1
 10
0
 20
0
  0
VERTEX
  8
0
  6
CONTINUOUS
 62
     7
 10
402.4764464448532
 20
84.81887468710758
 42
0.06283453028265988
  0
VERTEX
  8
0
  6
CONTINUOUS
 62
     7
 10
403.0407499299703
 20
84.29271472030186
 42
0.06649863787210282
  0
VERTEX
  8
0
  6
CONTINUOUS
 62
     7
 10
403.7207548089639
 20
83.92822887289066
 42
0.06915514138798865
  0
VERTEX
  8
0
  6
CONTINUOUS
 62
     7
 10
404.4731093946907
 20
83.75939154958154
 42
0.0697391282408605
  0
VERTEX
  8
0
  6
CONTINUOUS
 62
     7
 10
405.2418609768881
 20
83.80338404147766
 42
0.06816393466546127
  0
VERTEX
  8
0
  6
CONTINUOUS
 62
     7
 10
405.9697052378257
 20
84.05518848462573
 42
0.06499792395119343
  0
VERTEX
  8
0
  6
CONTINUOUS
 62
     7
 10
406.6062739675436
 20
84.49000687741442
 42
0.06129329658854461
  0
VERTEX
  8
0
  6
CONTINUOUS
 62
     7
 10
407.1143323398526
 20
85.07010069013157
 42
0.0580812496079055
  0
VERTEX
  8
0
  6
CONTINUOUS
 62
     7
 10
407.471326293713
 20
85.75409077859553
 42
0.05590546137649242
  0
VERTEX
  8
0
  6
CONTINUOUS
 62
     7
 10
407.6649800906487
 20
86.50123100321592
 42
0.05496277334036857
  0
VERTEX
  8
0
  6
CONTINUOUS
 62
     7
 10
407.6899930958623
 20
87.27194861090696
 42
0.05547515911709663
  0
VERTEX
  8
0
  6
CONTINUOUS
 62
     7
 10
407.5459109939851
 20
88.02983241292024
 42
0.05728093488630548
  0
VERTEX
  8
0
  6
CONTINUOUS
 62
     7
 10
407.2364969318793
 20
88.73626700051797
 42
0.06026774553719258
  0
VERTEX
  8
0
  6
CONTINUOUS
 62
     7
 10
406.7712552895722
 20
89.35156807996272
 42
0.0639506947507047
  0
VERTEX
  8
0
  6
CONTINUOUS
 62
     7
 10
406.1690503153697
 20
89.83394099065509
 42
0.06744226312909875
  0
VERTEX
  8
0
  6
CONTINUOUS
 62
     7
 10
405.4623985028039
 20
90.14340416000447
 42
0.06943881781364152
  0
VERTEX
  8
0
  6
CONTINUOUS
 62
     7
 10
404.7005157470703
 20
90.24996948242188
 42
0
  0
SEQEND
  8
0
  0
POLYLINE
  8
0
  6
CONTINUOUS
 62
     7
 66
     1
 10
0
 20
0
  0
VERTEX
  8
0
  6
CONTINUOUS
 62
     7
 10
8.587922096252441
 20
90.25
 42
0.1886495576068445
  0
VERTEX
  8
0
  6
CONTINUOUS
 62
     7
 10
8.173092913830388
 20
90.06581737647412
 42
0.07588727243944746
  0
VERTEX
  8
0
  6
CONTINUOUS
 62
     7
 10
7.891622496582173
 20
89.69910356305549
 42
0.03946198688074235
  0
VERTEX
  8
0
  6
CONTINUOUS
 62
     7
 10
7.696192083215268
 20
89.27758068286293
 42
0.02589588042502079
  0
VERTEX
  8
0
  6
CONTINUOUS
 62
     7
 10
7.55601517456757
 20
88.83432277269223
 42
0.01963372325903479
  0
VERTEX
  8
0
  6
CONTINUOUS
 62
     7
 10
7.456073291966244
 20
88.37952252041265
 42
0.01635698537903736
  0
VERTEX
  8
0
  6
CONTINUOUS
 62
     7
 10
7.388836662360704
 20
87.91858116470223
 42
0.01463338085004206
  0
VERTEX
  8
0
  6
CONTINUOUS
 62
     7
 10
7.35013636593141
 20
87.45430378672205
 42
0.01388533255356661
  0
VERTEX
  8
0
  6
CONTINUOUS
 62
     7
 10
7.337868251357364
 20
86.98858711776592
 42
0.01386257721125007
  0
VERTEX
  8
0
  6
CONTINUOUS
 62
     7
 10
7.351325738730977
 20
86.52424898513685
 42
0.01467329582784904
  0
VERTEX
  8
0
  6
CONTINUOUS
 62
     7
 10
7.391225344723837
 20
86.06054403801649
 42
0.01650763617738785
  0
VERTEX
  8
0
  6
CONTINUOUS
 62
     7
 10
7.460029053279992
 20
85.59869796307005
 42
0.01985634164310429
  0
VERTEX
  8
0
  6
CONTINUOUS
 62
     7
 10
7.561728699342901
 20
85.1440928302206
 42
0.02639232428187103
  0
VERTEX
  8
0
  6
CONTINUOUS
 62
     7
 10
7.704485677078564
 20
84.70063841331793
 42
0.04065158782083012
  0
VERTEX
  8
0
  6
CONTINUOUS
 62
     7
 10
7.903927734050373
 20
84.27968215738197
 42
0.07989181188780707
  0
VERTEX
  8
0
  6
CONTINUOUS
 62
     7
 10
8.193267537460097
 20
83.91621095315701
 42
0.1977408673051427
  0
VERTEX
  8
0
  6
CONTINUOUS
 62
     7
 10
8.615757476594879
 20
83.75079063365128
 42
0
  0
SEQEND
  8
0
  0
POLYLINE
  8
0
  6
CONTINUOUS
 62
     7
 66
     1
 10
0
 20
0
  0
VERTEX
  8
0
  6
CONTINUOUS
 62
     7
 10
7.657196521759033
 20
89.84996032714844
 42
0.1885998309718695
  0
VERTEX
  8
0
  6
CONTINUOUS
 62
     7
 10
7.297488506005798
 20
89.69025407930097
 42
0.07573568567879928
  0
VERTEX
  8
0
  6
CONTINUOUS
 62
     7
 10
7.053283362967562
 20
89.37240787283618
 42
0.03932876671762755
  0
VERTEX
  8
0
  6
CONTINUOUS
 62
     7
 10
6.883440629684729
 20
89.00707677720949
 42
0.02576608175274034
  0
VERTEX
  8
0
  6
CONTINUOUS
 62
     7
 10
6.761295316642237
 20
88.62293398598722
 42
0.019501141532984
  0
VERTEX
  8
0
  6
CONTINUOUS
 62
     7
 10
6.673805856403841
 20
88.22873253825152
 42
0.01621113757531525
  0
VERTEX
  8
0
  6
CONTINUOUS
 62
     7
 10
6.614440309615128
 20
87.82915289042501
 42
0.01446337955567976
  0
VERTEX
  8
0
  6
CONTINUOUS
 62
     7
 10
6.579561300421657
 20
87.42663964033945
 42
0.01368823414786187
  0
VERTEX
  8
0
  6
CONTINUOUS
 62
     7
 10
6.567296257721755
 20
87.02250632316503
 42
0.01360665991117279
  0
VERTEX
  8
0
  6
CONTINUOUS
 62
     7
 10
6.577023343213723
 20
86.61967186312062
 42
0.01431229416783824
  0
VERTEX
  8
0
  6
CONTINUOUS
 62
     7
 10
6.609180525882056
 20
86.21743154152131
 42
0.01597869574574177
  0
VERTEX
  8
0
  6
CONTINUOUS
 62
     7
 10
6.665693499835951
 20
85.81662429635956
 42
0.01902314776031676
  0
VERTEX
  8
0
  6
CONTINUOUS
 62
     7
 10
6.749751142832587
 20
85.42148071395246
 42
0.02487528054044008
  0
VERTEX
  8
0
  6
CONTINUOUS
 62
     7
 10
6.867755813184767
 20
85.03509215420847
 42
0.03728997394328444
  0
VERTEX
  8
0
  6
CONTINUOUS
 62
     7
 10
7.031811246922364
 20
84.66591128516559
 42
0.06997454164038258
  0
VERTEX
  8
0
  6
CONTINUOUS
 62
     7
 10
7.267367805159425
 20
84.33857211230314
 42
0.1738343511166889
  0
VERTEX
  8
0
  6
CONTINUOUS
 62
     7
 10
7.617110884461678
 20
84.15195280629597
 42
0
  0
SEQEND
  8
0
  0
POLYLINE
  8
0
  6
CONTINUOUS
 62
     7
 66
     1
 10
0
 20
0
 70
     1
  0
VERTEX
  8
0
  6
CONTINUOUS
 62
     7
 10
11.35739231109619
 20
89.5
 42
0.2551620003651089
  0
VERTEX
  8
0
  6
CONTINUOUS
 62
     7
 10
10.82760360569677
 20
89.07509516351
 42
0.06318669138597223
  0
VERTEX
  8
0
  6
CONTINUOUS
 62
     7
 10
10.57352530025066
 20
88.41220683356588
 42
0.035183834063254
  0
VERTEX
  8
0
  6
CONTINUOUS
 62
     7
 10
10.44680276067281
 20
87.71216049656944
 42
0.02798434289983132
  0
VERTEX
  8
0
  6
CONTINUOUS
 62
     7
 10
10.40744113922119
 20
86.99996948242188
 42
0.0278980825482703
  0
VERTEX
  8
0
  6
CONTINUOUS
 62
     7
 10
10.44657231458183
 20
86.28982638953237
 42
0.03515886496387459
  0
VERTEX
  8
0
  6
CONTINUOUS
 62
     7
 10
10.57305949164095
 20
85.58953941891191
 42
0.06315455636477707
  0
VERTEX
  8
0
  6
CONTINUOUS
 62
     7
 10
10.82708083861769
 20
84.9258000337897
 42
0.255288627244285
  0
VERTEX
  8
0
  6
CONTINUOUS
 62
     7
 10
11.35739231109619
 20
84.49998474121094
 42
0.2551627467903643
  0
VERTEX
  8
0
  6
CONTINUOUS
 62
     7
 10
11.88718591162941
 20
84.92488366111697
 42
0.06318869048664312
  0
VERTEX
  8
0
  6
CONTINUOUS
 62
     7
 10
12.14126562548411
 20
85.58777129454037
 42
0.03518471838491265
  0
VERTEX
  8
0
  6
CONTINUOUS
 62
     7
 10
12.26798586644803
 20
86.287817992889
 42
0.02798313254640852
  0
VERTEX
  8
0
  6
CONTINUOUS
 62
     7
 10
12.30734348297119
 20
86.99996948242188
 42
0.0278975966147473
  0
VERTEX
  8
0
  6
CONTINUOUS
 62
     7
 10
12.26821279278737
 20
87.71011230187411
 42
0.03515724530902832
  0
VERTEX
  8
0
  6
CONTINUOUS
 62
     7
 10
12.14172890987352
 20
88.41039988435867
 42
0.06314945259269778
  0
VERTEX
  8
0
  6
CONTINUOUS
 62
     7
 10
11.8877186537388
 20
89.07414377515762
 42
0.2552866596214793
  0
SEQEND
  8
0
  0
TEXT
  8
0
  6
CONTINUOUS
 62
     7
 10
-11.28550004959106
 20
-31.79999995231628
 40
3.599999904632568
 41
1.007125066575079
  1
HSR85CB
  0
ENDSEC
  0
EOF
