  0
SECTION
  2
HEADER
  0
ENDSEC
  0
SECTION
  2
TABLES
  0
TABLE
  2
LTYPE
 70
    22
  0
LTYPE
  2
CONTINUOUS
 70
    64
  3
Solid line
 72
    65
 73
     0
 40
0.000000
  0
LTYPE
  2
DASHED
 70
    64
  3
__ __ __ __ __ __ __ __ __ __ __ __ __ __ __
 72
    65
 73
     2
 40
3.500000
 49
2.000000
 49
-1.500000
  0
LTYPE
  2
CENTER
 70
    64
  3
____ _ ____ _ ____ _ ____ _ ____ _ ____ _ ____
 72
    65
 73
     4
 40
17.500000
 49
13.000000
 49
-1.500000
 49
1.500000
 49
-1.500000
  0
LTYPE
  2
PHANTOM
 70
    64
  3
_____ _ _ _____ _ _ _____ _ _ _____ _ _ ____  
 72
    65
 73
     6
 40
15.500000
 49
8.000000
 49
-1.500000
 49
1.500000
 49
-1.500000
 49
1.500000
 49
-1.500000
  0
LTYPE
  2
DOT
 70
    64
  3
. . . . . . . . . . . . . . . . . . . . . . . .
 72
    65
 73
     2
 40
0.25
 49
0.0
 49
-0.25
  0
ENDTAB
  0
TABLE
  2
LAYER
 70
     1
  0
LAYER
  2
0
 70
     0
 62
     7
  6
CONTINUOUS
  0
ENDTAB
  0
TABLE
  2
STYLE
 70
     1
  0
STYLE
  2
STANDARD
 70
     0
 40
0.000000
 41
1.000000
 50
0.000000
 71
     0
 42
0.200000
  3
txt
  0
ENDTAB
  0
TABLE
  2
VIEW
 70
     0
  0
ENDTAB
  0
ENDSEC
  0
SECTION
  2
BLOCKS
  0
ENDSEC
  0
SECTION
  2
ENTITIES
  0
LINE
  8
0
  6
CENTER
 62
     7
 10
112.5
 20
15
 11
112.5
 21
7.770465850830078
  0
LINE
  8
0
  6
CONTINUOUS
 62
     7
 10
50
 20
8.5
 11
50
 21
0
  0
LINE
  8
0
  6
CONTINUOUS
 62
     7
 10
50
 20
0
 11
160
 21
0
  0
LINE
  8
0
  6
CONTINUOUS
 62
     7
 10
50
 20
8.5
 11
82.75
 21
8.5
  0
LINE
  8
0
  6
CONTINUOUS
 62
     7
 10
160
 20
8.5
 11
160
 21
0
  0
LINE
  8
0
  6
DASHED
 62
     7
 10
62.75
 20
4
 11
62.75
 21
0
  0
LINE
  8
0
  6
DASHED
 62
     7
 10
61
 20
8.5
 11
61
 21
4
  0
LINE
  8
0
  6
CENTER
 62
     7
 10
65
 20
9.5
 11
65
 21
-1
  0
LINE
  8
0
  6
DASHED
 62
     7
 10
67.25
 20
4
 11
67.25
 21
0
  0
LINE
  8
0
  6
DASHED
 62
     7
 10
69
 20
8.5
 11
69
 21
4
  0
LINE
  8
0
  6
CONTINUOUS
 62
     7
 10
89.55000305175781
 20
8.199999809265137
 11
120.4499969482422
 21
8.199999809265137
  0
LINE
  8
0
  6
CONTINUOUS
 62
     7
 10
89.55000305175781
 20
14
 11
120.4499969482422
 21
14
  0
LINE
  8
0
  6
CONTINUOUS
 62
     7
 10
82.75
 20
8.699999809265137
 11
82.75
 21
4.09999942779541
  0
LINE
  8
0
  6
CONTINUOUS
 62
     7
 10
127.25
 20
8.699999809265137
 11
127.25
 21
4.09999942779541
  0
LINE
  8
0
  6
CONTINUOUS
 62
     7
 10
120.4499969482422
 20
14
 11
120.4499969482422
 21
4
  0
LINE
  8
0
  6
CONTINUOUS
 62
     7
 10
89.55000305175781
 20
14
 11
89.55000305175781
 21
4
  0
LINE
  8
0
  6
CONTINUOUS
 62
     7
 10
127.25
 20
8.5
 11
160
 21
8.5
  0
LINE
  8
0
  6
CONTINUOUS
 62
     7
 10
84.34999084472656
 20
13.30000019073486
 11
89.55000305175781
 21
13.30000019073486
  0
LINE
  8
0
  6
CONTINUOUS
 62
     7
 10
84.34999084472656
 20
13.30000019073486
 11
84.34999084472656
 21
4.019686698913574
  0
LINE
  8
0
  6
CONTINUOUS
 62
     7
 10
125.6499938964844
 20
13.30000019073486
 11
125.6499938964844
 21
4.019686698913574
  0
LINE
  8
0
  6
CONTINUOUS
 62
     7
 10
120.4499969482422
 20
13.30000019073486
 11
125.6499938964844
 21
13.30000019073486
  0
LINE
  8
0
  6
CONTINUOUS
 62
     7
 10
83.55000305175781
 20
13.19999980926514
 11
84.34999084472656
 21
13.19999980926514
  0
LINE
  8
0
  6
CONTINUOUS
 62
     7
 10
82.75
 20
4.09999942779541
 11
84.34999084472656
 21
4.09999942779541
  0
LINE
  8
0
  6
CONTINUOUS
 62
     7
 10
125.6499938964844
 20
4.09999942779541
 11
127.25
 21
4.09999942779541
  0
LINE
  8
0
  6
CONTINUOUS
 62
     7
 10
125.6499938964844
 20
13.19999980926514
 11
126.4499969482422
 21
13.19999980926514
  0
LINE
  8
0
  6
CONTINUOUS
 62
     7
 10
126.4499969482422
 20
13.19999980926514
 11
126.4499969482422
 21
4.09999942779541
  0
LINE
  8
0
  6
CONTINUOUS
 62
     7
 10
83.55000305175781
 20
13.19999980926514
 11
83.55000305175781
 21
4.09999942779541
  0
LINE
  8
0
  6
CONTINUOUS
 62
     7
 10
83.54999542236328
 20
9.499999046325684
 11
82.75
 21
8.700005531311035
  0
LINE
  8
0
  6
CONTINUOUS
 62
     7
 10
126.4499969482422
 20
9.499999046325684
 11
127.2499923706055
 21
8.700005531311035
  0
LINE
  8
0
  6
DASHED
 62
     7
 10
96
 20
14
 11
96
 21
10.39999771118164
  0
LINE
  8
0
  6
DASHED
 62
     7
 10
95.99998474121094
 20
10.39999675750732
 11
96.19998168945313
 21
10.05359172821045
  0
LINE
  8
0
  6
DASHED
 62
     7
 10
96.20001220703125
 20
14
 11
96.20001220703125
 21
9.399997711181641
  0
LINE
  8
0
  6
DASHED
 62
     7
 10
96.20001220703125
 20
9.399997711181641
 11
98.80000305175781
 21
9.399997711181641
  0
LINE
  8
0
  6
DASHED
 62
     7
 10
96
 20
10.39999771118164
 11
99
 21
10.39999771118164
  0
LINE
  8
0
  6
DASHED
 62
     7
 10
96.19999694824219
 20
9.399990081787109
 11
97.5
 21
8.649433135986328
  0
LINE
  8
0
  6
DASHED
 62
     7
 10
98.79999542236328
 20
9.400005340576172
 11
97.49999237060547
 21
8.649448394775391
  0
LINE
  8
0
  6
CENTER
 62
     7
 10
97.5
 20
15
 11
97.5
 21
7.770465850830078
  0
LINE
  8
0
  6
DASHED
 62
     7
 10
98.80000305175781
 20
14
 11
98.80000305175781
 21
9.399997711181641
  0
LINE
  8
0
  6
DASHED
 62
     7
 10
98.99999237060547
 20
10.39999008178711
 11
98.79999542236328
 21
10.05358505249023
  0
LINE
  8
0
  6
DASHED
 62
     7
 10
99
 20
14
 11
99
 21
10.39999771118164
  0
LINE
  8
0
  6
CONTINUOUS
 62
     7
 10
50
 20
82
 11
50
 21
58
  0
LINE
  8
0
  6
CENTER
 62
     7
 10
14.00000762939453
 20
15
 11
14.00000762939453
 21
7.770465850830078
  0
LINE
  8
0
  6
CONTINUOUS
 62
     7
 10
-19.5
 20
14
 11
-8
 21
14
  0
LINE
  8
0
  6
CONTINUOUS
 62
     7
 10
-20
 20
13.5
 11
-20
 21
8
  0
LINE
  8
0
  6
CONTINUOUS
 62
     7
 10
20
 20
13.5
 11
20
 21
8
  0
LINE
  8
0
  6
CONTINUOUS
 62
     7
 10
-19.39999389648438
 20
4
 11
-11.99999713897705
 21
4
  0
LINE
  8
0
  6
CONTINUOUS
 62
     7
 10
12
 20
4
 11
19.40000915527344
 21
4
  0
LINE
  8
0
  6
CONTINUOUS
 62
     7
 10
-7.5
 20
13.5
 11
7.5
 21
13.5
  0
LINE
  8
0
  6
CONTINUOUS
 62
     7
 10
-7.999995231628418
 20
13.99999523162842
 11
-7.49999475479126
 21
13.4999942779541
  0
LINE
  8
0
  6
CONTINUOUS
 62
     7
 10
8.000006675720215
 20
14
 11
7.500006198883057
 21
13.49999904632568
  0
LINE
  8
0
  6
CONTINUOUS
 62
     7
 10
8
 20
14
 11
19.5
 21
14
  0
LINE
  8
0
  6
CONTINUOUS
 62
     7
 10
-19.99999237060547
 20
7.999993324279785
 11
-19.79999732971191
 21
7.799997329711914
  0
LINE
  8
0
  6
CONTINUOUS
 62
     7
 10
-19.79998779296875
 20
7.800003051757813
 11
-19.79998779296875
 21
4.399997711181641
  0
LINE
  8
0
  6
CONTINUOUS
 62
     7
 10
-19.39998435974121
 20
3.999989032745361
 11
-19.79998779296875
 21
4.399991512298584
  0
LINE
  8
0
  6
CONTINUOUS
 62
     7
 10
19.99999618530273
 20
7.999990940093994
 11
19.79999923706055
 21
7.799994945526123
  0
LINE
  8
0
  6
CONTINUOUS
 62
     7
 10
19.80000305175781
 20
7.800003051757813
 11
19.80000305175781
 21
4.399997711181641
  0
LINE
  8
0
  6
CONTINUOUS
 62
     7
 10
19.40000534057617
 20
3.999990940093994
 11
19.80000686645508
 21
4.399993419647217
  0
LINE
  8
0
  6
CONTINUOUS
 62
     7
 10
-19.9999885559082
 20
13.4999942779541
 11
-19.4999885559082
 21
13.9999942779541
  0
LINE
  8
0
  6
CONTINUOUS
 62
     7
 10
19.99999809265137
 20
13.49998474121094
 11
19.49999618530273
 21
13.99998664855957
  0
LINE
  8
0
  6
CONTINUOUS
 62
     7
 10
12
 20
4.0196852684021
 11
11.81800174713135
 21
5.051850318908691
  0
LINE
  8
0
  6
CONTINUOUS
 62
     7
 10
-11.99999713897705
 20
4.019683837890625
 11
-11.99999713897705
 21
0.5
  0
LINE
  8
0
  6
CONTINUOUS
 62
     7
 10
-11.49999713897705
 20
0
 11
11.5
 21
0
  0
LINE
  8
0
  6
CONTINUOUS
 62
     7
 10
12
 20
4.019683837890625
 11
12
 21
0.5
  0
LINE
  8
0
  6
CONTINUOUS
 62
     7
 10
-11.20999908447266
 20
8.5
 11
11.21000194549561
 21
8.5
  0
LINE
  8
0
  6
CONTINUOUS
 62
     7
 10
-11.49999809265137
 20
-2.887059281420079E-006
 11
-11.99999904632568
 21
0.4999976754188538
  0
LINE
  8
0
  6
CONTINUOUS
 62
     7
 10
11.5
 20
-1.896608523566101E-007
 11
11.99999904632568
 21
0.4999990165233612
  0
LINE
  8
0
  6
CONTINUOUS
 62
     7
 10
11.38700866699219
 20
7.496134281158447
 11
11.21000003814697
 21
8.499998092651367
  0
LINE
  8
0
  6
CONTINUOUS
 62
     7
 10
-11.38700580596924
 20
7.496132850646973
 11
-11.20999717712402
 21
8.499996185302734
  0
LINE
  8
0
  6
CONTINUOUS
 62
     7
 10
-11.99999713897705
 20
4.019683837890625
 11
-11.8179988861084
 21
5.05185079574585
  0
LINE
  8
0
  6
CONTINUOUS
 62
     7
 10
-19.19999694824219
 20
12.69999980926514
 11
-19.19999694824219
 21
4.59999942779541
  0
LINE
  8
0
  6
CONTINUOUS
 62
     7
 10
-18.69999694824219
 20
13.19999980926514
 11
18.69999694824219
 21
13.19999980926514
  0
LINE
  8
0
  6
CONTINUOUS
 62
     7
 10
-18.69999694824219
 20
13.19999694824219
 11
-19.19999694824219
 21
12.69999599456787
  0
LINE
  8
0
  6
CONTINUOUS
 62
     7
 10
-19.19999313354492
 20
4.599993228912354
 11
-18.60000038146973
 21
4
  0
LINE
  8
0
  6
CONTINUOUS
 62
     7
 10
-11.8460111618042
 20
9.5
 11
11.8460111618042
 21
9.5
  0
LINE
  8
0
  6
CONTINUOUS
 62
     7
 10
-12.81580924987793
 20
4
 11
-11.8460111618042
 21
9.5
  0
LINE
  8
0
  6
CONTINUOUS
 62
     7
 10
18.69999694824219
 20
13.19999694824219
 11
19.19999694824219
 21
12.69999599456787
  0
LINE
  8
0
  6
CONTINUOUS
 62
     7
 10
19.19999694824219
 20
12.69999980926514
 11
19.19999694824219
 21
4.59999942779541
  0
LINE
  8
0
  6
CONTINUOUS
 62
     7
 10
19.19999313354492
 20
4.599993228912354
 11
18.60000038146973
 21
4
  0
LINE
  8
0
  6
CONTINUOUS
 62
     7
 10
12.81580924987793
 20
4
 11
11.8460111618042
 21
9.5
  0
LINE
  8
0
  6
CENTER
 62
     7
 10
0
 20
14.04876708984375
 11
0
 21
-0.5177001953125
  0
LINE
  8
0
  6
DASHED
 62
     7
 10
2.25
 20
4
 11
2.25
 21
0
  0
LINE
  8
0
  6
DASHED
 62
     7
 10
-4
 20
4
 11
4
 21
4
  0
LINE
  8
0
  6
DASHED
 62
     7
 10
4
 20
8.5
 11
4
 21
4
  0
LINE
  8
0
  6
DASHED
 62
     7
 10
-4
 20
8.5
 11
-4
 21
4
  0
LINE
  8
0
  6
DASHED
 62
     7
 10
-2.25
 20
4
 11
-2.25
 21
0
  0
LINE
  8
0
  6
CENTER
 62
     7
 10
-14
 20
15
 11
-14
 21
7.770465850830078
  0
LINE
  8
0
  6
CONTINUOUS
 62
     7
 10
50
 20
58
 11
82.75
 21
58
  0
LINE
  8
0
  6
CONTINUOUS
 62
     7
 10
50
 20
82
 11
82.75
 21
82
  0
LINE
  8
0
  6
CONTINUOUS
 62
     7
 10
160
 20
82
 11
160
 21
58
  0
LINE
  8
0
  6
CENTER
 62
     7
 10
48.00310516357422
 20
70
 11
161
 21
70
  0
LINE
  8
0
  6
CONTINUOUS
 62
     7
 10
50
 20
58.78999328613281
 11
82.75
 21
58.78999328613281
  0
LINE
  8
0
  6
CONTINUOUS
 62
     7
 10
50
 20
81.20999145507813
 11
82.75
 21
81.20999145507813
  0
LINE
  8
0
  6
CONTINUOUS
 62
     7
 10
89.55000305175781
 20
90
 11
89.55000305175781
 21
49.99998474121094
  0
LINE
  8
0
  6
CONTINUOUS
 62
     7
 10
120.4499969482422
 20
90
 11
120.4499969482422
 21
49.99998474121094
  0
LINE
  8
0
  6
CONTINUOUS
 62
     7
 10
89.55000305175781
 20
90
 11
120.4499969482422
 21
90
  0
LINE
  8
0
  6
CONTINUOUS
 62
     7
 10
89.55000305175781
 20
78
 11
120.4499969482422
 21
78
  0
LINE
  8
0
  6
CONTINUOUS
 62
     7
 10
89.55000305175781
 20
61.99998474121094
 11
120.4499969482422
 21
61.99998474121094
  0
LINE
  8
0
  6
CONTINUOUS
 62
     7
 10
89.55000305175781
 20
49.99998474121094
 11
120.4499969482422
 21
49.99998474121094
  0
LINE
  8
0
  6
CONTINUOUS
 62
     7
 10
127.25
 20
82
 11
160
 21
82
  0
LINE
  8
0
  6
CONTINUOUS
 62
     7
 10
127.25
 20
81.20999145507813
 11
160
 21
81.20999145507813
  0
LINE
  8
0
  6
CONTINUOUS
 62
     7
 10
127.25
 20
58.78999328613281
 11
160
 21
58.78999328613281
  0
LINE
  8
0
  6
CONTINUOUS
 62
     7
 10
127.25
 20
58
 11
160
 21
58
  0
LINE
  8
0
  6
CONTINUOUS
 62
     7
 10
84.34999084472656
 20
89.30000305175781
 11
84.34999084472656
 21
50.69999694824219
  0
LINE
  8
0
  6
CONTINUOUS
 62
     7
 10
125.6499938964844
 20
89.30000305175781
 11
125.6499938964844
 21
50.69999694824219
  0
LINE
  8
0
  6
CONTINUOUS
 62
     7
 10
126.4499969482422
 20
89.19999694824219
 11
126.4499969482422
 21
50.79998779296875
  0
LINE
  8
0
  6
CONTINUOUS
 62
     7
 10
83.55000305175781
 20
89.19999694824219
 11
83.55000305175781
 21
50.79998779296875
  0
LINE
  8
0
  6
CONTINUOUS
 62
     7
 10
82.75
 20
82.18891906738281
 11
82.75
 21
57.81108093261719
  0
LINE
  8
0
  6
CONTINUOUS
 62
     7
 10
127.25
 20
82.18891906738281
 11
127.25
 21
57.81108093261719
  0
LINE
  8
0
  6
CONTINUOUS
 62
     7
 10
84.34999084472656
 20
89.30000305175781
 11
89.55000305175781
 21
89.30000305175781
  0
LINE
  8
0
  6
CONTINUOUS
 62
     7
 10
83.55000305175781
 20
89.19999694824219
 11
84.34999084472656
 21
89.19999694824219
  0
LINE
  8
0
  6
CONTINUOUS
 62
     7
 10
120.4499969482422
 20
89.30000305175781
 11
125.6499938964844
 21
89.30000305175781
  0
LINE
  8
0
  6
CONTINUOUS
 62
     7
 10
125.6499938964844
 20
89.19999694824219
 11
126.4499969482422
 21
89.19999694824219
  0
LINE
  8
0
  6
CONTINUOUS
 62
     7
 10
84.34999084472656
 20
50.69999694824219
 11
89.55000305175781
 21
50.69999694824219
  0
LINE
  8
0
  6
CONTINUOUS
 62
     7
 10
83.55000305175781
 20
50.79998779296875
 11
84.34999084472656
 21
50.79998779296875
  0
LINE
  8
0
  6
CONTINUOUS
 62
     7
 10
120.4499969482422
 20
50.69999694824219
 11
125.6499938964844
 21
50.69999694824219
  0
LINE
  8
0
  6
CONTINUOUS
 62
     7
 10
125.6499938964844
 20
50.79998779296875
 11
126.4499969482422
 21
50.79998779296875
  0
LINE
  8
0
  6
CONTINUOUS
 62
     7
 10
83.54998779296875
 20
57.20182418823242
 11
82.74998474121094
 21
57.81108093261719
  0
LINE
  8
0
  6
CONTINUOUS
 62
     7
 10
83.55000305175781
 20
82.79817962646484
 11
82.75
 21
82.18891906738281
  0
LINE
  8
0
  6
CONTINUOUS
 62
     7
 10
126.4499969482422
 20
82.79817962646484
 11
127.2499923706055
 21
82.18893432617188
  0
LINE
  8
0
  6
CONTINUOUS
 62
     7
 10
126.4499969482422
 20
57.20182037353516
 11
127.25
 21
57.81107711791992
  0
LINE
  8
0
  6
CENTER
 62
     7
 10
65
 20
75
 11
65
 21
65
  0
LINE
  8
0
  6
CENTER
 62
     7
 10
145
 20
75
 11
145
 21
65
  0
LINE
  8
0
  6
CENTER
 62
     7
 10
100
 20
55.99998474121094
 11
95
 21
55.99998474121094
  0
LINE
  8
0
  6
CENTER
 62
     7
 10
97.5
 20
58.49998474121094
 11
97.5
 21
53.49998474121094
  0
LINE
  8
0
  6
CENTER
 62
     7
 10
115
 20
55.99998474121094
 11
110
 21
55.99998474121094
  0
LINE
  8
0
  6
CENTER
 62
     7
 10
112.5
 20
58.49998474121094
 11
112.5
 21
53.49998474121094
  0
LINE
  8
0
  6
CENTER
 62
     7
 10
115
 20
84
 11
110
 21
84
  0
LINE
  8
0
  6
CENTER
 62
     7
 10
112.5
 20
86.5
 11
112.5
 21
81.5
  0
LINE
  8
0
  6
CENTER
 62
     7
 10
100
 20
84
 11
95
 21
84
  0
LINE
  8
0
  6
CENTER
 62
     7
 10
97.5
 20
86.5
 11
97.5
 21
81.5
  0
LINE
  8
0
  6
CONTINUOUS
 62
     7
 10
-17.70709991455078
 20
11.7071008682251
 11
-16.29288673400879
 21
10.29288673400879
  0
LINE
  8
0
  6
CONTINUOUS
 62
     7
 10
-16.29288673400879
 20
11.7071008682251
 11
-17.70709991455078
 21
10.29288673400879
  0
LINE
  8
0
  6
CENTER
 62
     7
 10
105
 20
75
 11
105
 21
65
  0
LINE
  8
0
  6
CONTINUOUS
 62
     7
 10
50
 20
7.496133804321289
 11
82.75
 21
7.496133804321289
  0
LINE
  8
0
  6
CONTINUOUS
 62
     7
 10
50
 20
5.051850318908691
 11
82.75
 21
5.051850318908691
  0
LINE
  8
0
  6
CONTINUOUS
 62
     7
 10
127.25
 20
7.496133804321289
 11
160
 21
7.496133804321289
  0
LINE
  8
0
  6
CONTINUOUS
 62
     7
 10
127.25
 20
5.051850318908691
 11
160
 21
5.051850318908691
  0
LINE
  8
0
  6
CONTINUOUS
 62
     7
 10
50
 20
4.019683837890625
 11
160
 21
4.019683837890625
  0
LINE
  8
0
  6
CENTER
 62
     7
 10
105
 20
9.5
 11
105
 21
-1
  0
LINE
  8
0
  6
CENTER
 62
     7
 10
145
 20
9.5
 11
145
 21
-1
  0
LINE
  8
0
  6
DASHED
 62
     7
 10
61
 20
4
 11
69
 21
4
  0
LINE
  8
0
  6
DASHED
 62
     7
 10
-15.5
 20
14
 11
-15.5
 21
10.39999771118164
  0
LINE
  8
0
  6
DASHED
 62
     7
 10
-15.50001430511475
 20
10.39999580383301
 11
-15.30001735687256
 21
10.05359172821045
  0
LINE
  8
0
  6
DASHED
 62
     7
 10
-15.29998779296875
 20
14
 11
-15.29998779296875
 21
9.399997711181641
  0
LINE
  8
0
  6
DASHED
 62
     7
 10
-15.29998779296875
 20
9.399997711181641
 11
-12.69999694824219
 21
9.399997711181641
  0
LINE
  8
0
  6
DASHED
 62
     7
 10
-15.5
 20
10.39999771118164
 11
-12.5
 21
10.39999771118164
  0
LINE
  8
0
  6
DASHED
 62
     7
 10
-15.30000019073486
 20
9.399990081787109
 11
-13.99999713897705
 21
8.649433135986328
  0
LINE
  8
0
  6
DASHED
 62
     7
 10
-12.70000743865967
 20
9.400005340576172
 11
-14.00001049041748
 21
8.649448394775391
  0
LINE
  8
0
  6
DASHED
 62
     7
 10
-12.69999694824219
 20
14
 11
-12.69999694824219
 21
9.399997711181641
  0
LINE
  8
0
  6
DASHED
 62
     7
 10
-12.50000667572022
 20
10.39999008178711
 11
-12.7000036239624
 21
10.05358505249023
  0
LINE
  8
0
  6
DASHED
 62
     7
 10
-12.5
 20
14
 11
-12.5
 21
10.39999771118164
  0
LINE
  8
0
  6
CENTER
 62
     7
 10
-2.09999942779541
 20
11
 11
2.09999942779541
 21
11
  0
CIRCLE
  8
0
  6
CONTINUOUS
 62
     7
 10
0
 20
11
 40
1.09999942779541
  0
CIRCLE
  8
0
  6
CONTINUOUS
 62
     7
 10
-17
 20
11
 40
1.59999942779541
  0
CIRCLE
  8
0
  6
CONTINUOUS
 62
     7
 10
17
 20
11
 40
1.59999942779541
  0
CIRCLE
  8
0
  6
CONTINUOUS
 62
     7
 10
65
 20
70
 40
4
  0
CIRCLE
  8
0
  6
CONTINUOUS
 62
     7
 10
65
 20
70
 40
2.25
  0
CIRCLE
  8
0
  6
CONTINUOUS
 62
     7
 10
97.5
 20
55.99998474121094
 40
1.5
  0
ARC
  8
0
  6
CONTINUOUS
 62
     7
 10
-11.75
 20
6.299999237060547
 40
1.25
 50
266.8816814601417
 51
73.11832253676705
  0
ARC
  8
0
  6
CONTINUOUS
 62
     7
 10
11.75
 20
6.299999237060547
 40
1.25
 50
106.8816414910542
 51
273.1183372091929
  0
CIRCLE
  8
0
  6
CONTINUOUS
 62
     7
 10
97.5
 20
55.99998474121094
 40
1.199999809265137
  0
TEXT
  8
0
  6
CONTINUOUS
 62
     7
 10
-1.285500049591065
 20
-21.79999995231628
 40
3.599999904632568
 41
1.005480835725611
  1
RSR12M1WV
  0
ENDSEC
  0
EOF
