  0
SECTION
  2
HEADER
  0
ENDSEC
  0
SECTION
  2
TABLES
  0
TABLE
  2
LTYPE
 70
    22
  0
LTYPE
  2
CONTINUOUS
 70
    64
  3
Solid line
 72
    65
 73
     0
 40
0.000000
  0
LTYPE
  2
DASHED
 70
    64
  3
__ __ __ __ __ __ __ __ __ __ __ __ __ __ __
 72
    65
 73
     2
 40
3.500000
 49
2.000000
 49
-1.500000
  0
LTYPE
  2
CENTER
 70
    64
  3
____ _ ____ _ ____ _ ____ _ ____ _ ____ _ ____
 72
    65
 73
     4
 40
17.500000
 49
13.000000
 49
-1.500000
 49
1.500000
 49
-1.500000
  0
LTYPE
  2
PHANTOM
 70
    64
  3
_____ _ _ _____ _ _ _____ _ _ _____ _ _ ____  
 72
    65
 73
     6
 40
15.500000
 49
8.000000
 49
-1.500000
 49
1.500000
 49
-1.500000
 49
1.500000
 49
-1.500000
  0
LTYPE
  2
DOT
 70
    64
  3
. . . . . . . . . . . . . . . . . . . . . . . .
 72
    65
 73
     2
 40
0.25
 49
0.0
 49
-0.25
  0
ENDTAB
  0
TABLE
  2
LAYER
 70
     1
  0
LAYER
  2
0
 70
     0
 62
     7
  6
CONTINUOUS
  0
ENDTAB
  0
TABLE
  2
STYLE
 70
     1
  0
STYLE
  2
STANDARD
 70
     0
 40
0.000000
 41
1.000000
 50
0.000000
 71
     0
 42
0.200000
  3
txt
  0
ENDTAB
  0
TABLE
  2
VIEW
 70
     0
  0
ENDTAB
  0
ENDSEC
  0
SECTION
  2
BLOCKS
  0
ENDSEC
  0
SECTION
  2
ENTITIES
  0
LINE
  8
0
  6
CONTINUOUS
 62
     7
 10
91.081879
 20
13.999973
 11
91.081879
 21
9.1918573
  0
LINE
  8
0
  6
CONTINUOUS
 62
     7
 10
91.081879
 20
13.999973
 11
120.38187
 21
13.999973
  0
LINE
  8
0
  6
CONTINUOUS
 62
     7
 10
90.581879
 20
9.3750954
 11
90.581879
 21
5.9226518
  0
LINE
  8
0
  6
CONTINUOUS
 62
     7
 10
88.231857
 20
5.6977372
 11
88.231857
 21
5.3393693
  0
LINE
  8
0
  6
CONTINUOUS
 62
     7
 10
88.231857
 20
13.199965
 11
88.231857
 21
9.3750954
  0
LINE
  8
0
  6
CONTINUOUS
 62
     7
 10
88.231857
 20
5.9226518
 11
88.231857
 21
5.3999667
  0
LINE
  8
0
  6
CONTINUOUS
 62
     7
 10
120.38187
 20
13.999973
 11
120.38187
 21
9.1918573
  0
LINE
  8
0
  6
CONTINUOUS
 62
     7
 10
88.231857
 20
13.199965
 11
91.081879
 21
13.199965
  0
LINE
  8
0
  6
CONTINUOUS
 62
     7
 10
123.23186
 20
13.199965
 11
120.38187
 21
13.199965
  0
LINE
  8
0
  6
CENTER
 62
     7
 10
113.23185
 20
15.312799
 11
113.23185
 21
8.0648327
  0
LINE
  8
0
  6
CENTER
 62
     7
 10
105.73185
 20
6.2839694
 11
105.73185
 21
-1.9842595
  0
LINE
  8
0
  6
CONTINUOUS
 62
     7
 10
88.231857
 20
9.3750954
 11
90.581879
 21
9.3750954
  0
LINE
  8
0
  6
CONTINUOUS
 62
     7
 10
88.231857
 20
5.9226518
 11
90.581879
 21
5.9226518
  0
LINE
  8
0
  6
CONTINUOUS
 62
     7
 10
91.081856
 20
13.799962
 11
88.23185
 21
13.199963
  0
LINE
  8
0
  6
CONTINUOUS
 62
     7
 10
120.38188
 20
13.799963
 11
123.23186
 21
13.199966
  0
LINE
  8
0
  6
DASHED
 62
     7
 10
99.73185
 20
10.399971
 11
96.73185
 21
10.399971
  0
LINE
  8
0
  6
DASHED
 62
     7
 10
97.03186
 20
13.999973
 11
97.03186
 21
9.399971
  0
LINE
  8
0
  6
DASHED
 62
     7
 10
96.73185
 20
13.999973
 11
96.73185
 21
10.400004
  0
LINE
  8
0
  6
DASHED
 62
     7
 10
96.731873
 20
10.399967
 11
97.031876
 21
9.8803568
  0
LINE
  8
0
  6
DASHED
 62
     7
 10
99.431862
 20
9.399971
 11
97.03186
 21
9.399971
  0
LINE
  8
0
  6
DASHED
 62
     7
 10
97.031876
 20
9.3999596
 11
98.231873
 21
8.7071419
  0
LINE
  8
0
  6
DASHED
 62
     7
 10
99.43187
 20
9.3999672
 11
98.231873
 21
8.7071495
  0
LINE
  8
0
  6
CENTER
 62
     7
 10
98.23185
 20
15.312799
 11
98.23185
 21
8.0648327
  0
LINE
  8
0
  6
DASHED
 62
     7
 10
99.431862
 20
13.999973
 11
99.431862
 21
9.399971
  0
LINE
  8
0
  6
DASHED
 62
     7
 10
99.73188
 20
10.399959
 11
99.431885
 21
9.8803444
  0
LINE
  8
0
  6
DASHED
 62
     7
 10
99.73185
 20
13.999973
 11
99.73185
 21
10.399971
  0
LINE
  8
0
  6
CONTINUOUS
 62
     7
 10
90.581879
 20
8.6918468
 11
120.88187
 21
8.6918468
  0
LINE
  8
0
  6
CONTINUOUS
 62
     7
 10
90.581879
 20
9.1918573
 11
120.88187
 21
9.1918573
  0
LINE
  8
0
  6
CONTINUOUS
 62
     7
 10
50.731861
 20
-2.6952477E-005
 11
160.73186
 21
-2.6952477E-005
  0
LINE
  8
0
  6
CONTINUOUS
 62
     7
 10
50.731861
 20
8.4999733
 11
83.481857
 21
8.4999733
  0
LINE
  8
0
  6
CONTINUOUS
 62
     7
 10
83.481857
 20
8.699975
 11
83.481857
 21
4.0999789
  0
LINE
  8
0
  6
CONTINUOUS
 62
     7
 10
127.98186
 20
8.699975
 11
127.98186
 21
4.0999689
  0
LINE
  8
0
  6
CONTINUOUS
 62
     7
 10
127.98186
 20
8.4999733
 11
160.73186
 21
8.4999733
  0
LINE
  8
0
  6
CONTINUOUS
 62
     7
 10
84.381866
 20
13.199975
 11
85.481857
 21
13.199975
  0
LINE
  8
0
  6
CONTINUOUS
 62
     7
 10
125.98185
 20
13.199975
 11
127.08186
 21
13.199975
  0
LINE
  8
0
  6
CONTINUOUS
 62
     7
 10
84.125443
 20
9.343564
 11
83.48185
 21
8.699975
  0
LINE
  8
0
  6
CONTINUOUS
 62
     7
 10
127.33826
 20
9.3435555
 11
127.98184
 21
8.6999779
  0
LINE
  8
0
  6
CONTINUOUS
 62
     7
 10
50.731861
 20
7.4961076
 11
83.481857
 21
7.4961076
  0
LINE
  8
0
  6
CONTINUOUS
 62
     7
 10
50.731861
 20
5.0518222
 11
83.481857
 21
5.0518222
  0
LINE
  8
0
  6
CONTINUOUS
 62
     7
 10
127.98186
 20
7.4961076
 11
160.73186
 21
7.4961076
  0
LINE
  8
0
  6
CONTINUOUS
 62
     7
 10
127.98186
 20
5.0518222
 11
160.73186
 21
5.0518222
  0
LINE
  8
0
  6
CONTINUOUS
 62
     7
 10
50.731861
 20
4.0196567
 11
84.381866
 21
4.0196567
  0
LINE
  8
0
  6
CONTINUOUS
 62
     7
 10
125.98185
 20
13.199986
 11
123.23186
 21
13.199986
  0
LINE
  8
0
  6
CONTINUOUS
 62
     7
 10
90.581856
 20
9.3689709
 11
90.581856
 21
5.9287753
  0
LINE
  8
0
  6
CONTINUOUS
 62
     7
 10
88.231857
 20
5.6977372
 11
88.231857
 21
5.3393693
  0
LINE
  8
0
  6
CONTINUOUS
 62
     7
 10
85.481857
 20
13.199986
 11
88.231857
 21
13.199986
  0
LINE
  8
0
  6
CONTINUOUS
 62
     7
 10
123.23186
 20
13.199965
 11
123.23186
 21
9.3750954
  0
LINE
  8
0
  6
CONTINUOUS
 62
     7
 10
120.88187
 20
9.3689709
 11
123.23186
 21
9.3689709
  0
LINE
  8
0
  6
CONTINUOUS
 62
     7
 10
120.88187
 20
9.3689709
 11
120.88187
 21
5.9287753
  0
LINE
  8
0
  6
CONTINUOUS
 62
     7
 10
123.23186
 20
5.9226518
 11
120.88184
 21
5.9226518
  0
LINE
  8
0
  6
CONTINUOUS
 62
     7
 10
123.23186
 20
5.9226518
 11
123.23186
 21
5.3999667
  0
LINE
  8
0
  6
CONTINUOUS
 62
     7
 10
85.481857
 20
13.199986
 11
85.481857
 21
4.0999789
  0
LINE
  8
0
  6
CONTINUOUS
 62
     7
 10
125.98185
 20
13.199986
 11
125.98185
 21
4.0999789
  0
LINE
  8
0
  6
CONTINUOUS
 62
     7
 10
84.381866
 20
13.199975
 11
84.381866
 21
3.3999629
  0
LINE
  8
0
  6
CONTINUOUS
 62
     7
 10
127.08186
 20
13.199975
 11
127.08186
 21
3.3999629
  0
LINE
  8
0
  6
DASHED
 62
     7
 10
68.481865
 20
-4.0460975E-005
 11
67.981857
 21
0.49996278
  0
LINE
  8
0
  6
DASHED
 62
     7
 10
62.981857
 20
-2.9671381E-005
 11
63.481857
 21
0.49997085
  0
LINE
  8
0
  6
DASHED
 62
     7
 10
61.731861
 20
8.4999733
 11
61.731861
 21
3.9999731
  0
LINE
  8
0
  6
CENTER
 62
     7
 10
65.731857
 20
9.4999733
 11
65.731857
 21
-1.0000269
  0
LINE
  8
0
  6
DASHED
 62
     7
 10
69.731857
 20
8.4999733
 11
69.731857
 21
3.9999731
  0
LINE
  8
0
  6
DASHED
 62
     7
 10
61.731861
 20
3.9999731
 11
69.731857
 21
3.9999731
  0
LINE
  8
0
  6
DASHED
 62
     7
 10
63.481861
 20
3.9999731
 11
63.481861
 21
0.49997306
  0
LINE
  8
0
  6
DASHED
 62
     7
 10
63.481861
 20
0.49997306
 11
67.981857
 21
0.49997306
  0
LINE
  8
0
  6
DASHED
 62
     7
 10
67.981857
 20
3.9999731
 11
67.981857
 21
0.49997306
  0
LINE
  8
0
  6
CONTINUOUS
 62
     7
 10
84.881866
 20
13.199986
 11
84.881866
 21
4.0999789
  0
LINE
  8
0
  6
CONTINUOUS
 62
     7
 10
126.58186
 20
13.199986
 11
126.58186
 21
4.0999789
  0
LINE
  8
0
  6
CONTINUOUS
 62
     7
 10
85.481857
 20
5.3999667
 11
125.98185
 21
5.3999667
  0
LINE
  8
0
  6
CONTINUOUS
 62
     7
 10
83.481857
 20
4.0999789
 11
85.481857
 21
4.0999789
  0
LINE
  8
0
  6
CONTINUOUS
 62
     7
 10
127.98186
 20
4.0999789
 11
125.98187
 21
4.0999789
  0
LINE
  8
0
  6
CONTINUOUS
 62
     7
 10
85.481857
 20
4.7999711
 11
125.98185
 21
4.7999711
  0
LINE
  8
0
  6
CONTINUOUS
 62
     7
 10
-1.9996744
 20
13.199992
 11
2.0003254
 21
13.199992
  0
LINE
  8
0
  6
CENTER
 62
     7
 10
145.73186
 20
9.4999733
 11
145.73186
 21
-1.0000269
  0
LINE
  8
0
  6
CONTINUOUS
 62
     7
 10
160.73186
 20
4.0196567
 11
127.08186
 21
4.0196567
  0
LINE
  8
0
  6
CENTER
 62
     7
 10
0
 20
14.478053
 11
0
 21
0.30529785
  0
LINE
  8
0
  6
CONTINUOUS
 62
     7
 10
-9.7998657
 20
14
 11
-19.599731
 21
14
  0
LINE
  8
0
  6
CONTINUOUS
 62
     7
 10
-9.7998724
 20
14.000005
 11
-9.1463108
 21
13.346443
  0
LINE
  8
0
  6
CONTINUOUS
 62
     7
 10
-19.199991
 20
13.200007
 11
5.6843419E-014
 21
13.200007
  0
LINE
  8
0
  6
CONTINUOUS
 62
     7
 10
-7.3999071
 20
13.799994
 11
-7.9998946
 21
13.200006
  0
LINE
  8
0
  6
CENTER
 62
     7
 10
-13.999817
 20
14.912816
 11
-13.999817
 21
7.6649375
  0
LINE
  8
0
  6
CONTINUOUS
 62
     7
 10
-7.3999023
 20
13.799998
 11
5.6843419E-014
 21
13.799998
  0
LINE
  8
0
  6
CENTER
 62
     7
 10
14.00002
 20
15
 11
14.00002
 21
7.7704673
  0
LINE
  8
0
  6
CONTINUOUS
 62
     7
 10
12
 20
4
 11
19.200012
 21
4
  0
LINE
  8
0
  6
CONTINUOUS
 62
     7
 10
19.999996
 20
13.499986
 11
19.499992
 21
13.99999
  0
LINE
  8
0
  6
CONTINUOUS
 62
     7
 10
11.999993
 20
4.0196857
 11
11.817994
 21
5.0518537
  0
LINE
  8
0
  6
CONTINUOUS
 62
     7
 10
-12
 20
4.0196838
 11
-12
 21
0.5
  0
LINE
  8
0
  6
CONTINUOUS
 62
     7
 10
-11.5
 20
0
 11
11.5
 21
0
  0
LINE
  8
0
  6
CONTINUOUS
 62
     7
 10
12
 20
4.0196838
 11
12
 21
0.5
  0
LINE
  8
0
  6
CONTINUOUS
 62
     7
 10
-11.210002
 20
8.5
 11
11.210002
 21
8.5
  0
LINE
  8
0
  6
CONTINUOUS
 62
     7
 10
-11.499988
 20
-8.281856E-006
 11
-11.999991
 21
0.49999565
  0
LINE
  8
0
  6
CONTINUOUS
 62
     7
 10
11.499999
 20
3.1820871E-006
 11
11.999995
 21
0.4999997
  0
LINE
  8
0
  6
CONTINUOUS
 62
     7
 10
11.387001
 20
7.4961357
 11
11.209993
 21
8.4999981
  0
LINE
  8
0
  6
CONTINUOUS
 62
     7
 10
-11.387012
 20
7.4961371
 11
-11.210005
 21
8.499999
  0
LINE
  8
0
  6
CONTINUOUS
 62
     7
 10
-12.000005
 20
4.0196872
 11
-11.818006
 21
5.0518546
  0
LINE
  8
0
  6
DASHED
 62
     7
 10
2.25
 20
4
 11
2.25
 21
0.5
  0
LINE
  8
0
  6
DASHED
 62
     7
 10
4
 20
8.5
 11
4
 21
4
  0
LINE
  8
0
  6
DASHED
 62
     7
 10
-4
 20
8.5
 11
-4
 21
4
  0
LINE
  8
0
  6
DASHED
 62
     7
 10
-2.25
 20
4
 11
-2.25
 21
0.5
  0
LINE
  8
0
  6
CONTINUOUS
 62
     7
 10
-19.999735
 20
13.600001
 11
-19.999735
 21
11.458257
  0
LINE
  8
0
  6
CONTINUOUS
 62
     7
 10
9.7998857
 20
14
 11
19.599752
 21
14
  0
LINE
  8
0
  6
CONTINUOUS
 62
     7
 10
9.7998629
 20
13.999997
 11
9.1463156
 21
13.34645
  0
LINE
  8
0
  6
CONTINUOUS
 62
     7
 10
7.3999043
 20
13.799994
 11
7.9998918
 21
13.200006
  0
LINE
  8
0
  6
CONTINUOUS
 62
     7
 10
7.3999228
 20
13.799998
 11
5.6843419E-014
 21
13.799998
  0
LINE
  8
0
  6
DASHED
 62
     7
 10
-2.7500098
 20
4.2146849E-006
 11
-2.2500057
 21
0.50000829
  0
LINE
  8
0
  6
DASHED
 62
     7
 10
2.7499998
 20
-3.0345732E-006
 11
2.2499957
 21
0.50000107
  0
LINE
  8
0
  6
CENTER
 62
     7
 10
-1.2834677
 20
11.000005
 11
1.4544678
 21
11.000005
  0
LINE
  8
0
  6
CONTINUOUS
 62
     7
 10
19.700012
 20
12.700002
 11
19.700012
 21
4.5
  0
LINE
  8
0
  6
CONTINUOUS
 62
     7
 10
19.999756
 20
13.600001
 11
19.999756
 21
9.4919386
  0
LINE
  8
0
  6
CONTINUOUS
 62
     7
 10
19.699747
 20
8.6919556
 11
19.699747
 21
5.7001038
  0
LINE
  8
0
  6
CONTINUOUS
 62
     7
 10
19.699999
 20
4.4999919
 11
19.200003
 21
3.9999955
  0
LINE
  8
0
  6
CONTINUOUS
 62
     7
 10
19.199995
 20
13.200001
 11
19.700001
 21
12.699996
  0
LINE
  8
0
  6
CONTINUOUS
 62
     7
 10
-19.599745
 20
13.99999
 11
-19.999743
 21
13.599992
  0
LINE
  8
0
  6
CONTINUOUS
 62
     7
 10
19.599749
 20
13.999997
 11
19.999754
 21
13.599992
  0
LINE
  8
0
  6
CONTINUOUS
 62
     7
 10
13.203012
 20
4.0001245
 11
11.999789
 21
3.6777222
  0
LINE
  8
0
  6
CONTINUOUS
 62
     7
 10
12.983088
 20
3.527092
 11
12.103315
 21
3.2913578
  0
LINE
  8
0
  6
CONTINUOUS
 62
     7
 10
12.983094
 20
3.5270913
 11
13.203001
 21
3.4001281
  0
LINE
  8
0
  6
CONTINUOUS
 62
     7
 10
13.203023
 20
4.0001221
 11
13.203023
 21
3.4001286
  0
LINE
  8
0
  6
CONTINUOUS
 62
     7
 10
13.203023
 20
3.4001286
 11
16.999796
 21
3.4001286
  0
LINE
  8
0
  6
CONTINUOUS
 62
     7
 10
11.999789
 20
3.6777222
 11
12.103315
 21
3.2913578
  0
LINE
  8
0
  6
DASHED
 62
     7
 10
-4
 20
4
 11
4
 21
4
  0
LINE
  8
0
  6
DASHED
 62
     7
 10
-2.25
 20
0.5
 11
2.25
 21
0.5
  0
LINE
  8
0
  6
CONTINUOUS
 62
     7
 10
-19.999735
 20
10.541743
 11
-19.999735
 21
9.4919386
  0
LINE
  8
0
  6
CONTINUOUS
 62
     7
 10
-12
 20
4
 11
-19.200012
 21
4
  0
LINE
  8
0
  6
CONTINUOUS
 62
     7
 10
-11.99979
 20
3.677722
 11
-12.103315
 21
3.2913578
  0
LINE
  8
0
  6
CONTINUOUS
 62
     7
 10
-19.700008
 20
4.4999957
 11
-19.200005
 21
3.9999914
  0
LINE
  8
0
  6
CONTINUOUS
 62
     7
 10
-13.203012
 20
4.0001245
 11
-11.99979
 21
3.677722
  0
LINE
  8
0
  6
CONTINUOUS
 62
     7
 10
-12.983088
 20
3.527092
 11
-12.103315
 21
3.2913578
  0
LINE
  8
0
  6
CONTINUOUS
 62
     7
 10
-12.983118
 20
3.5270808
 11
-13.203024
 21
3.4001176
  0
LINE
  8
0
  6
CONTINUOUS
 62
     7
 10
-13.203023
 20
4.0001221
 11
-13.203023
 21
3.4001286
  0
LINE
  8
0
  6
CONTINUOUS
 62
     7
 10
-13.203023
 20
3.4001286
 11
-16.999796
 21
3.4001286
  0
LINE
  8
0
  6
CONTINUOUS
 62
     7
 10
-19.699747
 20
8.6919556
 11
-19.699747
 21
5.7001038
  0
LINE
  8
0
  6
CONTINUOUS
 62
     7
 10
-19.700012
 20
12.700002
 11
-19.700012
 21
4.5
  0
LINE
  8
0
  6
CONTINUOUS
 62
     7
 10
-19.999756
 20
13.600001
 11
-19.999756
 21
9.4919386
  0
LINE
  8
0
  6
CONTINUOUS
 62
     7
 10
-19.200005
 20
13.200005
 11
-19.70001
 21
12.7
  0
LINE
  8
0
  6
CONTINUOUS
 62
     7
 10
-12.815845
 20
4.0000038
 11
-11.878491
 21
9.316
  0
LINE
  8
0
  6
CONTINUOUS
 62
     7
 10
12.815813
 20
4.000001
 11
11.87846
 21
9.3159981
  0
LINE
  8
0
  6
CONTINUOUS
 62
     7
 10
5.6843419E-014
 20
13.200002
 11
19.200012
 21
13.200002
  0
LINE
  8
0
  6
CONTINUOUS
 62
     7
 10
-1
 20
13.200007
 11
-1
 21
11.000005
  0
LINE
  8
0
  6
CONTINUOUS
 62
     7
 10
1
 20
13.200002
 11
1
 21
11.000005
  0
LINE
  8
0
  6
CONTINUOUS
 62
     7
 10
-18.75
 20
13.200007
 11
-18.75
 21
11
  0
LINE
  8
0
  6
CONTINUOUS
 62
     7
 10
-15.25
 20
13.200007
 11
-15.25
 21
11
  0
LINE
  8
0
  6
CONTINUOUS
 62
     7
 10
18.75
 20
13.200002
 11
18.75
 21
11
  0
LINE
  8
0
  6
CONTINUOUS
 62
     7
 10
50.731861
 20
8.4999733
 11
50.731861
 21
-2.6952477E-005
  0
LINE
  8
0
  6
CONTINUOUS
 62
     7
 10
160.73186
 20
8.4999733
 11
160.73186
 21
-2.6952477E-005
  0
LINE
  8
0
  6
CONTINUOUS
 62
     7
 10
-11.878499
 20
9.315999
 11
11.878459
 21
9.315999
  0
LINE
  8
0
  6
CONTINUOUS
 62
     7
 10
18.75
 20
13.200007
 11
18.75
 21
11
  0
LINE
  8
0
  6
CONTINUOUS
 62
     7
 10
127.08146
 20
80.614479
 11
127.08146
 21
41.775677
  0
LINE
  8
0
  6
CONTINUOUS
 62
     7
 10
126.58146
 20
80.614479
 11
126.58146
 21
41.775677
  0
LINE
  8
0
  6
CONTINUOUS
 62
     7
 10
50.731453
 20
73.195076
 11
50.731453
 21
49.19508
  0
LINE
  8
0
  6
CONTINUOUS
 62
     7
 10
160.73146
 20
73.195076
 11
160.73146
 21
49.19508
  0
LINE
  8
0
  6
CONTINUOUS
 62
     7
 10
120.38145
 20
81.195076
 11
120.38145
 21
69.195076
  0
LINE
  8
0
  6
CENTER
 62
     7
 10
105.73145
 20
64.171471
 11
105.73145
 21
58.645489
  0
LINE
  8
0
  6
CONTINUOUS
 62
     7
 10
120.38145
 20
53.19508
 11
120.38145
 21
41.19508
  0
LINE
  8
0
  6
CONTINUOUS
 62
     7
 10
91.081459
 20
53.19508
 11
91.081459
 21
41.19508
  0
LINE
  8
0
  6
CONTINUOUS
 62
     7
 10
125.98145
 20
80.895073
 11
120.38145
 21
80.895073
  0
LINE
  8
0
  6
CONTINUOUS
 62
     7
 10
127.98145
 20
73.195076
 11
160.73146
 21
73.195076
  0
LINE
  8
0
  6
CONTINUOUS
 62
     7
 10
125.98145
 20
80.895073
 11
125.98145
 21
41.495083
  0
LINE
  8
0
  6
CONTINUOUS
 62
     7
 10
125.98145
 20
41.495083
 11
120.38145
 21
41.495083
  0
LINE
  8
0
  6
CONTINUOUS
 62
     7
 10
84.381462
 20
80.614479
 11
85.481468
 21
80.614479
  0
LINE
  8
0
  6
CONTINUOUS
 62
     7
 10
85.481468
 20
80.895073
 11
85.481468
 21
41.495083
  0
LINE
  8
0
  6
CONTINUOUS
 62
     7
 10
84.381462
 20
41.775677
 11
85.481468
 21
41.775677
  0
LINE
  8
0
  6
CONTINUOUS
 62
     7
 10
91.081459
 20
81.195076
 11
120.38145
 21
81.195076
  0
LINE
  8
0
  6
CONTINUOUS
 62
     7
 10
84.881462
 20
80.614479
 11
84.881462
 21
41.775677
  0
LINE
  8
0
  6
CONTINUOUS
 62
     7
 10
84.381462
 20
80.614479
 11
84.381462
 21
41.775677
  0
LINE
  8
0
  6
CONTINUOUS
 62
     7
 10
91.081459
 20
41.19508
 11
120.38145
 21
41.19508
  0
LINE
  8
0
  6
CONTINUOUS
 62
     7
 10
123.23145
 20
80.895073
 11
123.23145
 21
41.495083
  0
LINE
  8
0
  6
CONTINUOUS
 62
     7
 10
91.081459
 20
52.19508
 11
120.38145
 21
52.19508
  0
LINE
  8
0
  6
CENTER
 62
     7
 10
99.981453
 20
75.195076
 11
96.481453
 21
75.195076
  0
LINE
  8
0
  6
CENTER
 62
     7
 10
113.23145
 20
48.94508
 11
113.23145
 21
45.44508
  0
LINE
  8
0
  6
CENTER
 62
     7
 10
114.98145
 20
47.19508
 11
111.48145
 21
47.19508
  0
LINE
  8
0
  6
CENTER
 62
     7
 10
98.231453
 20
48.94508
 11
98.231453
 21
45.44508
  0
LINE
  8
0
  6
CENTER
 62
     7
 10
99.981453
 20
47.19508
 11
96.481453
 21
47.19508
  0
LINE
  8
0
  6
CENTER
 62
     7
 10
114.98145
 20
75.195076
 11
111.48145
 21
75.195076
  0
LINE
  8
0
  6
CONTINUOUS
 62
     7
 10
91.081459
 20
70.195076
 11
120.38145
 21
70.195076
  0
LINE
  8
0
  6
CONTINUOUS
 62
     7
 10
88.231468
 20
69.195076
 11
123.23145
 21
69.195076
  0
LINE
  8
0
  6
CONTINUOUS
 62
     7
 10
88.231468
 20
53.19508
 11
123.23145
 21
53.19508
  0
LINE
  8
0
  6
CENTER
 62
     7
 10
113.23145
 20
76.945076
 11
113.23145
 21
73.445076
  0
LINE
  8
0
  6
CENTER
 62
     7
 10
98.231453
 20
76.945076
 11
98.231453
 21
73.445076
  0
LINE
  8
0
  6
CONTINUOUS
 62
     7
 10
83.481453
 20
73.073082
 11
83.481453
 21
49.317081
  0
LINE
  8
0
  6
CENTER
 62
     7
 10
145.73146
 20
66.652519
 11
145.73146
 21
55.713345
  0
LINE
  8
0
  6
CENTER
 62
     7
 10
65.731453
 20
66.765297
 11
65.731453
 21
55.600567
  0
LINE
  8
0
  6
CONTINUOUS
 62
     7
 10
91.081459
 20
81.195076
 11
91.081459
 21
69.195076
  0
LINE
  8
0
  6
CONTINUOUS
 62
     7
 10
50.731453
 20
49.19508
 11
83.598511
 21
49.19508
  0
LINE
  8
0
  6
CENTER
 62
     7
 10
48.195503
 20
61.19508
 11
163.6772
 21
61.19508
  0
LINE
  8
0
  6
CONTINUOUS
 62
     7
 10
50.731453
 20
73.195076
 11
83.598503
 21
73.195076
  0
LINE
  8
0
  6
CONTINUOUS
 62
     7
 10
50.731453
 20
72.405083
 11
83.481453
 21
72.405083
  0
LINE
  8
0
  6
CONTINUOUS
 62
     7
 10
127.08146
 20
80.614479
 11
125.98145
 21
80.614479
  0
LINE
  8
0
  6
CONTINUOUS
 62
     7
 10
127.08146
 20
41.775677
 11
125.98145
 21
41.775677
  0
LINE
  8
0
  6
CONTINUOUS
 62
     7
 10
50.731453
 20
49.985073
 11
83.481453
 21
49.985073
  0
LINE
  8
0
  6
CONTINUOUS
 62
     7
 10
85.481468
 20
80.895073
 11
91.081459
 21
80.895073
  0
LINE
  8
0
  6
CONTINUOUS
 62
     7
 10
88.231468
 20
80.895073
 11
88.231468
 21
41.495083
  0
LINE
  8
0
  6
CONTINUOUS
 62
     7
 10
85.481468
 20
41.495083
 11
91.081459
 21
41.495083
  0
LINE
  8
0
  6
CONTINUOUS
 62
     7
 10
127.98145
 20
49.19508
 11
160.73146
 21
49.19508
  0
LINE
  8
0
  6
CONTINUOUS
 62
     7
 10
127.98145
 20
72.405083
 11
160.73146
 21
72.405083
  0
LINE
  8
0
  6
CONTINUOUS
 62
     7
 10
127.98145
 20
49.985073
 11
160.73146
 21
49.985073
  0
LINE
  8
0
  6
CONTINUOUS
 62
     7
 10
83.481453
 20
73.073082
 11
84.381454
 21
74.011078
  0
LINE
  8
0
  6
CONTINUOUS
 62
     7
 10
83.481453
 20
49.317081
 11
84.381462
 21
48.379086
  0
LINE
  8
0
  6
CONTINUOUS
 62
     7
 10
127.98145
 20
73.073082
 11
127.98145
 21
49.317081
  0
LINE
  8
0
  6
CONTINUOUS
 62
     7
 10
127.98145
 20
49.317081
 11
127.08144
 21
48.379086
  0
LINE
  8
0
  6
CONTINUOUS
 62
     7
 10
127.98145
 20
73.073082
 11
127.08144
 21
74.011078
  0
LINE
  8
0
  6
CONTINUOUS
 62
     7
 10
15.25
 20
13.200007
 11
15.25
 21
11
  0
LINE
  8
0
  6
CONTINUOUS
 62
     7
 10
84.381866
 20
3.3999629
 11
127.08186
 21
3.3999629
  0
ARC
  8
0
  6
CONTINUOUS
 62
     7
 10
86.081879
 20
10.899987
 40
2.5
 50
179.99999
 51
227.15636
  0
ARC
  8
0
  6
CONTINUOUS
 62
     7
 10
86.081879
 20
10.899987
 40
2.5
 50
132.84364
 51
180.00001
  0
ARC
  8
0
  6
CONTINUOUS
 62
     7
 10
125.38185
 20
10.899987
 40
2.5
 50
312.84364
 51
0
  0
ARC
  8
0
  6
CONTINUOUS
 62
     7
 10
125.38185
 20
10.899987
 40
2.5
 50
0
 51
47.156357
  0
ARC
  8
0
  6
CONTINUOUS
 62
     7
 10
-8.7927656
 20
13.699997
 40
0.49999377
 50
225
 51
270
  0
ARC
  8
0
  6
CONTINUOUS
 62
     7
 10
-19.699747
 20
9.4919386
 40
0.29999626
 50
179.99999
 51
270
  0
CIRCLE
  8
0
  6
CONTINUOUS
 62
     7
 10
17
 20
11
 40
1.5999994
  0
ARC
  8
0
  6
CONTINUOUS
 62
     7
 10
-11.75
 20
6.3000031
 40
1.25
 50
266.88168
 51
73.118323
  0
ARC
  8
0
  6
CONTINUOUS
 62
     7
 10
11.75
 20
6.3000031
 40
1.25
 50
106.88164
 51
273.11834
  0
ARC
  8
0
  6
CONTINUOUS
 62
     7
 10
8.7927656
 20
13.699997
 40
0.49999377
 50
270
 51
315
  0
CIRCLE
  8
0
  6
CONTINUOUS
 62
     7
 10
0
 20
11.000005
 40
1
  0
ARC
  8
0
  6
CONTINUOUS
 62
     7
 10
19.699747
 20
9.4919386
 40
0.29999626
 50
270
 51
8.6514223E-006
  0
ARC
  8
0
  6
CONTINUOUS
 62
     7
 10
16.999796
 20
4.0001221
 40
0.60000002
 50
270.00001
 51
4.3257107E-006
  0
ARC
  8
0
  6
CONTINUOUS
 62
     7
 10
-16.999796
 20
4.0001221
 40
0.60000002
 50
179.99999
 51
270
  0
ARC
  8
0
  6
CONTINUOUS
 62
     7
 10
-19.699747
 20
9.4919386
 40
0.29999626
 50
179.99999
 51
270
  0
CIRCLE
  8
0
  6
CONTINUOUS
 62
     7
 10
-17
 20
11
 40
1.5999994
  0
ARC
  8
0
  6
CONTINUOUS
 62
     7
 10
-17
 20
11
 40
1.75
 50
179.99999
 51
1.0017913E-005
  0
ARC
  8
0
  6
CONTINUOUS
 62
     7
 10
17
 20
11
 40
1.75
 50
179.99999
 51
1.0017913E-005
  0
ARC
  8
0
  6
CONTINUOUS
 62
     7
 10
124.88145
 20
44.19508
 40
2.5
 50
331.64246
 51
5.0089561E-006
  0
ARC
  8
0
  6
CONTINUOUS
 62
     7
 10
124.88145
 20
78.195076
 40
2.5
 50
331.64246
 51
5.008956E-006
  0
ARC
  8
0
  6
CONTINUOUS
 62
     7
 10
124.88145
 20
44.195248
 40
2.5
 50
359.93592
 51
359.99999
  0
ARC
  8
0
  6
CONTINUOUS
 62
     7
 10
86.581459
 20
44.19508
 40
2.5
 50
151.64247
 51
180.00001
  0
ARC
  8
0
  6
CONTINUOUS
 62
     7
 10
86.581459
 20
78.195076
 40
2.5
 50
179.99999
 51
208.35754
  0
ARC
  8
0
  6
CONTINUOUS
 62
     7
 10
86.581459
 20
78.195076
 40
2.5
 50
151.64247
 51
180.00001
  0
ARC
  8
0
  6
CONTINUOUS
 62
     7
 10
86.581459
 20
44.195248
 40
2.5
 50
180.00001
 51
180.06408
  0
ARC
  8
0
  6
CONTINUOUS
 62
     7
 10
86.581459
 20
44.19508
 40
2.5
 50
179.99999
 51
208.35754
  0
ARC
  8
0
  6
CONTINUOUS
 62
     7
 10
124.88145
 20
78.195076
 40
2.5
 50
359.99999
 51
28.357538
  0
ARC
  8
0
  6
CONTINUOUS
 62
     7
 10
124.88145
 20
44.19508
 40
2.5
 50
359.99999
 51
28.357538
  0
CIRCLE
  8
0
  6
CONTINUOUS
 62
     7
 10
98.231453
 20
47.19508
 40
1.25
  0
CIRCLE
  8
0
  6
CONTINUOUS
 62
     7
 10
98.231453
 20
47.19508
 40
1.5
  0
CIRCLE
  8
0
  6
CONTINUOUS
 62
     7
 10
65.731453
 20
61.19508
 40
2.25
  0
CIRCLE
  8
0
  6
CONTINUOUS
 62
     7
 10
65.731453
 20
61.19508
 40
4
  0
TEXT
  8
0
  6
CONTINUOUS
 62
     7
 10
13.614691
 20
-22.464825
 40
3.5999999
 41
1.0333334
  1
RSR12WZ
  0
TEXT
  8
0
  6
CONTINUOUS
 62
     7
 10
13.614691
 20
-27.464825
 40
3.5999999
 41
1.0208334
  1
  C = 4020N
  0
TEXT
  8
0
  6
CONTINUOUS
 62
     7
 10
13.614691
 20
-32.464825
 40
3.5999999
 41
1.0208334
  1
  C0= 6080N
  0
ENDSEC
  0
EOF
