  0
SECTION
  2
HEADER
  0
ENDSEC
  0
SECTION
  2
TABLES
  0
TABLE
  2
LTYPE
 70
    22
  0
LTYPE
  2
CONTINUOUS
 70
    64
  3
Solid line
 72
    65
 73
     0
 40
0.000000
  0
LTYPE
  2
DASHED
 70
    64
  3
__ __ __ __ __ __ __ __ __ __ __ __ __ __ __
 72
    65
 73
     2
 40
3.500000
 49
2.000000
 49
-1.500000
  0
LTYPE
  2
CENTER
 70
    64
  3
____ _ ____ _ ____ _ ____ _ ____ _ ____ _ ____
 72
    65
 73
     4
 40
17.500000
 49
13.000000
 49
-1.500000
 49
1.500000
 49
-1.500000
  0
LTYPE
  2
PHANTOM
 70
    64
  3
_____ _ _ _____ _ _ _____ _ _ _____ _ _ ____  
 72
    65
 73
     6
 40
15.500000
 49
8.000000
 49
-1.500000
 49
1.500000
 49
-1.500000
 49
1.500000
 49
-1.500000
  0
LTYPE
  2
DOT
 70
    64
  3
. . . . . . . . . . . . . . . . . . . . . . . .
 72
    65
 73
     2
 40
0.25
 49
0.0
 49
-0.25
  0
ENDTAB
  0
TABLE
  2
LAYER
 70
     1
  0
LAYER
  2
0
 70
     0
 62
     7
  6
CONTINUOUS
  0
ENDTAB
  0
TABLE
  2
STYLE
 70
     1
  0
STYLE
  2
STANDARD
 70
     0
 40
0.000000
 41
1.000000
 50
0.000000
 71
     0
 42
0.200000
  3
txt
  0
ENDTAB
  0
TABLE
  2
VIEW
 70
     0
  0
ENDTAB
  0
ENDSEC
  0
SECTION
  2
BLOCKS
  0
ENDSEC
  0
SECTION
  2
ENTITIES
  0
LINE
  8
0
  6
CONTINUOUS
 62
     7
 10
91.08187866210938
 20
13.99997329711914
 11
91.08187866210938
 21
9.19185733795166
  0
LINE
  8
0
  6
CONTINUOUS
 62
     7
 10
91.08187866210938
 20
13.99997329711914
 11
120.3818664550781
 21
13.99997329711914
  0
LINE
  8
0
  6
CONTINUOUS
 62
     7
 10
90.58187866210938
 20
9.375095367431641
 11
90.58187866210938
 21
5.922651767730713
  0
LINE
  8
0
  6
CONTINUOUS
 62
     7
 10
88.23185729980469
 20
5.697737216949463
 11
88.23185729980469
 21
5.339369297027588
  0
LINE
  8
0
  6
CONTINUOUS
 62
     7
 10
88.23185729980469
 20
13.19996452331543
 11
88.23185729980469
 21
9.375095367431641
  0
LINE
  8
0
  6
CONTINUOUS
 62
     7
 10
88.23185729980469
 20
5.922651767730713
 11
88.23185729980469
 21
5.399966716766357
  0
LINE
  8
0
  6
CONTINUOUS
 62
     7
 10
120.3818664550781
 20
13.99997329711914
 11
120.3818664550781
 21
9.19185733795166
  0
LINE
  8
0
  6
CONTINUOUS
 62
     7
 10
88.23185729980469
 20
13.19996452331543
 11
91.08187866210938
 21
13.19996452331543
  0
LINE
  8
0
  6
CONTINUOUS
 62
     7
 10
123.2318572998047
 20
13.19996452331543
 11
120.3818664550781
 21
13.19996452331543
  0
LINE
  8
0
  6
CENTER
 62
     7
 10
113.2318496704102
 20
15.31279850006104
 11
113.2318496704102
 21
8.06483268737793
  0
LINE
  8
0
  6
CENTER
 62
     7
 10
105.7318496704102
 20
6.283969402313232
 11
105.7318496704102
 21
-1.984259486198425
  0
LINE
  8
0
  6
CONTINUOUS
 62
     7
 10
88.23185729980469
 20
9.375095367431641
 11
90.58187866210938
 21
9.375095367431641
  0
LINE
  8
0
  6
CONTINUOUS
 62
     7
 10
88.23185729980469
 20
5.922651767730713
 11
90.58187866210938
 21
5.922651767730713
  0
LINE
  8
0
  6
CONTINUOUS
 62
     7
 10
91.08185577392578
 20
13.79996204376221
 11
88.23184967041016
 21
13.1999626159668
  0
LINE
  8
0
  6
CONTINUOUS
 62
     7
 10
120.3818817138672
 20
13.79996299743652
 11
123.2318649291992
 21
13.19996643066406
  0
LINE
  8
0
  6
DASHED
 62
     7
 10
99.73184967041016
 20
10.39997100830078
 11
96.73184967041016
 21
10.39997100830078
  0
LINE
  8
0
  6
DASHED
 62
     7
 10
97.0318603515625
 20
13.99997329711914
 11
97.0318603515625
 21
9.399971008300781
  0
LINE
  8
0
  6
DASHED
 62
     7
 10
96.73184967041016
 20
13.99997329711914
 11
96.73184967041016
 21
10.40000438690186
  0
LINE
  8
0
  6
DASHED
 62
     7
 10
96.73187255859375
 20
10.39996719360352
 11
97.03187561035156
 21
9.880356788635254
  0
LINE
  8
0
  6
DASHED
 62
     7
 10
99.43186187744141
 20
9.399971008300781
 11
97.0318603515625
 21
9.399971008300781
  0
LINE
  8
0
  6
DASHED
 62
     7
 10
97.03187561035156
 20
9.399959564208984
 11
98.23187255859375
 21
8.707141876220703
  0
LINE
  8
0
  6
DASHED
 62
     7
 10
99.43186950683594
 20
9.399967193603516
 11
98.23187255859375
 21
8.707149505615234
  0
LINE
  8
0
  6
CENTER
 62
     7
 10
98.23184967041016
 20
15.31279850006104
 11
98.23184967041016
 21
8.06483268737793
  0
LINE
  8
0
  6
DASHED
 62
     7
 10
99.43186187744141
 20
13.99997329711914
 11
99.43186187744141
 21
9.399971008300781
  0
LINE
  8
0
  6
DASHED
 62
     7
 10
99.73188018798828
 20
10.39995861053467
 11
99.431884765625
 21
9.880344390869141
  0
LINE
  8
0
  6
DASHED
 62
     7
 10
99.73184967041016
 20
13.99997329711914
 11
99.73184967041016
 21
10.39997100830078
  0
LINE
  8
0
  6
CONTINUOUS
 62
     7
 10
90.58187866210938
 20
8.69184684753418
 11
120.8818664550781
 21
8.69184684753418
  0
LINE
  8
0
  6
CONTINUOUS
 62
     7
 10
90.58187866210938
 20
9.19185733795166
 11
120.8818664550781
 21
9.19185733795166
  0
LINE
  8
0
  6
CONTINUOUS
 62
     7
 10
50.73186111450195
 20
-2.695247712836135E-005
 11
160.7318572998047
 21
-2.695247712836135E-005
  0
LINE
  8
0
  6
CONTINUOUS
 62
     7
 10
50.73186111450195
 20
8.499973297119141
 11
83.48185729980469
 21
8.499973297119141
  0
LINE
  8
0
  6
CONTINUOUS
 62
     7
 10
83.48185729980469
 20
8.69997501373291
 11
83.48185729980469
 21
4.099978923797607
  0
LINE
  8
0
  6
CONTINUOUS
 62
     7
 10
127.9818572998047
 20
8.69997501373291
 11
127.9818572998047
 21
4.099968910217285
  0
LINE
  8
0
  6
CONTINUOUS
 62
     7
 10
127.9818572998047
 20
8.499973297119141
 11
160.7318572998047
 21
8.499973297119141
  0
LINE
  8
0
  6
CONTINUOUS
 62
     7
 10
84.38186645507813
 20
13.19997501373291
 11
85.48185729980469
 21
13.19997501373291
  0
LINE
  8
0
  6
CONTINUOUS
 62
     7
 10
125.9818496704102
 20
13.19997501373291
 11
127.0818557739258
 21
13.19997501373291
  0
LINE
  8
0
  6
CONTINUOUS
 62
     7
 10
84.12544250488281
 20
9.343564033508301
 11
83.48184967041016
 21
8.69997501373291
  0
LINE
  8
0
  6
CONTINUOUS
 62
     7
 10
127.338264465332
 20
9.343555450439453
 11
127.9818420410156
 21
8.699977874755859
  0
LINE
  8
0
  6
CONTINUOUS
 62
     7
 10
50.73186111450195
 20
7.496107578277588
 11
83.48185729980469
 21
7.496107578277588
  0
LINE
  8
0
  6
CONTINUOUS
 62
     7
 10
50.73186111450195
 20
5.051822185516357
 11
83.48185729980469
 21
5.051822185516357
  0
LINE
  8
0
  6
CONTINUOUS
 62
     7
 10
127.9818572998047
 20
7.496107578277588
 11
160.7318572998047
 21
7.496107578277588
  0
LINE
  8
0
  6
CONTINUOUS
 62
     7
 10
127.9818572998047
 20
5.051822185516357
 11
160.7318572998047
 21
5.051822185516357
  0
LINE
  8
0
  6
CONTINUOUS
 62
     7
 10
50.73186111450195
 20
4.019656658172607
 11
84.38186645507813
 21
4.019656658172607
  0
LINE
  8
0
  6
CONTINUOUS
 62
     7
 10
125.9818496704102
 20
13.19998550415039
 11
123.2318572998047
 21
13.19998550415039
  0
LINE
  8
0
  6
CONTINUOUS
 62
     7
 10
90.58185577392578
 20
9.36897087097168
 11
90.58185577392578
 21
5.928775310516357
  0
LINE
  8
0
  6
CONTINUOUS
 62
     7
 10
88.23185729980469
 20
5.697737216949463
 11
88.23185729980469
 21
5.339369297027588
  0
LINE
  8
0
  6
CONTINUOUS
 62
     7
 10
85.48185729980469
 20
13.19998550415039
 11
88.23185729980469
 21
13.19998550415039
  0
LINE
  8
0
  6
CONTINUOUS
 62
     7
 10
123.2318572998047
 20
13.19996452331543
 11
123.2318572998047
 21
9.375095367431641
  0
LINE
  8
0
  6
CONTINUOUS
 62
     7
 10
120.8818664550781
 20
9.36897087097168
 11
123.2318572998047
 21
9.36897087097168
  0
LINE
  8
0
  6
CONTINUOUS
 62
     7
 10
120.8818664550781
 20
9.36897087097168
 11
120.8818664550781
 21
5.928775310516357
  0
LINE
  8
0
  6
CONTINUOUS
 62
     7
 10
123.2318572998047
 20
5.922651767730713
 11
120.8818435668945
 21
5.922651767730713
  0
LINE
  8
0
  6
CONTINUOUS
 62
     7
 10
123.2318572998047
 20
5.922651767730713
 11
123.2318572998047
 21
5.399966716766357
  0
LINE
  8
0
  6
CONTINUOUS
 62
     7
 10
85.48185729980469
 20
13.19998550415039
 11
85.48185729980469
 21
4.099978923797607
  0
LINE
  8
0
  6
CONTINUOUS
 62
     7
 10
125.9818496704102
 20
13.19998550415039
 11
125.9818496704102
 21
4.099978923797607
  0
LINE
  8
0
  6
CONTINUOUS
 62
     7
 10
84.38186645507813
 20
13.19997501373291
 11
84.38186645507813
 21
3.399962902069092
  0
LINE
  8
0
  6
CONTINUOUS
 62
     7
 10
127.0818557739258
 20
13.19997501373291
 11
127.0818557739258
 21
3.399962902069092
  0
LINE
  8
0
  6
DASHED
 62
     7
 10
61.73186111450195
 20
8.499973297119141
 11
61.73186111450195
 21
3.999973058700562
  0
LINE
  8
0
  6
CENTER
 62
     7
 10
65.73185729980469
 20
9.499973297119141
 11
65.73185729980469
 21
-1.000026941299439
  0
LINE
  8
0
  6
DASHED
 62
     7
 10
69.73185729980469
 20
8.499973297119141
 11
69.73185729980469
 21
3.999973058700562
  0
LINE
  8
0
  6
DASHED
 62
     7
 10
61.73186111450195
 20
3.999973058700562
 11
69.73185729980469
 21
3.999973058700562
  0
LINE
  8
0
  6
DASHED
 62
     7
 10
63.48186111450195
 20
3.999973058700562
 11
63.48186111450195
 21
-2.695247712836135E-005
  0
LINE
  8
0
  6
DASHED
 62
     7
 10
67.98185729980469
 20
3.999973058700562
 11
67.98185729980469
 21
-2.695247712836135E-005
  0
LINE
  8
0
  6
CONTINUOUS
 62
     7
 10
84.88186645507813
 20
13.19998550415039
 11
84.88186645507813
 21
4.099978923797607
  0
LINE
  8
0
  6
CONTINUOUS
 62
     7
 10
126.5818557739258
 20
13.19998550415039
 11
126.5818557739258
 21
4.099978923797607
  0
LINE
  8
0
  6
CONTINUOUS
 62
     7
 10
85.48185729980469
 20
5.399966716766357
 11
125.9818496704102
 21
5.399966716766357
  0
LINE
  8
0
  6
CONTINUOUS
 62
     7
 10
83.48185729980469
 20
4.099978923797607
 11
85.48185729980469
 21
4.099978923797607
  0
LINE
  8
0
  6
CONTINUOUS
 62
     7
 10
127.9818572998047
 20
4.099978923797607
 11
125.9818725585938
 21
4.099978923797607
  0
LINE
  8
0
  6
CONTINUOUS
 62
     7
 10
85.48185729980469
 20
4.799971103668213
 11
125.9818496704102
 21
4.799971103668213
  0
LINE
  8
0
  6
CONTINUOUS
 62
     7
 10
-1.999674439430237
 20
13.19999217987061
 11
2.000325441360474
 21
13.19999217987061
  0
LINE
  8
0
  6
CENTER
 62
     7
 10
145.7318572998047
 20
9.499973297119141
 11
145.7318572998047
 21
-1.000026941299439
  0
LINE
  8
0
  6
CONTINUOUS
 62
     7
 10
160.7318572998047
 20
4.019656658172607
 11
127.0818557739258
 21
4.019656658172607
  0
LINE
  8
0
  6
CENTER
 62
     7
 10
0
 20
14.47805309295654
 11
0
 21
0.3052978515625
  0
LINE
  8
0
  6
CONTINUOUS
 62
     7
 10
-9.79986572265625
 20
14
 11
-19.5997314453125
 21
14
  0
LINE
  8
0
  6
CONTINUOUS
 62
     7
 10
-9.799872398376465
 20
14.00000476837158
 11
-9.146310806274414
 21
13.34644317626953
  0
LINE
  8
0
  6
CONTINUOUS
 62
     7
 10
-19.19999122619629
 20
13.20000743865967
 11
5.684341886080802E-014
 21
13.20000743865967
  0
LINE
  8
0
  6
CONTINUOUS
 62
     7
 10
-7.399907112121582
 20
13.79999446868897
 11
-7.999894618988037
 21
13.20000648498535
  0
LINE
  8
0
  6
CENTER
 62
     7
 10
-13.99981689453125
 20
14.91281604766846
 11
-13.99981689453125
 21
7.664937496185303
  0
LINE
  8
0
  6
CONTINUOUS
 62
     7
 10
-7.39990234375
 20
13.79999828338623
 11
5.684341886080802E-014
 21
13.79999828338623
  0
LINE
  8
0
  6
CENTER
 62
     7
 10
14.00002002716065
 20
15
 11
14.00002002716065
 21
7.770467281341553
  0
LINE
  8
0
  6
CONTINUOUS
 62
     7
 10
12
 20
4
 11
19.20001220703125
 21
4
  0
LINE
  8
0
  6
CONTINUOUS
 62
     7
 10
19.99999618530273
 20
13.49998569488525
 11
19.49999237060547
 21
13.99998950958252
  0
LINE
  8
0
  6
CONTINUOUS
 62
     7
 10
11.99999332427979
 20
4.019685745239258
 11
11.81799411773682
 21
5.051853656768799
  0
LINE
  8
0
  6
CONTINUOUS
 62
     7
 10
-12
 20
4.019683837890625
 11
-12
 21
0.5
  0
LINE
  8
0
  6
CONTINUOUS
 62
     7
 10
-11.5
 20
0
 11
11.5
 21
0
  0
LINE
  8
0
  6
CONTINUOUS
 62
     7
 10
12
 20
4.019683837890625
 11
12
 21
0.5
  0
LINE
  8
0
  6
CONTINUOUS
 62
     7
 10
-11.21000194549561
 20
8.5
 11
11.21000194549561
 21
8.5
  0
LINE
  8
0
  6
CONTINUOUS
 62
     7
 10
-11.49998760223389
 20
-8.281856025860179E-006
 11
-11.99999141693115
 21
0.4999956488609314
  0
LINE
  8
0
  6
CONTINUOUS
 62
     7
 10
11.49999904632568
 20
3.182087084496743E-006
 11
11.99999523162842
 21
0.4999997019767761
  0
LINE
  8
0
  6
CONTINUOUS
 62
     7
 10
11.38700103759766
 20
7.496135711669922
 11
11.20999336242676
 21
8.499998092651367
  0
LINE
  8
0
  6
CONTINUOUS
 62
     7
 10
-11.38701248168945
 20
7.496137142181397
 11
-11.21000480651856
 21
8.499999046325684
  0
LINE
  8
0
  6
CONTINUOUS
 62
     7
 10
-12.00000476837158
 20
4.019687175750732
 11
-11.81800556182861
 21
5.051854610443115
  0
LINE
  8
0
  6
DASHED
 62
     7
 10
2.25
 20
4
 11
2.25
 21
0
  0
LINE
  8
0
  6
DASHED
 62
     7
 10
4
 20
8.5
 11
4
 21
4
  0
LINE
  8
0
  6
DASHED
 62
     7
 10
-4
 20
8.5
 11
-4
 21
4
  0
LINE
  8
0
  6
DASHED
 62
     7
 10
-2.25
 20
4
 11
-2.25
 21
0
  0
LINE
  8
0
  6
CONTINUOUS
 62
     7
 10
-19.99973487854004
 20
13.60000133514404
 11
-19.99973487854004
 21
11.45825672149658
  0
LINE
  8
0
  6
CONTINUOUS
 62
     7
 10
9.799885749816895
 20
14
 11
19.59975242614746
 21
14
  0
LINE
  8
0
  6
CONTINUOUS
 62
     7
 10
9.799862861633301
 20
13.99999713897705
 11
9.146315574645996
 21
13.34644985198975
  0
LINE
  8
0
  6
CONTINUOUS
 62
     7
 10
7.399904251098633
 20
13.79999446868897
 11
7.999891757965088
 21
13.20000648498535
  0
LINE
  8
0
  6
CONTINUOUS
 62
     7
 10
7.399922847747803
 20
13.79999828338623
 11
5.684341886080802E-014
 21
13.79999828338623
  0
LINE
  8
0
  6
CENTER
 62
     7
 10
-1.283467650413513
 20
11.00000476837158
 11
1.4544677734375
 21
11.00000476837158
  0
LINE
  8
0
  6
CONTINUOUS
 62
     7
 10
19.70001220703125
 20
12.70000171661377
 11
19.70001220703125
 21
4.5
  0
LINE
  8
0
  6
CONTINUOUS
 62
     7
 10
19.999755859375
 20
13.60000133514404
 11
19.999755859375
 21
9.199999809265137
  0
LINE
  8
0
  6
CONTINUOUS
 62
     7
 10
19.69999885559082
 20
4.499991893768311
 11
19.20000267028809
 21
3.999995470046997
  0
LINE
  8
0
  6
CONTINUOUS
 62
     7
 10
19.19999504089356
 20
13.20000076293945
 11
19.70000076293945
 21
12.69999599456787
  0
LINE
  8
0
  6
CONTINUOUS
 62
     7
 10
-19.59974479675293
 20
13.99999046325684
 11
-19.99974250793457
 21
13.59999179840088
  0
LINE
  8
0
  6
CONTINUOUS
 62
     7
 10
19.5997486114502
 20
13.99999713897705
 11
19.99975395202637
 21
13.59999179840088
  0
LINE
  8
0
  6
CONTINUOUS
 62
     7
 10
13.20301151275635
 20
4.000124454498291
 11
11.99978923797607
 21
3.677722215652466
  0
LINE
  8
0
  6
CONTINUOUS
 62
     7
 10
12.98308753967285
 20
3.527091979980469
 11
12.10331535339356
 21
3.291357755661011
  0
LINE
  8
0
  6
CONTINUOUS
 62
     7
 10
12.98309421539307
 20
3.527091264724731
 11
13.20300102233887
 21
3.400128126144409
  0
LINE
  8
0
  6
CONTINUOUS
 62
     7
 10
13.20302295684815
 20
4.0001220703125
 11
13.20302295684815
 21
3.400128602981567
  0
LINE
  8
0
  6
CONTINUOUS
 62
     7
 10
13.20302295684815
 20
3.400128602981567
 11
16.99979591369629
 21
3.400128602981567
  0
LINE
  8
0
  6
CONTINUOUS
 62
     7
 10
11.99978923797607
 20
3.677722215652466
 11
12.10331535339356
 21
3.291357755661011
  0
LINE
  8
0
  6
DASHED
 62
     7
 10
-4
 20
4
 11
4
 21
4
  0
LINE
  8
0
  6
CONTINUOUS
 62
     7
 10
-19.99973487854004
 20
10.54174327850342
 11
-19.99973487854004
 21
9.199999809265137
  0
LINE
  8
0
  6
CONTINUOUS
 62
     7
 10
-12
 20
4
 11
-19.20001220703125
 21
4
  0
LINE
  8
0
  6
CONTINUOUS
 62
     7
 10
-11.99979019165039
 20
3.677721977233887
 11
-12.10331535339356
 21
3.291357755661011
  0
LINE
  8
0
  6
CONTINUOUS
 62
     7
 10
-19.70000839233398
 20
4.499995708465576
 11
-19.20000457763672
 21
3.999991416931152
  0
LINE
  8
0
  6
CONTINUOUS
 62
     7
 10
-13.20301151275635
 20
4.000124454498291
 11
-11.99979019165039
 21
3.677721977233887
  0
LINE
  8
0
  6
CONTINUOUS
 62
     7
 10
-12.98308849334717
 20
3.527091979980469
 11
-12.10331535339356
 21
3.291357755661011
  0
LINE
  8
0
  6
CONTINUOUS
 62
     7
 10
-12.98311805725098
 20
3.527080774307251
 11
-13.20302391052246
 21
3.400117635726929
  0
LINE
  8
0
  6
CONTINUOUS
 62
     7
 10
-13.20302295684815
 20
4.0001220703125
 11
-13.20302295684815
 21
3.400128602981567
  0
LINE
  8
0
  6
CONTINUOUS
 62
     7
 10
-13.20302295684815
 20
3.400128602981567
 11
-16.99979591369629
 21
3.400128602981567
  0
LINE
  8
0
  6
CONTINUOUS
 62
     7
 10
-19.69974708557129
 20
12.70026302337647
 11
-19.69974708557129
 21
4.499733924865723
  0
LINE
  8
0
  6
CONTINUOUS
 62
     7
 10
-19.999755859375
 20
13.60000133514404
 11
-19.999755859375
 21
9.199999809265137
  0
LINE
  8
0
  6
CONTINUOUS
 62
     7
 10
-19.20000457763672
 20
13.20000457763672
 11
-19.70001029968262
 21
12.69999980926514
  0
LINE
  8
0
  6
CONTINUOUS
 62
     7
 10
-12.81584453582764
 20
4.000003814697266
 11
-11.87849140167236
 21
9.315999984741211
  0
LINE
  8
0
  6
CONTINUOUS
 62
     7
 10
12.8158130645752
 20
4.000000953674316
 11
11.87845993041992
 21
9.315998077392578
  0
LINE
  8
0
  6
CONTINUOUS
 62
     7
 10
5.684341886080802E-014
 20
13.20000171661377
 11
19.20001220703125
 21
13.20000171661377
  0
LINE
  8
0
  6
CONTINUOUS
 62
     7
 10
-1
 20
13.20000743865967
 11
-1
 21
11.00000476837158
  0
LINE
  8
0
  6
CONTINUOUS
 62
     7
 10
1
 20
13.20000171661377
 11
1
 21
11.00000476837158
  0
LINE
  8
0
  6
CONTINUOUS
 62
     7
 10
-18.75
 20
13.20000743865967
 11
-18.75
 21
11
  0
LINE
  8
0
  6
CONTINUOUS
 62
     7
 10
-15.25
 20
13.20000743865967
 11
-15.25
 21
11
  0
LINE
  8
0
  6
CONTINUOUS
 62
     7
 10
18.75
 20
13.20000171661377
 11
18.75
 21
11
  0
LINE
  8
0
  6
CONTINUOUS
 62
     7
 10
50.73186111450195
 20
8.499973297119141
 11
50.73186111450195
 21
-2.695247712836135E-005
  0
LINE
  8
0
  6
CONTINUOUS
 62
     7
 10
160.7318572998047
 20
8.499973297119141
 11
160.7318572998047
 21
-2.695247712836135E-005
  0
LINE
  8
0
  6
CONTINUOUS
 62
     7
 10
-11.8784990310669
 20
9.315999031066895
 11
11.87845897674561
 21
9.315999031066895
  0
LINE
  8
0
  6
CONTINUOUS
 62
     7
 10
18.75
 20
13.20000743865967
 11
18.75
 21
11
  0
LINE
  8
0
  6
CONTINUOUS
 62
     7
 10
127.0814590454102
 20
80.61447906494141
 11
127.0814590454102
 21
41.77567672729492
  0
LINE
  8
0
  6
CONTINUOUS
 62
     7
 10
126.5814590454102
 20
80.61447906494141
 11
126.5814590454102
 21
41.77567672729492
  0
LINE
  8
0
  6
CONTINUOUS
 62
     7
 10
50.73145294189453
 20
73.19507598876953
 11
50.73145294189453
 21
49.1950798034668
  0
LINE
  8
0
  6
CONTINUOUS
 62
     7
 10
160.7314605712891
 20
73.19507598876953
 11
160.7314605712891
 21
49.1950798034668
  0
LINE
  8
0
  6
CONTINUOUS
 62
     7
 10
120.3814468383789
 20
81.19507598876953
 11
120.3814468383789
 21
69.19507598876953
  0
LINE
  8
0
  6
CENTER
 62
     7
 10
105.7314529418945
 20
64.17147064208984
 11
105.7314529418945
 21
58.64548873901367
  0
LINE
  8
0
  6
CONTINUOUS
 62
     7
 10
120.3814468383789
 20
53.1950798034668
 11
120.3814468383789
 21
41.1950798034668
  0
LINE
  8
0
  6
CONTINUOUS
 62
     7
 10
91.08145904541016
 20
53.1950798034668
 11
91.08145904541016
 21
41.1950798034668
  0
LINE
  8
0
  6
CONTINUOUS
 62
     7
 10
125.9814529418945
 20
80.89507293701172
 11
120.3814468383789
 21
80.89507293701172
  0
LINE
  8
0
  6
CONTINUOUS
 62
     7
 10
127.9814529418945
 20
73.19507598876953
 11
160.7314605712891
 21
73.19507598876953
  0
LINE
  8
0
  6
CONTINUOUS
 62
     7
 10
125.9814529418945
 20
80.89507293701172
 11
125.9814529418945
 21
41.49508285522461
  0
LINE
  8
0
  6
CONTINUOUS
 62
     7
 10
125.9814529418945
 20
41.49508285522461
 11
120.3814468383789
 21
41.49508285522461
  0
LINE
  8
0
  6
CONTINUOUS
 62
     7
 10
84.38146209716797
 20
80.61447906494141
 11
85.48146820068359
 21
80.61447906494141
  0
LINE
  8
0
  6
CONTINUOUS
 62
     7
 10
85.48146820068359
 20
80.89507293701172
 11
85.48146820068359
 21
41.49508285522461
  0
LINE
  8
0
  6
CONTINUOUS
 62
     7
 10
84.38146209716797
 20
41.77567672729492
 11
85.48146820068359
 21
41.77567672729492
  0
LINE
  8
0
  6
CONTINUOUS
 62
     7
 10
91.08145904541016
 20
81.19507598876953
 11
120.3814468383789
 21
81.19507598876953
  0
LINE
  8
0
  6
CONTINUOUS
 62
     7
 10
84.88146209716797
 20
80.61447906494141
 11
84.88146209716797
 21
41.77567672729492
  0
LINE
  8
0
  6
CONTINUOUS
 62
     7
 10
84.38146209716797
 20
80.61447906494141
 11
84.38146209716797
 21
41.77567672729492
  0
LINE
  8
0
  6
CONTINUOUS
 62
     7
 10
91.08145904541016
 20
41.1950798034668
 11
120.3814468383789
 21
41.1950798034668
  0
LINE
  8
0
  6
CONTINUOUS
 62
     7
 10
123.2314529418945
 20
80.89507293701172
 11
123.2314529418945
 21
41.49508285522461
  0
LINE
  8
0
  6
CONTINUOUS
 62
     7
 10
91.08145904541016
 20
52.1950798034668
 11
120.3814468383789
 21
52.1950798034668
  0
LINE
  8
0
  6
CENTER
 62
     7
 10
99.98145294189453
 20
75.19507598876953
 11
96.48145294189453
 21
75.19507598876953
  0
LINE
  8
0
  6
CENTER
 62
     7
 10
113.2314529418945
 20
48.9450798034668
 11
113.2314529418945
 21
45.4450798034668
  0
LINE
  8
0
  6
CENTER
 62
     7
 10
114.9814529418945
 20
47.1950798034668
 11
111.4814529418945
 21
47.1950798034668
  0
LINE
  8
0
  6
CENTER
 62
     7
 10
98.23145294189453
 20
48.9450798034668
 11
98.23145294189453
 21
45.4450798034668
  0
LINE
  8
0
  6
CENTER
 62
     7
 10
99.98145294189453
 20
47.1950798034668
 11
96.48145294189453
 21
47.1950798034668
  0
LINE
  8
0
  6
CENTER
 62
     7
 10
114.9814529418945
 20
75.19507598876953
 11
111.4814529418945
 21
75.19507598876953
  0
LINE
  8
0
  6
CONTINUOUS
 62
     7
 10
91.08145904541016
 20
70.19507598876953
 11
120.3814468383789
 21
70.19507598876953
  0
LINE
  8
0
  6
CONTINUOUS
 62
     7
 10
88.23146820068359
 20
69.19507598876953
 11
123.2314529418945
 21
69.19507598876953
  0
LINE
  8
0
  6
CONTINUOUS
 62
     7
 10
88.23146820068359
 20
53.1950798034668
 11
123.2314529418945
 21
53.1950798034668
  0
LINE
  8
0
  6
CENTER
 62
     7
 10
113.2314529418945
 20
76.94507598876953
 11
113.2314529418945
 21
73.44507598876953
  0
LINE
  8
0
  6
CENTER
 62
     7
 10
98.23145294189453
 20
76.94507598876953
 11
98.23145294189453
 21
73.44507598876953
  0
LINE
  8
0
  6
CONTINUOUS
 62
     7
 10
83.48145294189453
 20
73.07308197021484
 11
83.48145294189453
 21
49.31708145141602
  0
LINE
  8
0
  6
CENTER
 62
     7
 10
145.7314605712891
 20
66.65251922607422
 11
145.7314605712891
 21
55.71334457397461
  0
LINE
  8
0
  6
CENTER
 62
     7
 10
65.73145294189453
 20
66.76529693603516
 11
65.73145294189453
 21
55.60056686401367
  0
LINE
  8
0
  6
CONTINUOUS
 62
     7
 10
91.08145904541016
 20
81.19507598876953
 11
91.08145904541016
 21
69.19507598876953
  0
LINE
  8
0
  6
CONTINUOUS
 62
     7
 10
50.73145294189453
 20
49.1950798034668
 11
83.5985107421875
 21
49.1950798034668
  0
LINE
  8
0
  6
CENTER
 62
     7
 10
48.19550323486328
 20
61.1950798034668
 11
163.6772003173828
 21
61.1950798034668
  0
LINE
  8
0
  6
CONTINUOUS
 62
     7
 10
50.73145294189453
 20
73.19507598876953
 11
83.59850311279297
 21
73.19507598876953
  0
LINE
  8
0
  6
CONTINUOUS
 62
     7
 10
50.73145294189453
 20
72.40508270263672
 11
83.48145294189453
 21
72.40508270263672
  0
LINE
  8
0
  6
CONTINUOUS
 62
     7
 10
127.0814590454102
 20
80.61447906494141
 11
125.9814529418945
 21
80.61447906494141
  0
LINE
  8
0
  6
CONTINUOUS
 62
     7
 10
127.0814590454102
 20
41.77567672729492
 11
125.9814529418945
 21
41.77567672729492
  0
LINE
  8
0
  6
CONTINUOUS
 62
     7
 10
50.73145294189453
 20
49.98507308959961
 11
83.48145294189453
 21
49.98507308959961
  0
LINE
  8
0
  6
CONTINUOUS
 62
     7
 10
85.48146820068359
 20
80.89507293701172
 11
91.08145904541016
 21
80.89507293701172
  0
LINE
  8
0
  6
CONTINUOUS
 62
     7
 10
88.23146820068359
 20
80.89507293701172
 11
88.23146820068359
 21
41.49508285522461
  0
LINE
  8
0
  6
CONTINUOUS
 62
     7
 10
85.48146820068359
 20
41.49508285522461
 11
91.08145904541016
 21
41.49508285522461
  0
LINE
  8
0
  6
CONTINUOUS
 62
     7
 10
127.9814529418945
 20
49.1950798034668
 11
160.7314605712891
 21
49.1950798034668
  0
LINE
  8
0
  6
CONTINUOUS
 62
     7
 10
127.9814529418945
 20
72.40508270263672
 11
160.7314605712891
 21
72.40508270263672
  0
LINE
  8
0
  6
CONTINUOUS
 62
     7
 10
127.9814529418945
 20
49.98507308959961
 11
160.7314605712891
 21
49.98507308959961
  0
LINE
  8
0
  6
CONTINUOUS
 62
     7
 10
83.48145294189453
 20
73.07308197021484
 11
84.38145446777344
 21
74.01107788085938
  0
LINE
  8
0
  6
CONTINUOUS
 62
     7
 10
83.48145294189453
 20
49.31708145141602
 11
84.38146209716797
 21
48.37908554077148
  0
LINE
  8
0
  6
CONTINUOUS
 62
     7
 10
127.9814529418945
 20
73.07308197021484
 11
127.9814529418945
 21
49.31708145141602
  0
LINE
  8
0
  6
CONTINUOUS
 62
     7
 10
127.9814453125
 20
49.31708145141602
 11
127.0814361572266
 21
48.37908554077148
  0
LINE
  8
0
  6
CONTINUOUS
 62
     7
 10
127.9814529418945
 20
73.07308197021484
 11
127.0814437866211
 21
74.01107788085938
  0
LINE
  8
0
  6
CONTINUOUS
 62
     7
 10
15.25
 20
13.20000743865967
 11
15.25
 21
11
  0
LINE
  8
0
  6
CONTINUOUS
 62
     7
 10
84.38186645507813
 20
3.399962902069092
 11
127.0818557739258
 21
3.399962902069092
  0
LINE
  8
0
  6
DASHED
 62
     7
 10
-12.49981689453125
 20
10.39999771118164
 11
-15.49981689453125
 21
10.39999771118164
  0
LINE
  8
0
  6
DASHED
 62
     7
 10
-15.19980621337891
 20
14
 11
-15.19980621337891
 21
9.399997711181641
  0
LINE
  8
0
  6
DASHED
 62
     7
 10
-15.49981689453125
 20
14
 11
-15.49981689453125
 21
10.40003108978272
  0
LINE
  8
0
  6
DASHED
 62
     7
 10
-15.49979209899902
 20
10.39999485015869
 11
-15.19979476928711
 21
9.88038444519043
  0
LINE
  8
0
  6
DASHED
 62
     7
 10
-12.7998046875
 20
9.399997711181641
 11
-15.19980621337891
 21
9.399997711181641
  0
LINE
  8
0
  6
DASHED
 62
     7
 10
-15.1997880935669
 20
9.399986267089844
 11
-13.99979209899902
 21
8.707168579101563
  0
LINE
  8
0
  6
DASHED
 62
     7
 10
-12.79979705810547
 20
9.399993896484375
 11
-13.99979209899902
 21
8.707176208496094
  0
LINE
  8
0
  6
DASHED
 62
     7
 10
-12.7998046875
 20
14
 11
-12.7998046875
 21
9.399997711181641
  0
LINE
  8
0
  6
DASHED
 62
     7
 10
-12.49978446960449
 20
10.39998531341553
 11
-12.79978370666504
 21
9.88037109375
  0
LINE
  8
0
  6
DASHED
 62
     7
 10
-12.49981689453125
 20
14
 11
-12.49981689453125
 21
10.39999771118164
  0
ARC
  8
0
  6
CONTINUOUS
 62
     7
 10
86.08187866210938
 20
10.89998722076416
 40
2.5
 50
179.999991348578
 51
227.1563550387764
  0
ARC
  8
0
  6
CONTINUOUS
 62
     7
 10
86.08187866210938
 20
10.89998722076416
 40
2.500000000000003
 50
132.843641318758
 51
180.0000050089563
  0
ARC
  8
0
  6
CONTINUOUS
 62
     7
 10
125.3818511962891
 20
10.89998722076416
 40
2.499999999999998
 50
312.8436431399907
 51
0
  0
ARC
  8
0
  6
CONTINUOUS
 62
     7
 10
125.3818511962891
 20
10.89998722076416
 40
2.5
 50
0
 51
47.15635686000929
  0
ARC
  8
0
  6
CONTINUOUS
 62
     7
 10
-8.792765617370606
 20
13.69999694824219
 40
0.4999937713146211
 50
224.9999996583773
 51
269.9999974955219
  0
ARC
  8
0
  6
CONTINUOUS
 62
     7
 10
-19.69974708557129
 20
9.199999809265137
 40
0.2999962568283079
 50
179.9999913485781
 51
270.0000006832453
  0
CIRCLE
  8
0
  6
CONTINUOUS
 62
     7
 10
17
 20
11
 40
1.59999942779541
  0
ARC
  8
0
  6
CONTINUOUS
 62
     7
 10
-11.75
 20
6.300003051757813
 40
1.25
 50
266.8816814601417
 51
73.11832253676705
  0
ARC
  8
0
  6
CONTINUOUS
 62
     7
 10
11.75
 20
6.300003051757813
 40
1.25
 50
106.8816414910542
 51
273.1183372091929
  0
ARC
  8
0
  6
CONTINUOUS
 62
     7
 10
8.792765617370606
 20
13.69999694824219
 40
0.4999937713146206
 50
270.0000043257111
 51
314.9999987477609
  0
CIRCLE
  8
0
  6
CONTINUOUS
 62
     7
 10
0
 20
11.00000476837158
 40
1
  0
ARC
  8
0
  6
CONTINUOUS
 62
     7
 10
19.69974708557129
 20
9.199999809265137
 40
0.2999962568283084
 50
269.9999974955216
 51
8.651422270498537E-006
  0
ARC
  8
0
  6
CONTINUOUS
 62
     7
 10
16.99979591369629
 20
4.0001220703125
 40
0.6000000238418577
 50
270.0000111559001
 51
4.325710678192404E-006
  0
ARC
  8
0
  6
CONTINUOUS
 62
     7
 10
-16.99979591369629
 20
4.0001220703125
 40
0.6000000238418577
 50
179.999991348578
 51
270.0000006832452
  0
ARC
  8
0
  6
CONTINUOUS
 62
     7
 10
-19.69974708557129
 20
9.199999809265137
 40
0.2999962568283079
 50
179.9999913485781
 51
270.0000006832453
  0
CIRCLE
  8
0
  6
CONTINUOUS
 62
     7
 10
-17
 20
11
 40
1.59999942779541
  0
ARC
  8
0
  6
CONTINUOUS
 62
     7
 10
-17
 20
11
 40
1.749999999999999
 50
179.999991348578
 51
1.001791266906166E-005
  0
ARC
  8
0
  6
CONTINUOUS
 62
     7
 10
17
 20
11
 40
1.75
 50
179.999991348578
 51
1.001791266906166E-005
  0
ARC
  8
0
  6
CONTINUOUS
 62
     7
 10
124.8814468383789
 20
44.1950798034668
 40
2.500000000000005
 50
331.6424615850761
 51
5.008956130975347E-006
  0
ARC
  8
0
  6
CONTINUOUS
 62
     7
 10
124.8814468383789
 20
78.19507598876953
 40
2.500000000000005
 50
331.6424615850761
 51
5.008955968130947E-006
  0
ARC
  8
0
  6
CONTINUOUS
 62
     7
 10
124.8814468383789
 20
44.19524765014648
 40
2.499999999999995
 50
359.935923987694
 51
359.9999949910442
  0
ARC
  8
0
  6
CONTINUOUS
 62
     7
 10
86.58145904541016
 20
44.1950798034668
 40
2.500000000000004
 50
151.6424665940324
 51
180.0000050089563
  0
ARC
  8
0
  6
CONTINUOUS
 62
     7
 10
86.58145904541016
 20
78.19507598876953
 40
2.5
 50
179.999991348578
 51
208.3575434238803
  0
ARC
  8
0
  6
CONTINUOUS
 62
     7
 10
86.58145904541016
 20
78.19507598876953
 40
2.500000000000001
 50
151.6424665940326
 51
180.0000050089563
  0
ARC
  8
0
  6
CONTINUOUS
 62
     7
 10
86.58145904541016
 20
44.19524765014648
 40
2.5
 50
180.0000086514221
 51
180.0640758258367
  0
ARC
  8
0
  6
CONTINUOUS
 62
     7
 10
86.58145904541016
 20
44.1950798034668
 40
2.5
 50
179.999991348578
 51
208.3575434238803
  0
ARC
  8
0
  6
CONTINUOUS
 62
     7
 10
124.8814468383789
 20
78.19507598876953
 40
2.499999999999996
 50
359.9999949910437
 51
28.35753841492389
  0
ARC
  8
0
  6
CONTINUOUS
 62
     7
 10
124.8814468383789
 20
44.1950798034668
 40
2.499999999999996
 50
359.9999949910442
 51
28.35753841492389
  0
CIRCLE
  8
0
  6
CONTINUOUS
 62
     7
 10
98.23145294189453
 20
47.1950798034668
 40
1.25
  0
CIRCLE
  8
0
  6
CONTINUOUS
 62
     7
 10
98.23145294189453
 20
47.1950798034668
 40
1.5
  0
CIRCLE
  8
0
  6
CONTINUOUS
 62
     7
 10
65.73145294189453
 20
61.1950798034668
 40
2.25
  0
CIRCLE
  8
0
  6
CONTINUOUS
 62
     7
 10
65.73145294189453
 20
61.1950798034668
 40
4
  0
TEXT
  8
0
  6
CONTINUOUS
 62
     7
 10
-1.600000143051148
 20
-21.79999995231628
 40
3.599999904632568
 41
1.028985581152299
  1
RSR12WZM
  0
ENDSEC
  0
EOF
