  0
SECTION
  2
HEADER
  0
ENDSEC
  0
SECTION
  2
TABLES
  0
TABLE
  2
LTYPE
 70
    22
  0
LTYPE
  2
CONTINUOUS
 70
    64
  3
Solid line
 72
    65
 73
     0
 40
0.000000
  0
LTYPE
  2
DASHED
 70
    64
  3
__ __ __ __ __ __ __ __ __ __ __ __ __ __ __
 72
    65
 73
     2
 40
3.500000
 49
2.000000
 49
-1.500000
  0
LTYPE
  2
CENTER
 70
    64
  3
____ _ ____ _ ____ _ ____ _ ____ _ ____ _ ____
 72
    65
 73
     4
 40
17.500000
 49
13.000000
 49
-1.500000
 49
1.500000
 49
-1.500000
  0
LTYPE
  2
PHANTOM
 70
    64
  3
_____ _ _ _____ _ _ _____ _ _ _____ _ _ ____  
 72
    65
 73
     6
 40
15.500000
 49
8.000000
 49
-1.500000
 49
1.500000
 49
-1.500000
 49
1.500000
 49
-1.500000
  0
LTYPE
  2
DOT
 70
    64
  3
. . . . . . . . . . . . . . . . . . . . . . . .
 72
    65
 73
     2
 40
0.25
 49
0.0
 49
-0.25
  0
ENDTAB
  0
TABLE
  2
LAYER
 70
     1
  0
LAYER
  2
0
 70
     0
 62
     7
  6
CONTINUOUS
  0
ENDTAB
  0
TABLE
  2
STYLE
 70
     1
  0
STYLE
  2
STANDARD
 70
     0
 40
0.000000
 41
1.000000
 50
0.000000
 71
     0
 42
0.200000
  3
txt
  0
ENDTAB
  0
TABLE
  2
VIEW
 70
     0
  0
ENDTAB
  0
ENDSEC
  0
SECTION
  2
BLOCKS
  0
ENDSEC
  0
SECTION
  2
ENTITIES
  0
LINE
  8
0
  6
CONTINUOUS
 62
     7
 10
30.3796329498291
 20
7.498736381530762
 11
47.88000869750977
 21
7.498736381530762
  0
LINE
  8
0
  6
CONTINUOUS
 62
     7
 10
30.3796329498291
 20
-0.000183717260370031
 11
100.3798828125
 21
-0.000183717260370031
  0
LINE
  8
0
  6
CONTINUOUS
 62
     7
 10
30.3796329498291
 20
6.521248817443848
 11
47.88000869750977
 21
6.521016597747803
  0
LINE
  8
0
  6
CONTINUOUS
 62
     7
 10
30.3796329498291
 20
4.025285243988037
 11
47.88000869750977
 21
4.025285243988037
  0
LINE
  8
0
  6
CONTINUOUS
 62
     7
 10
30.3796329498291
 20
3.018196821212769
 11
47.88000869750977
 21
3.018196821212769
  0
LINE
  8
0
  6
CONTINUOUS
 62
     7
 10
82.87950897216797
 20
3.019277095794678
 11
100.3798828125
 21
3.020100831985474
  0
LINE
  8
0
  6
CONTINUOUS
 62
     7
 10
82.8795166015625
 20
4.026067733764648
 11
100.3798828125
 21
4.026933670043945
  0
LINE
  8
0
  6
CONTINUOUS
 62
     7
 10
82.8795166015625
 20
6.520937442779541
 11
100.3798828125
 21
6.521836757659912
  0
LINE
  8
0
  6
CONTINUOUS
 62
     7
 10
82.8795166015625
 20
7.499620914459229
 11
100.3798828125
 21
7.500553131103516
  0
LINE
  8
0
  6
CENTER
 62
     7
 10
40.37963485717773
 20
8.258059501647949
 11
40.37963485717773
 21
-1.000260472297669
  0
LINE
  8
0
  6
DASHED
 62
     7
 10
42.12963485717773
 20
3.000008344650269
 11
42.12963485717773
 21
-0.000183717260370031
  0
LINE
  8
0
  6
DASHED
 62
     7
 10
38.62975692749023
 20
3.0000159740448
 11
38.62975692749023
 21
-0.000183717260370031
  0
LINE
  8
0
  6
DASHED
 62
     7
 10
37.37980651855469
 20
2.999993085861206
 11
43.37968826293945
 21
2.999993085861206
  0
LINE
  8
0
  6
DASHED
 62
     7
 10
37.37975311279297
 20
7.498736381530762
 11
37.37975311279297
 21
3.0000159740448
  0
LINE
  8
0
  6
DASHED
 62
     7
 10
43.37963485717773
 20
7.498736381530762
 11
43.37963485717773
 21
3.000008344650269
  0
LINE
  8
0
  6
CENTER
 62
     7
 10
72.87975311279297
 20
14.13286399841309
 11
72.87975311279297
 21
7.538203239440918
  0
LINE
  8
0
  6
CONTINUOUS
 62
     7
 10
48.47975540161133
 20
10.79981517791748
 11
48.47975540161133
 21
8.992631912231445
  0
LINE
  8
0
  6
CONTINUOUS
 62
     7
 10
49.27975845336914
 20
12.09980487823486
 11
49.27975845336914
 21
2.999878644943237
  0
LINE
  8
0
  6
CONTINUOUS
 62
     7
 10
81.47975158691406
 20
12.09980487823486
 11
81.47975158691406
 21
2.999878644943237
  0
LINE
  8
0
  6
CONTINUOUS
 62
     7
 10
82.27975463867188
 20
10.89981555938721
 11
82.27975463867188
 21
9.092632293701172
  0
LINE
  8
0
  6
CONTINUOUS
 62
     7
 10
81.97962951660156
 20
8.149806022644043
 11
80.87987518310547
 21
8.149806022644043
  0
LINE
  8
0
  6
CONTINUOUS
 62
     7
 10
48.77988052368164
 20
8.418097496032715
 11
48.77988052368164
 21
2.999878644943237
  0
LINE
  8
0
  6
CONTINUOUS
 62
     7
 10
48.77988052368164
 20
8.149806022644043
 11
49.27975845336914
 21
8.149806022644043
  0
LINE
  8
0
  6
CONTINUOUS
 62
     7
 10
55.17963790893555
 20
12.99981498718262
 11
75.57987976074219
 21
12.99981498718262
  0
LINE
  8
0
  6
CONTINUOUS
 62
     7
 10
47.88005447387695
 20
2.999809980392456
 11
49.87968826293945
 21
2.999809980392456
  0
LINE
  8
0
  6
CONTINUOUS
 62
     7
 10
81.97962951660156
 20
8.518093109130859
 11
81.97962951660156
 21
2.999878644943237
  0
LINE
  8
0
  6
CONTINUOUS
 62
     7
 10
47.88000869750977
 20
7.999675273895264
 11
47.88000869750977
 21
2.999878644943237
  0
LINE
  8
0
  6
CONTINUOUS
 62
     7
 10
49.87964248657227
 20
2.999809980392456
 11
82.87950897216797
 21
2.999809980392456
  0
LINE
  8
0
  6
DASHED
 62
     7
 10
59.37977600097656
 20
12.99981498718262
 11
59.37977600097656
 21
9.799877166748047
  0
LINE
  8
0
  6
DASHED
 62
     7
 10
56.37977600097656
 20
12.99981498718262
 11
56.37977600097656
 21
9.799877166748047
  0
LINE
  8
0
  6
DASHED
 62
     7
 10
59.07972717285156
 20
12.99981498718262
 11
59.07972717285156
 21
8.799877166748047
  0
LINE
  8
0
  6
DASHED
 62
     7
 10
56.67982482910156
 20
12.99981498718262
 11
56.67982482910156
 21
8.799877166748047
  0
LINE
  8
0
  6
DASHED
 62
     7
 10
56.37982940673828
 20
9.799808502197266
 11
59.37982940673828
 21
9.799808502197266
  0
LINE
  8
0
  6
DASHED
 62
     7
 10
56.67987823486328
 20
8.799808502197266
 11
59.07978057861328
 21
8.799808502197266
  0
LINE
  8
0
  6
DASHED
 62
     7
 10
56.37944030761719
 20
9.799467086791992
 11
56.67942810058594
 21
9.279870986938477
  0
LINE
  8
0
  6
DASHED
 62
     7
 10
56.67950820922852
 20
8.799450874328613
 11
57.87960052490234
 21
8.106576919555664
  0
LINE
  8
0
  6
DASHED
 62
     7
 10
59.07918930053711
 20
8.799219131469727
 11
57.87910079956055
 21
8.10634708404541
  0
LINE
  8
0
  6
DASHED
 62
     7
 10
59.37952423095703
 20
9.799406051635742
 11
59.07951736450195
 21
9.279786109924316
  0
LINE
  8
0
  6
CENTER
 62
     7
 10
57.87977600097656
 20
14.13299369812012
 11
57.87977600097656
 21
7.538218498229981
  0
LINE
  8
0
  6
CONTINUOUS
 62
     7
 10
55.17963790893555
 20
12.99981498718262
 11
55.17963790893555
 21
8.499813079833984
  0
LINE
  8
0
  6
CONTINUOUS
 62
     7
 10
49.87964248657227
 20
4.199807643890381
 11
80.87987518310547
 21
4.199807643890381
  0
LINE
  8
0
  6
CONTINUOUS
 62
     7
 10
49.87964248657227
 20
12.19981098175049
 11
55.17963790893555
 21
12.19981098175049
  0
LINE
  8
0
  6
CONTINUOUS
 62
     7
 10
52.32963943481445
 20
12.19981098175049
 11
52.32963943481445
 21
8.379817962646484
  0
LINE
  8
0
  6
CONTINUOUS
 62
     7
 10
55.17964172363281
 20
12.79982089996338
 11
52.32963943481445
 21
12.19981956481934
  0
LINE
  8
0
  6
CONTINUOUS
 62
     7
 10
52.32963943481445
 20
8.379817962646484
 11
54.67963790893555
 21
8.379817962646484
  0
LINE
  8
0
  6
CONTINUOUS
 62
     7
 10
52.32963943481445
 20
4.929811477661133
 11
54.67963790893555
 21
4.929811477661133
  0
LINE
  8
0
  6
CONTINUOUS
 62
     7
 10
52.32963943481445
 20
4.929811477661133
 11
52.32963943481445
 21
2.999878644943237
  0
LINE
  8
0
  6
CONTINUOUS
 62
     7
 10
49.87964248657227
 20
12.19981098175049
 11
49.87964248657227
 21
2.999809980392456
  0
LINE
  8
0
  6
CONTINUOUS
 62
     7
 10
47.88000869750977
 20
7.999362468719482
 11
48.77988052368164
 21
7.999362468719482
  0
LINE
  8
0
  6
CONTINUOUS
 62
     7
 10
54.67963790893555
 20
8.379817962646484
 11
54.67963790893555
 21
4.929811477661133
  0
LINE
  8
0
  6
CONTINUOUS
 62
     7
 10
76.07987976074219
 20
8.379817962646484
 11
76.07987976074219
 21
4.929811477661133
  0
LINE
  8
0
  6
CONTINUOUS
 62
     7
 10
80.87987518310547
 20
12.19981098175049
 11
75.57987976074219
 21
12.19981098175049
  0
LINE
  8
0
  6
CONTINUOUS
 62
     7
 10
78.42987823486328
 20
12.19981098175049
 11
78.42987823486328
 21
8.379817962646484
  0
LINE
  8
0
  6
CONTINUOUS
 62
     7
 10
75.57988739013672
 20
12.79980754852295
 11
78.42988586425781
 21
12.19980716705322
  0
LINE
  8
0
  6
CONTINUOUS
 62
     7
 10
78.42987823486328
 20
8.379817962646484
 11
76.07987976074219
 21
8.379817962646484
  0
LINE
  8
0
  6
CONTINUOUS
 62
     7
 10
78.42987823486328
 20
4.929811477661133
 11
76.07987976074219
 21
4.929811477661133
  0
LINE
  8
0
  6
CONTINUOUS
 62
     7
 10
78.42987823486328
 20
4.929811477661133
 11
78.42987823486328
 21
2.999878644943237
  0
LINE
  8
0
  6
CONTINUOUS
 62
     7
 10
80.87987518310547
 20
12.19981098175049
 11
80.87987518310547
 21
2.999809980392456
  0
LINE
  8
0
  6
CONTINUOUS
 62
     7
 10
75.57987976074219
 20
12.99981498718262
 11
75.57987976074219
 21
8.499813079833984
  0
LINE
  8
0
  6
CONTINUOUS
 62
     7
 10
55.17963790893555
 20
8.499813079833984
 11
75.57987976074219
 21
8.499813079833984
  0
LINE
  8
0
  6
CONTINUOUS
 62
     7
 10
48.77988052368164
 20
12.09980487823486
 11
48.77988052368164
 21
11.37435054779053
  0
LINE
  8
0
  6
CONTINUOUS
 62
     7
 10
48.77988052368164
 20
12.09980487823486
 11
49.87964248657227
 21
12.09980487823486
  0
LINE
  8
0
  6
CONTINUOUS
 62
     7
 10
81.97962951660156
 20
12.09980487823486
 11
80.87987518310547
 21
12.09980487823486
  0
LINE
  8
0
  6
CONTINUOUS
 62
     7
 10
81.97962951660156
 20
12.09980487823486
 11
81.97962951660156
 21
11.47435474395752
  0
LINE
  8
0
  6
CONTINUOUS
 62
     7
 10
82.87950897216797
 20
7.999675273895264
 11
82.87950897216797
 21
2.999878644943237
  0
LINE
  8
0
  6
CONTINUOUS
 62
     7
 10
82.87946319580078
 20
2.999809980392456
 11
80.87982940673828
 21
2.999809980392456
  0
LINE
  8
0
  6
CONTINUOUS
 62
     7
 10
82.87950897216797
 20
7.999362468719482
 11
81.97962951660156
 21
7.999362468719482
  0
LINE
  8
0
  6
CONTINUOUS
 62
     7
 10
-12.9996395111084
 20
13.00020694732666
 11
-6.000002861022949
 21
13.00020694732666
  0
LINE
  8
0
  6
CENTER
 62
     7
 10
-9.999882698059082
 20
7.438549041748047
 11
-9.999882698059082
 21
14.03359508514404
  0
LINE
  8
0
  6
CONTINUOUS
 62
     7
 10
-13.49955463409424
 20
12.50020027160645
 11
-12.99952220916748
 21
13.00023365020752
  0
LINE
  8
0
  6
CONTINUOUS
 62
     7
 10
-5.999880790710449
 20
3.019744396209717
 11
-5.999880790710449
 21
0.5000002384185791
  0
LINE
  8
0
  6
CONTINUOUS
 62
     7
 10
-5.999791145324707
 20
0.5000603199005127
 11
-5.499751567840576
 21
3.365745578776114E-005
  0
LINE
  8
0
  6
CONTINUOUS
 62
     7
 10
-5.209837436676025
 20
7.499979972839356
 11
-5.382359981536865
 21
6.521465301513672
  0
LINE
  8
0
  6
CONTINUOUS
 62
     7
 10
-5.822237014770508
 20
4.026566505432129
 11
-5.999753475189209
 21
3.019726037979126
  0
LINE
  8
0
  6
CONTINUOUS
 62
     7
 10
13.50000667572022
 20
12.50020599365234
 11
13.50000667572022
 21
8.200206756591797
  0
LINE
  8
0
  6
CONTINUOUS
 62
     7
 10
6.000002861022949
 20
13.00020694732666
 11
13.00012874603272
 21
13.00020694732666
  0
LINE
  8
0
  6
CENTER
 62
     7
 10
0
 20
13.50020694732666
 11
0
 21
-1.000000476837158
  0
LINE
  8
0
  6
DASHED
 62
     7
 10
1.750000834465027
 20
3.000205516815186
 11
1.750000834465027
 21
0
  0
LINE
  8
0
  6
DASHED
 62
     7
 10
-1.749878764152527
 20
3.000205516815186
 11
-1.749878764152527
 21
0
  0
LINE
  8
0
  6
DASHED
 62
     7
 10
-2.999879360198975
 20
3.000205516815186
 11
3.000001430511475
 21
3.000205516815186
  0
LINE
  8
0
  6
CONTINUOUS
 62
     7
 10
13.00010013580322
 20
13.00012493133545
 11
13.50004863739014
 21
12.50017929077148
  0
LINE
  8
0
  6
CENTER
 62
     7
 10
9.999882698059082
 20
14.13359546661377
 11
9.999882698059082
 21
7.538549423217773
  0
LINE
  8
0
  6
CONTINUOUS
 62
     7
 10
6.003420829772949
 20
2.899991989135742
 11
13.09999752044678
 21
2.899991989135742
  0
LINE
  8
0
  6
CONTINUOUS
 62
     7
 10
-5.209963321685791
 20
7.500001907348633
 11
5.210085391998291
 21
7.500001907348633
  0
LINE
  8
0
  6
CONTINUOUS
 62
     7
 10
5.999880790710449
 20
0.5000002384185791
 11
5.999880790710449
 21
3.019744396209717
  0
LINE
  8
0
  6
CONTINUOUS
 62
     7
 10
5.499863147735596
 20
3.079003727179952E-005
 11
5.999875545501709
 21
0.5000304579734802
  0
LINE
  8
0
  6
CONTINUOUS
 62
     7
 10
5.382559299468994
 20
6.521490097045898
 11
5.210038185119629
 21
7.499997138977051
  0
LINE
  8
0
  6
CONTINUOUS
 62
     7
 10
5.999952793121338
 20
3.019750356674194
 11
5.822435855865479
 21
4.026590824127197
  0
LINE
  8
0
  6
CONTINUOUS
 62
     7
 10
-5.499727725982666
 20
0
 11
5.500369071960449
 21
0
  0
LINE
  8
0
  6
DASHED
 62
     7
 10
-2.999879360198975
 20
7.500001907348633
 11
-2.999879360198975
 21
3.000205516815186
  0
LINE
  8
0
  6
DASHED
 62
     7
 10
3.000001430511475
 20
7.500001907348633
 11
3.000001430511475
 21
3.000205516815186
  0
LINE
  8
0
  6
CONTINUOUS
 62
     7
 10
4.300004959106445
 20
12.2002067565918
 11
5.199999332427979
 21
12.2002067565918
  0
LINE
  8
0
  6
CONTINUOUS
 62
     7
 10
5.200000286102295
 20
12.20021438598633
 11
6
 21
13.00021457672119
  0
LINE
  8
0
  6
CONTINUOUS
 62
     7
 10
3.700003147125244
 20
12.80021858215332
 11
4.300002098083496
 21
12.20021915435791
  0
LINE
  8
0
  6
CONTINUOUS
 62
     7
 10
-3.699998617172241
 20
12.80020523071289
 11
3.699998617172241
 21
12.80020523071289
  0
LINE
  8
0
  6
CONTINUOUS
 62
     7
 10
-3.699999570846558
 20
12.80021953582764
 11
-4.299998283386231
 21
12.20022010803223
  0
LINE
  8
0
  6
CONTINUOUS
 62
     7
 10
-4.300004959106445
 20
12.2002067565918
 11
-5.199999332427979
 21
12.2002067565918
  0
LINE
  8
0
  6
CONTINUOUS
 62
     7
 10
-5.200002193450928
 20
12.20022010803223
 11
-5.999997138977051
 21
13.00021457672119
  0
LINE
  8
0
  6
CONTINUOUS
 62
     7
 10
-13.10000896453857
 20
12.0999927520752
 11
13.09999752044678
 21
12.0999927520752
  0
LINE
  8
0
  6
CONTINUOUS
 62
     7
 10
13.40000057220459
 20
11.79999351501465
 11
13.40000057220459
 21
3.199995040893555
  0
LINE
  8
0
  6
CONTINUOUS
 62
     7
 10
13.09999752044678
 20
12.10000324249268
 11
13.40000247955322
 21
11.79999828338623
  0
LINE
  8
0
  6
CONTINUOUS
 62
     7
 10
13.40000820159912
 20
3.199993848800659
 11
13.10000896453857
 21
2.899994611740112
  0
LINE
  8
0
  6
CONTINUOUS
 62
     7
 10
-6.003420829772949
 20
2.999990463256836
 11
-13.09999752044678
 21
2.999990463256836
  0
LINE
  8
0
  6
CONTINUOUS
 62
     7
 10
-13.40000057220459
 20
11.8000020980835
 11
-13.40000057220459
 21
3.199995040893555
  0
LINE
  8
0
  6
CONTINUOUS
 62
     7
 10
-13.39999961853027
 20
3.299996852874756
 11
-13.10000514984131
 21
3.000002861022949
  0
LINE
  8
0
  6
CONTINUOUS
 62
     7
 10
-13.50000667572022
 20
12.50020599365234
 11
-13.50000667572022
 21
8.200206756591797
  0
LINE
  8
0
  6
CONTINUOUS
 62
     7
 10
6.984763622283936
 20
3.093383073806763
 11
6.049150943756104
 21
8.400001525878906
  0
LINE
  8
0
  6
CONTINUOUS
 62
     7
 10
-6.048947811126709
 20
8.400001525878906
 11
-7.001026153564453
 21
2.999991893768311
  0
LINE
  8
0
  6
CONTINUOUS
 62
     7
 10
-13.39999961853027
 20
3.19999885559082
 11
-13.10000514984131
 21
2.900004863739014
  0
LINE
  8
0
  6
CONTINUOUS
 62
     7
 10
-6.003420829772949
 20
2.899991989135742
 11
-13.09999752044678
 21
2.899991989135742
  0
LINE
  8
0
  6
CONTINUOUS
 62
     7
 10
6.003420829772949
 20
2.999990463256836
 11
13.09999752044678
 21
2.999990463256836
  0
LINE
  8
0
  6
CONTINUOUS
 62
     7
 10
13.39999771118164
 20
3.300002574920654
 11
13.10000419616699
 21
3.000008583068848
  0
LINE
  8
0
  6
CONTINUOUS
 62
     7
 10
9.250004768371582
 20
12.0999927520752
 11
9.250004768371582
 21
9.899994850158691
  0
LINE
  8
0
  6
CONTINUOUS
 62
     7
 10
11.0000057220459
 20
8.149994850158691
 11
13.40000057220459
 21
8.149994850158691
  0
LINE
  8
0
  6
CONTINUOUS
 62
     7
 10
-11.0000057220459
 20
8.149994850158691
 11
-13.40000057220459
 21
8.149994850158691
  0
LINE
  8
0
  6
CONTINUOUS
 62
     7
 10
-13.09999752044678
 20
12.10000324249268
 11
-13.40000247955322
 21
11.79999828338623
  0
LINE
  8
0
  6
CONTINUOUS
 62
     7
 10
-9.250004768371582
 20
12.0999927520752
 11
-9.250004768371582
 21
9.899994850158691
  0
LINE
  8
0
  6
CONTINUOUS
 62
     7
 10
-6.048947334289551
 20
8.400001525878906
 11
6.049150943756104
 21
8.400001525878906
  0
LINE
  8
0
  6
CONTINUOUS
 62
     7
 10
-11.7071123123169
 20
9.192888259887695
 11
-10.29289817810059
 21
10.607102394104
  0
LINE
  8
0
  6
CONTINUOUS
 62
     7
 10
-11.7071123123169
 20
10.607102394104
 11
-10.29289817810059
 21
9.192888259887695
  0
LINE
  8
0
  6
CONTINUOUS
 62
     7
 10
30.3796329498291
 20
47.49873733520508
 11
47.88000869750977
 21
47.49873733520508
  0
LINE
  8
0
  6
CONTINUOUS
 62
     7
 10
82.88050842285156
 20
47.49961853027344
 11
100.3798828125
 21
47.50055313110352
  0
LINE
  8
0
  6
CONTINUOUS
 62
     7
 10
30.3796329498291
 20
59.49873733520508
 11
47.88000869750977
 21
59.49873733520508
  0
LINE
  8
0
  6
CONTINUOUS
 62
     7
 10
82.88051605224609
 20
59.4996223449707
 11
100.3798904418945
 21
59.50055313110352
  0
LINE
  8
0
  6
CONTINUOUS
 62
     7
 10
30.3796329498291
 20
48.28873825073242
 11
47.88000869750977
 21
48.28873825073242
  0
LINE
  8
0
  6
CONTINUOUS
 62
     7
 10
30.3796329498291
 20
58.70873641967773
 11
47.88000869750977
 21
58.70873641967773
  0
LINE
  8
0
  6
CONTINUOUS
 62
     7
 10
82.88050842285156
 20
48.28961944580078
 11
100.3798828125
 21
48.29055404663086
  0
LINE
  8
0
  6
CONTINUOUS
 62
     7
 10
82.87678527832031
 20
58.70961761474609
 11
100.3798828125
 21
58.71055221557617
  0
LINE
  8
0
  6
CENTER
 62
     7
 10
29.4177131652832
 20
53.49873733520508
 11
101.4623260498047
 21
53.49873733520508
  0
LINE
  8
0
  6
CONTINUOUS
 62
     7
 10
47.88000869750977
 20
59.54773712158203
 11
47.88000869750977
 21
47.44973754882813
  0
LINE
  8
0
  6
CONTINUOUS
 62
     7
 10
49.27975845336914
 20
66.89873504638672
 11
49.27975845336914
 21
40.09873580932617
  0
LINE
  8
0
  6
CONTINUOUS
 62
     7
 10
49.87964248657227
 20
66.89873504638672
 11
49.87964248657227
 21
40.09873580932617
  0
LINE
  8
0
  6
CONTINUOUS
 62
     7
 10
48.77988052368164
 20
66.89873504638672
 11
48.77988052368164
 21
65.97686004638672
  0
LINE
  8
0
  6
CONTINUOUS
 62
     7
 10
52.32963943481445
 20
66.99873352050781
 11
52.32963943481445
 21
39.99873733520508
  0
LINE
  8
0
  6
CONTINUOUS
 62
     7
 10
55.17963790893555
 20
66.99873352050781
 11
55.17963790893555
 21
57.79873657226563
  0
LINE
  8
0
  6
CONTINUOUS
 62
     7
 10
75.57987976074219
 20
66.99873352050781
 11
75.57987976074219
 21
57.79873657226563
  0
LINE
  8
0
  6
CONTINUOUS
 62
     7
 10
78.42987823486328
 20
66.99873352050781
 11
78.42987823486328
 21
39.99873733520508
  0
LINE
  8
0
  6
CONTINUOUS
 62
     7
 10
80.87987518310547
 20
66.89873504638672
 11
80.87987518310547
 21
40.09873580932617
  0
LINE
  8
0
  6
CONTINUOUS
 62
     7
 10
81.47975158691406
 20
66.89873504638672
 11
81.47975158691406
 21
40.09873580932617
  0
LINE
  8
0
  6
CONTINUOUS
 62
     7
 10
81.97962951660156
 20
66.89873504638672
 11
81.97962951660156
 21
65.97686767578125
  0
LINE
  8
0
  6
CONTINUOUS
 62
     7
 10
82.87950897216797
 20
59.54668045043945
 11
82.87950897216797
 21
47.4507942199707
  0
LINE
  8
0
  6
CONTINUOUS
 62
     7
 10
52.32963943481445
 20
39.99873733520508
 11
78.42987823486328
 21
39.99873733520508
  0
LINE
  8
0
  6
CONTINUOUS
 62
     7
 10
52.32963943481445
 20
66.99873352050781
 11
78.42987823486328
 21
66.99873352050781
  0
LINE
  8
0
  6
CONTINUOUS
 62
     7
 10
52.32963943481445
 20
49.19873809814453
 11
78.42987823486328
 21
49.19873809814453
  0
LINE
  8
0
  6
CONTINUOUS
 62
     7
 10
52.32963943481445
 20
57.79873657226563
 11
78.42987823486328
 21
57.79873657226563
  0
LINE
  8
0
  6
CONTINUOUS
 62
     7
 10
55.17963790893555
 20
58.69873809814453
 11
75.57987976074219
 21
58.69873809814453
  0
LINE
  8
0
  6
CONTINUOUS
 62
     7
 10
55.17963790893555
 20
48.29873657226563
 11
75.57987976074219
 21
48.29873657226563
  0
LINE
  8
0
  6
CONTINUOUS
 62
     7
 10
48.47975540161133
 20
43.40232849121094
 11
48.47975540161133
 21
41.59514617919922
  0
LINE
  8
0
  6
CONTINUOUS
 62
     7
 10
48.47975540161133
 20
65.40232849121094
 11
48.47975540161133
 21
63.59514617919922
  0
LINE
  8
0
  6
CONTINUOUS
 62
     7
 10
47.88000869750977
 20
47.44973754882813
 11
48.77988052368164
 21
46.49773788452148
  0
LINE
  8
0
  6
CONTINUOUS
 62
     7
 10
47.88000869750977
 20
59.54773712158203
 11
48.77988052368164
 21
60.49973678588867
  0
LINE
  8
0
  6
CONTINUOUS
 62
     7
 10
48.77988052368164
 20
66.89873504638672
 11
52.32963943481445
 21
66.89873504638672
  0
LINE
  8
0
  6
CONTINUOUS
 62
     7
 10
48.77988052368164
 20
40.09873580932617
 11
52.32963943481445
 21
40.09873580932617
  0
LINE
  8
0
  6
CONTINUOUS
 62
     7
 10
48.77988052368164
 20
63.02061080932617
 11
48.77988052368164
 21
43.97686386108398
  0
LINE
  8
0
  6
CONTINUOUS
 62
     7
 10
48.77988052368164
 20
41.02061080932617
 11
48.77988052368164
 21
40.09873580932617
  0
LINE
  8
0
  6
CONTINUOUS
 62
     7
 10
82.88051605224609
 20
47.45079803466797
 11
81.97963714599609
 21
46.49773406982422
  0
LINE
  8
0
  6
CONTINUOUS
 62
     7
 10
82.27976226806641
 20
65.40232849121094
 11
82.27976226806641
 21
63.59514617919922
  0
LINE
  8
0
  6
CONTINUOUS
 62
     7
 10
81.97963714599609
 20
66.89873504638672
 11
78.42987823486328
 21
66.89873504638672
  0
LINE
  8
0
  6
CONTINUOUS
 62
     7
 10
81.97963714599609
 20
40.09873580932617
 11
78.42987823486328
 21
40.09873580932617
  0
LINE
  8
0
  6
CONTINUOUS
 62
     7
 10
82.88050842285156
 20
59.54668045043945
 11
81.97963714599609
 21
60.49973678588867
  0
LINE
  8
0
  6
CONTINUOUS
 62
     7
 10
82.27976226806641
 20
43.40232849121094
 11
82.27976226806641
 21
41.59514617919922
  0
LINE
  8
0
  6
CONTINUOUS
 62
     7
 10
81.97962951660156
 20
63.02060317993164
 11
81.97962951660156
 21
43.97686767578125
  0
LINE
  8
0
  6
CONTINUOUS
 62
     7
 10
81.97962951660156
 20
41.02060317993164
 11
81.97962951660156
 21
40.09873580932617
  0
LINE
  8
0
  6
CONTINUOUS
 62
     7
 10
55.17963790893555
 20
49.19873809814453
 11
55.17963790893555
 21
39.99873733520508
  0
LINE
  8
0
  6
CONTINUOUS
 62
     7
 10
75.57987976074219
 20
49.19873809814453
 11
75.57987976074219
 21
39.99873733520508
  0
LINE
  8
0
  6
CENTER
 62
     7
 10
59.51482772827148
 20
43.49873733520508
 11
56.24482727050781
 21
43.49873733520508
  0
LINE
  8
0
  6
CENTER
 62
     7
 10
57.87982940673828
 20
45.13373565673828
 11
57.87982940673828
 21
41.86373519897461
  0
LINE
  8
0
  6
CENTER
 62
     7
 10
72.87975311279297
 20
45.13373565673828
 11
72.87975311279297
 21
41.86373519897461
  0
LINE
  8
0
  6
CENTER
 62
     7
 10
74.51474761962891
 20
43.49873733520508
 11
71.2447509765625
 21
43.49873733520508
  0
LINE
  8
0
  6
CENTER
 62
     7
 10
74.51474761962891
 20
63.49873733520508
 11
71.2447509765625
 21
63.49873733520508
  0
LINE
  8
0
  6
CENTER
 62
     7
 10
72.87975311279297
 20
65.13373565673828
 11
72.87975311279297
 21
61.86373519897461
  0
LINE
  8
0
  6
CENTER
 62
     7
 10
57.87982940673828
 20
65.13373565673828
 11
57.87982940673828
 21
61.86373519897461
  0
LINE
  8
0
  6
CENTER
 62
     7
 10
59.51482772827148
 20
63.49873733520508
 11
56.24482727050781
 21
63.49873733520508
  0
LINE
  8
0
  6
CENTER
 62
     7
 10
65.37963104248047
 20
3.638874053955078
 11
65.37963104248047
 21
-0.7418960928916931
  0
LINE
  8
0
  6
CENTER
 62
     7
 10
90.3798828125
 20
8.579341888427734
 11
90.3798828125
 21
-0.7418960928916931
  0
LINE
  8
0
  6
CENTER
 62
     7
 10
40.37963485717773
 20
56.63373565673828
 11
40.37963485717773
 21
50.36373519897461
  0
LINE
  8
0
  6
CENTER
 62
     7
 10
90.3798828125
 20
56.63373565673828
 11
90.3798828125
 21
50.36373519897461
  0
LINE
  8
0
  6
CENTER
 62
     7
 10
65.37963104248047
 20
56.63373565673828
 11
65.37963104248047
 21
50.36373519897461
  0
LINE
  8
0
  6
CONTINUOUS
 62
     7
 10
100.3798828125
 20
7.500553131103516
 11
100.3798828125
 21
-0.000183717260370031
  0
LINE
  8
0
  6
CONTINUOUS
 62
     7
 10
30.3796329498291
 20
7.498736381530762
 11
30.3796329498291
 21
-0.000183717260370031
  0
LINE
  8
0
  6
CONTINUOUS
 62
     7
 10
100.3798828125
 20
59.50055313110352
 11
100.3798828125
 21
47.50055313110352
  0
LINE
  8
0
  6
CONTINUOUS
 62
     7
 10
30.3796329498291
 20
59.49873733520508
 11
30.3796329498291
 21
47.49873733520508
  0
LINE
  8
0
  6
CONTINUOUS
 62
     7
 10
7.017968654632568
 20
2.526942253112793
 11
6.103160858154297
 21
2.281820297241211
  0
LINE
  8
0
  6
CONTINUOUS
 62
     7
 10
7.237875938415527
 20
2.399984359741211
 11
7.017960071563721
 21
2.526952743530273
  0
LINE
  8
0
  6
CONTINUOUS
 62
     7
 10
7.237880706787109
 20
2.899991989135742
 11
7.237880706787109
 21
2.399988174438477
  0
LINE
  8
0
  6
CONTINUOUS
 62
     7
 10
6.864691734313965
 20
2.899991750717163
 11
5.999630928039551
 21
2.66819953918457
  0
LINE
  8
0
  6
CONTINUOUS
 62
     7
 10
7.237880706787109
 20
2.399988174438477
 11
11.13787460327148
 21
2.399988174438477
  0
LINE
  8
0
  6
CONTINUOUS
 62
     7
 10
5.999630928039551
 20
2.66819953918457
 11
6.103160858154297
 21
2.281820297241211
  0
LINE
  8
0
  6
CONTINUOUS
 62
     7
 10
-7.237880706787109
 20
2.399988174438477
 11
-11.13787460327148
 21
2.399988174438477
  0
LINE
  8
0
  6
CONTINUOUS
 62
     7
 10
-6.864691734313965
 20
2.899991750717163
 11
-5.999630928039551
 21
2.66819953918457
  0
LINE
  8
0
  6
CONTINUOUS
 62
     7
 10
-7.237880706787109
 20
2.899991989135742
 11
-7.237880706787109
 21
2.399988174438477
  0
LINE
  8
0
  6
CONTINUOUS
 62
     7
 10
-7.237875938415527
 20
2.399984359741211
 11
-7.017960071563721
 21
2.526952743530273
  0
LINE
  8
0
  6
CONTINUOUS
 62
     7
 10
-7.017968654632568
 20
2.526942253112793
 11
-6.103160858154297
 21
2.281820297241211
  0
LINE
  8
0
  6
CONTINUOUS
 62
     7
 10
-5.999630928039551
 20
2.66819953918457
 11
-6.103160858154297
 21
2.281820297241211
  0
LINE
  8
0
  6
CONTINUOUS
 62
     7
 10
48.77963256835938
 20
2.399810075759888
 11
81.97963714599609
 21
2.399810075759888
  0
LINE
  8
0
  6
CONTINUOUS
 62
     7
 10
81.97963714599609
 20
2.999809980392456
 11
81.97963714599609
 21
2.399810075759888
  0
LINE
  8
0
  6
CONTINUOUS
 62
     7
 10
48.77963256835938
 20
2.999809980392456
 11
48.77963256835938
 21
2.399810075759888
  0
LINE
  8
0
  6
DASHED
 62
     7
 10
-11.49982929229736
 20
9.800200462341309
 11
-8.499829292297363
 21
9.800200462341309
  0
LINE
  8
0
  6
DASHED
 62
     7
 10
-8.499882698059082
 20
13.00020694732666
 11
-8.499882698059082
 21
9.80026912689209
  0
LINE
  8
0
  6
DASHED
 62
     7
 10
-8.799931526184082
 20
13.00020694732666
 11
-8.799931526184082
 21
8.80026912689209
  0
LINE
  8
0
  6
DASHED
 62
     7
 10
-11.19983386993408
 20
13.00020694732666
 11
-11.19983386993408
 21
8.80026912689209
  0
LINE
  8
0
  6
DASHED
 62
     7
 10
-8.800470352172852
 20
8.79961109161377
 11
-10.0005578994751
 21
8.10673999786377
  0
LINE
  8
0
  6
DASHED
 62
     7
 10
-8.50013542175293
 20
9.799798011779785
 11
-8.800139427185059
 21
9.280178070068359
  0
LINE
  8
0
  6
DASHED
 62
     7
 10
-11.50022029876709
 20
9.799858093261719
 11
-11.20023155212402
 21
9.280261993408203
  0
LINE
  8
0
  6
DASHED
 62
     7
 10
-11.20014953613281
 20
8.79984188079834
 11
-10.00005912780762
 21
8.106968879699707
  0
LINE
  8
0
  6
DASHED
 62
     7
 10
-11.19978046417236
 20
8.800200462341309
 11
-8.799878120422363
 21
8.800200462341309
  0
LINE
  8
0
  6
DASHED
 62
     7
 10
-11.49988269805908
 20
13.00020694732666
 11
-11.49988269805908
 21
9.80026912689209
  0
LINE
  8
0
  6
CENTER
 62
     7
 10
-2
 20
9.899994850158691
 11
2
 21
9.899994850158691
  0
ARC
  8
0
  6
CONTINUOUS
 62
     7
 10
81.57975006103516
 20
9.092632293701172
 40
0.699999988079071
 50
261.7869135846349
 51
8.651422210986337E-006
  0
ARC
  8
0
  6
CONTINUOUS
 62
     7
 10
49.17976760864258
 20
10.79981517791748
 40
0.6999999880790712
 50
81.78754014080592
 51
180.0000050089563
  0
ARC
  8
0
  6
CONTINUOUS
 62
     7
 10
49.17976760864258
 20
8.992631912231445
 40
0.6999999880790719
 50
179.9999913485779
 51
278.2124562167285
  0
ARC
  8
0
  6
CONTINUOUS
 62
     7
 10
81.57975006103516
 20
10.89981555938721
 40
0.6999999880790737
 50
359.9999949910439
 51
98.21308641536515
  0
ARC
  8
0
  6
CONTINUOUS
 62
     7
 10
-5.824343681335449
 20
5.406570911407471
 40
1.379999876022339
 50
270.0818709731028
 51
346.2069349900633
  0
ARC
  8
0
  6
CONTINUOUS
 62
     7
 10
-5.856204032897949
 20
5.225327014923096
 40
1.379999876022339
 50
353.8530346526636
 51
69.92392502422214
  0
ARC
  8
0
  6
CONTINUOUS
 62
     7
 10
5.824343681335449
 20
5.406570911407471
 40
1.379999876022339
 50
193.7930839066425
 51
269.9181649990759
  0
ARC
  8
0
  6
CONTINUOUS
 62
     7
 10
5.856204032897949
 20
5.225327014923096
 40
1.379999876022339
 50
110.0760390035992
 51
186.1469157147793
  0
CIRCLE
  8
0
  6
CONTINUOUS
 62
     7
 10
11.0000057220459
 20
9.899994850158691
 40
1.599999666213989
  0
ARC
  8
0
  6
CONTINUOUS
 62
     7
 10
13.2000036239624
 20
8.200206756591797
 40
0.3000000119209294
 50
311.8086645750589
 51
0
  0
ARC
  8
0
  6
CONTINUOUS
 62
     7
 10
-13.2000036239624
 20
8.200206756591797
 40
0.3000000119209288
 50
179.9999913485781
 51
228.1913336037084
  0
CIRCLE
  8
0
  6
CONTINUOUS
 62
     7
 10
0
 20
9.899994850158691
 40
1
  0
ARC
  8
0
  6
CONTINUOUS
 62
     7
 10
11.0000057220459
 20
9.899994850158691
 40
1.75
 50
179.999991348578
 51
270.0000006832453
  0
ARC
  8
0
  6
CONTINUOUS
 62
     7
 10
-11.0000057220459
 20
9.899994850158691
 40
1.75
 50
270.000004325711
 51
5.008956538086338E-006
  0
CIRCLE
  8
0
  6
CONTINUOUS
 62
     7
 10
-11.0000057220459
 20
9.899994850158691
 40
1.599999666213989
  0
ARC
  8
0
  6
CONTINUOUS
 62
     7
 10
49.17976760864258
 20
43.40232849121094
 40
0.6999999880790676
 50
81.78754014080587
 51
180.0000050089566
  0
ARC
  8
0
  6
CONTINUOUS
 62
     7
 10
49.17976760864258
 20
41.59514617919922
 40
0.6999999880790719
 50
179.9999913485782
 51
278.2124562167285
  0
ARC
  8
0
  6
CONTINUOUS
 62
     7
 10
49.17976760864258
 20
65.40232849121094
 40
0.6999999880790746
 50
81.78754014080595
 51
180.0000050089566
  0
ARC
  8
0
  6
CONTINUOUS
 62
     7
 10
49.17976760864258
 20
63.59514617919922
 40
0.6999999880790719
 50
179.9999913485782
 51
278.2124562167285
  0
ARC
  8
0
  6
CONTINUOUS
 62
     7
 10
81.57975006103516
 20
63.59514617919922
 40
0.6999999880790705
 50
261.7875419620384
 51
8.651422356383126E-006
  0
ARC
  8
0
  6
CONTINUOUS
 62
     7
 10
81.57975006103516
 20
43.40232849121094
 40
0.6999999880790737
 50
359.9999949910441
 51
98.21245803796163
  0
ARC
  8
0
  6
CONTINUOUS
 62
     7
 10
81.57975006103516
 20
65.40232849121094
 40
0.6999999880790737
 50
359.9999949910435
 51
98.21245803796163
  0
ARC
  8
0
  6
CONTINUOUS
 62
     7
 10
81.57975006103516
 20
41.59514617919922
 40
0.6999999880790705
 50
261.7875419620384
 51
8.651422356383126E-006
  0
CIRCLE
  8
0
  6
CONTINUOUS
 62
     7
 10
57.87982940673828
 20
43.49873733520508
 40
1.5
  0
CIRCLE
  8
0
  6
CONTINUOUS
 62
     7
 10
57.87982940673828
 20
43.49873733520508
 40
1.25
  0
CIRCLE
  8
0
  6
CONTINUOUS
 62
     7
 10
40.37963485717773
 20
53.49873733520508
 40
1.75
  0
CIRCLE
  8
0
  6
CONTINUOUS
 62
     7
 10
40.37963485717773
 20
53.49873733520508
 40
3
  0
ARC
  8
0
  6
CONTINUOUS
 62
     7
 10
11.13787460327148
 20
2.999990463256836
 40
0.5999999642372129
 50
270.0000111559002
 51
350.4060746738582
  0
ARC
  8
0
  6
CONTINUOUS
 62
     7
 10
-11.13787460327148
 20
2.999990463256836
 40
0.5999999642372139
 50
189.5939245860537
 51
269.9999906653327
  0
TEXT
  8
0
  6
CONTINUOUS
 62
     7
 10
-1.600000143051148
 20
-21.79999995231628
 40
3.599999904632568
 41
1.033333408391036
  1
RSR12ZM
  0
ENDSEC
  0
EOF
