  0
SECTION
  2
HEADER
  0
ENDSEC
  0
SECTION
  2
TABLES
  0
TABLE
  2
LTYPE
 70
    22
  0
LTYPE
  2
CONTINUOUS
 70
    64
  3
Solid line
 72
    65
 73
     0
 40
0.000000
  0
LTYPE
  2
DASHED
 70
    64
  3
__ __ __ __ __ __ __ __ __ __ __ __ __ __ __
 72
    65
 73
     2
 40
3.500000
 49
2.000000
 49
-1.500000
  0
LTYPE
  2
CENTER
 70
    64
  3
____ _ ____ _ ____ _ ____ _ ____ _ ____ _ ____
 72
    65
 73
     4
 40
17.500000
 49
13.000000
 49
-1.500000
 49
1.500000
 49
-1.500000
  0
LTYPE
  2
PHANTOM
 70
    64
  3
_____ _ _ _____ _ _ _____ _ _ _____ _ _ ____  
 72
    65
 73
     6
 40
15.500000
 49
8.000000
 49
-1.500000
 49
1.500000
 49
-1.500000
 49
1.500000
 49
-1.500000
  0
LTYPE
  2
DOT
 70
    64
  3
. . . . . . . . . . . . . . . . . . . . . . . .
 72
    65
 73
     2
 40
0.25
 49
0.0
 49
-0.25
  0
ENDTAB
  0
TABLE
  2
LAYER
 70
     1
  0
LAYER
  2
0
 70
     0
 62
     7
  6
CONTINUOUS
  0
ENDTAB
  0
TABLE
  2
STYLE
 70
     1
  0
STYLE
  2
STANDARD
 70
     0
 40
0.000000
 41
1.000000
 50
0.000000
 71
     0
 42
0.200000
  3
txt
  0
ENDTAB
  0
TABLE
  2
VIEW
 70
     0
  0
ENDTAB
  0
ENDSEC
  0
SECTION
  2
BLOCKS
  0
ENDSEC
  0
SECTION
  2
ENTITIES
  0
LINE
  8
0
  6
CENTER
 62
     7
 10
115
 20
16.936295
 11
115
 21
8.9270163
  0
LINE
  8
0
  6
CONTINUOUS
 62
     7
 10
50
 20
0
 11
160
 21
0
  0
LINE
  8
0
  6
CONTINUOUS
 62
     7
 10
50
 20
9.499999
 11
77.25
 21
9.499999
  0
LINE
  8
0
  6
CONTINUOUS
 62
     7
 10
50
 20
9.499999
 11
50
 21
0
  0
LINE
  8
0
  6
CENTER
 62
     7
 10
65
 20
10.650002
 11
65
 21
-1.5116348
  0
LINE
  8
0
  6
DASHED
 62
     7
 10
67.25
 20
5
 11
67.25
 21
0
  0
LINE
  8
0
  6
DASHED
 62
     7
 10
69
 20
5
 11
61
 21
5
  0
LINE
  8
0
  6
DASHED
 62
     7
 10
69
 20
9.499999
 11
69
 21
5
  0
LINE
  8
0
  6
DASHED
 62
     7
 10
61
 20
9.499999
 11
61
 21
5
  0
LINE
  8
0
  6
DASHED
 62
     7
 10
62.75
 20
5
 11
62.75
 21
0
  0
LINE
  8
0
  6
CONTINUOUS
 62
     7
 10
160
 20
9.499999
 11
160
 21
0
  0
LINE
  8
0
  6
CONTINUOUS
 62
     7
 10
77.25
 20
9.7999964
 11
77.25
 21
4.199996
  0
LINE
  8
0
  6
CONTINUOUS
 62
     7
 10
132.75
 20
9.7999964
 11
132.75
 21
4.199996
  0
LINE
  8
0
  6
CONTINUOUS
 62
     7
 10
124.45
 20
15.999994
 11
124.45
 21
3.9999943
  0
LINE
  8
0
  6
CONTINUOUS
 62
     7
 10
85.550003
 20
15.999994
 11
85.550003
 21
3.9999943
  0
LINE
  8
0
  6
CONTINUOUS
 62
     7
 10
85.550003
 20
15.999994
 11
124.45
 21
15.999994
  0
LINE
  8
0
  6
CONTINUOUS
 62
     7
 10
85.550003
 20
10.400001
 11
124.45
 21
10.400001
  0
LINE
  8
0
  6
CONTINUOUS
 62
     7
 10
85.550003
 20
3.9999943
 11
124.45
 21
3.9999943
  0
LINE
  8
0
  6
CONTINUOUS
 62
     7
 10
132.75
 20
9.499999
 11
160
 21
9.499999
  0
LINE
  8
0
  6
CONTINUOUS
 62
     7
 10
78.25
 20
15.299996
 11
85.550003
 21
15.299996
  0
LINE
  8
0
  6
CONTINUOUS
 62
     7
 10
77.25
 20
4.199996
 11
85.550003
 21
4.199996
  0
LINE
  8
0
  6
CONTINUOUS
 62
     7
 10
79.25
 20
15.299996
 11
79.25
 21
4.199996
  0
LINE
  8
0
  6
CONTINUOUS
 62
     7
 10
130.75
 20
15.299996
 11
130.75
 21
4.199996
  0
LINE
  8
0
  6
CONTINUOUS
 62
     7
 10
124.45
 20
15.299996
 11
131.75
 21
15.299996
  0
LINE
  8
0
  6
CONTINUOUS
 62
     7
 10
124.45
 20
4.199996
 11
132.75
 21
4.199996
  0
LINE
  8
0
  6
CONTINUOUS
 62
     7
 10
131.75
 20
15.299996
 11
131.75
 21
4.199996
  0
LINE
  8
0
  6
CONTINUOUS
 62
     7
 10
78.25
 20
15.299996
 11
78.25
 21
4.199996
  0
LINE
  8
0
  6
CONTINUOUS
 62
     7
 10
78.249992
 20
10.500004
 11
77.249992
 21
9.8000031
  0
LINE
  8
0
  6
CONTINUOUS
 62
     7
 10
131.74998
 20
10.500004
 11
132.75
 21
9.8000031
  0
LINE
  8
0
  6
CENTER
 62
     7
 10
95
 20
16.936295
 11
95
 21
8.74088
  0
LINE
  8
0
  6
CONTINUOUS
 62
     7
 10
-29
 20
16
 11
-12
 21
16
  0
LINE
  8
0
  6
CONTINUOUS
 62
     7
 10
-30
 20
15
 11
-30
 21
10.400002
  0
LINE
  8
0
  6
CONTINUOUS
 62
     7
 10
30
 20
15
 11
30
 21
10.400002
  0
LINE
  8
0
  6
CONTINUOUS
 62
     7
 10
-28.600006
 20
4.0000019
 11
-21.531738
 21
4.0000019
  0
LINE
  8
0
  6
CONTINUOUS
 62
     7
 10
-11.5
 20
15.5
 11
11.5
 21
15.5
  0
LINE
  8
0
  6
CONTINUOUS
 62
     7
 10
-29.999994
 20
14.99999
 11
-28.999992
 21
15.999991
  0
LINE
  8
0
  6
CONTINUOUS
 62
     7
 10
-11.999995
 20
15.999991
 11
-11.500006
 21
15.500002
  0
LINE
  8
0
  6
CONTINUOUS
 62
     7
 10
11.999994
 20
15.999992
 11
11.499994
 21
15.499991
  0
LINE
  8
0
  6
CONTINUOUS
 62
     7
 10
12
 20
16
 11
29
 21
16
  0
LINE
  8
0
  6
CONTINUOUS
 62
     7
 10
29.999989
 20
14.999996
 11
28.999992
 21
15.999991
  0
LINE
  8
0
  6
CONTINUOUS
 62
     7
 10
-29.600006
 20
10.000002
 11
-29.600006
 21
5.0000019
  0
LINE
  8
0
  6
CONTINUOUS
 62
     7
 10
29.599991
 20
10.000002
 11
29.599991
 21
5.0000019
  0
LINE
  8
0
  6
CONTINUOUS
 62
     7
 10
-28.599997
 20
4.0000057
 11
-29.599997
 21
5.0000067
  0
LINE
  8
0
  6
CONTINUOUS
 62
     7
 10
28.599985
 20
3.9999948
 11
29.599987
 21
4.9999957
  0
LINE
  8
0
  6
CONTINUOUS
 62
     7
 10
-29.999998
 20
10.399994
 11
-29.600006
 21
10.000002
  0
LINE
  8
0
  6
CONTINUOUS
 62
     7
 10
29.999992
 20
10.4
 11
29.599989
 21
9.9999971
  0
LINE
  8
0
  6
CONTINUOUS
 62
     7
 10
21.531723
 20
4.0000019
 11
28.599991
 21
4.0000019
  0
LINE
  8
0
  6
CENTER
 62
     7
 10
-11.499996
 20
10.650002
 11
-11.499996
 21
-1.5116348
  0
LINE
  8
0
  6
CONTINUOUS
 62
     7
 10
-20.999985
 20
3.8570786
 11
-20.999985
 21
0.5
  0
LINE
  8
0
  6
CONTINUOUS
 62
     7
 10
-20.499985
 20
0
 11
-7.9999962
 21
0
  0
LINE
  8
0
  6
CONTINUOUS
 62
     7
 10
-20.00499
 20
9.5
 11
20.00499
 21
9.5
  0
LINE
  8
0
  6
CONTINUOUS
 62
     7
 10
21
 20
3.8570786
 11
21
 21
0.5
  0
LINE
  8
0
  6
CENTER
 62
     7
 10
0
 20
16.420944
 11
0
 21
-1.087326
  0
LINE
  8
0
  6
DASHED
 62
     7
 10
-15.499996
 20
9.3000031
 11
-15.499996
 21
5
  0
LINE
  8
0
  6
DASHED
 62
     7
 10
-15.499996
 20
5
 11
-7.4999962
 21
5
  0
LINE
  8
0
  6
DASHED
 62
     7
 10
-13.749996
 20
5
 11
-13.749996
 21
0
  0
LINE
  8
0
  6
DASHED
 62
     7
 10
-9.2499962
 20
5
 11
-9.2499962
 21
0
  0
LINE
  8
0
  6
DASHED
 62
     7
 10
-7.4999962
 20
9.3000031
 11
-7.4999962
 21
5
  0
LINE
  8
0
  6
CONTINUOUS
 62
     7
 10
-7.4999962
 20
0.5
 11
7.5
 21
0.5
  0
LINE
  8
0
  6
CONTINUOUS
 62
     7
 10
-7.9999976
 20
2.6973983E-006
 11
-7.4999981
 21
0.50000256
  0
LINE
  8
0
  6
CONTINUOUS
 62
     7
 10
7.9999986
 20
3.3717479E-006
 11
7.4999981
 21
0.50000393
  0
LINE
  8
0
  6
CONTINUOUS
 62
     7
 10
8
 20
0
 11
20.5
 21
0
  0
LINE
  8
0
  6
CONTINUOUS
 62
     7
 10
-20.5
 20
3.5614087E-006
 11
-21
 21
0.50000411
  0
LINE
  8
0
  6
CONTINUOUS
 62
     7
 10
20.5
 20
4.2357583E-006
 11
20.999998
 21
0.50000209
  0
LINE
  8
0
  6
CONTINUOUS
 62
     7
 10
-20.999987
 20
3.8570688
 11
-20.725292
 21
5.4149427
  0
LINE
  8
0
  6
CONTINUOUS
 62
     7
 10
-20.175615
 20
8.5323191
 11
-20.004986
 21
9.4999971
  0
LINE
  8
0
  6
CONTINUOUS
 62
     7
 10
20.999985
 20
3.8570788
 11
20.725292
 21
5.4149427
  0
LINE
  8
0
  6
CONTINUOUS
 62
     7
 10
20.175615
 20
8.5323191
 11
20.004986
 21
9.5
  0
LINE
  8
0
  6
CENTER
 62
     7
 10
-22.5
 20
16.936295
 11
-22.5
 21
9.1387463
  0
LINE
  8
0
  6
CONTINUOUS
 62
     7
 10
-28.399994
 20
15.2
 11
28.399994
 21
15.2
  0
LINE
  8
0
  6
CONTINUOUS
 62
     7
 10
-28.399994
 20
4.3000002
 11
-20.92189
 21
4.3000002
  0
LINE
  8
0
  6
CONTINUOUS
 62
     7
 10
-29.399994
 20
14.2
 11
-29.399994
 21
5.3000002
  0
LINE
  8
0
  6
CONTINUOUS
 62
     7
 10
-28.399996
 20
15.199995
 11
-29.399996
 21
14.199995
  0
LINE
  8
0
  6
CONTINUOUS
 62
     7
 10
-29.39999
 20
5.3000088
 11
-28.39999
 21
4.3000078
  0
LINE
  8
0
  6
CONTINUOUS
 62
     7
 10
-21.937313
 20
4.2999978
 11
-20.844086
 21
10.499998
  0
LINE
  8
0
  6
CONTINUOUS
 62
     7
 10
21.937313
 20
4.2999978
 11
20.844086
 21
10.499998
  0
LINE
  8
0
  6
CONTINUOUS
 62
     7
 10
28.399994
 20
4.3000002
 11
20.92189
 21
4.3000002
  0
LINE
  8
0
  6
CONTINUOUS
 62
     7
 10
29.39999
 20
5.3000088
 11
28.39999
 21
4.3000078
  0
LINE
  8
0
  6
CONTINUOUS
 62
     7
 10
28.399996
 20
15.199995
 11
29.399996
 21
14.199995
  0
LINE
  8
0
  6
CONTINUOUS
 62
     7
 10
29.399994
 20
14.2
 11
29.399994
 21
5.3000002
  0
LINE
  8
0
  6
CENTER
 62
     7
 10
11.5
 20
10.650002
 11
11.5
 21
-1.5116348
  0
LINE
  8
0
  6
CENTER
 62
     7
 10
22.5
 20
16.936295
 11
22.5
 21
9.1387463
  0
LINE
  8
0
  6
CONTINUOUS
 62
     7
 10
50
 20
69
 11
77.25
 21
69
  0
LINE
  8
0
  6
CONTINUOUS
 62
     7
 10
50
 20
69.994995
 11
77.25
 21
69.994995
  0
LINE
  8
0
  6
CONTINUOUS
 62
     7
 10
50
 20
111
 11
50
 21
69
  0
LINE
  8
0
  6
CENTER
 62
     7
 10
48
 20
90
 11
162
 21
90
  0
LINE
  8
0
  6
CONTINUOUS
 62
     7
 10
50
 20
110.00499
 11
77.25
 21
110.00499
  0
LINE
  8
0
  6
CONTINUOUS
 62
     7
 10
50
 20
111
 11
77.25
 21
111
  0
LINE
  8
0
  6
CONTINUOUS
 62
     7
 10
160
 20
111
 11
160
 21
69
  0
LINE
  8
0
  6
CONTINUOUS
 62
     7
 10
85.550003
 20
120
 11
85.550003
 21
60
  0
LINE
  8
0
  6
CONTINUOUS
 62
     7
 10
124.45
 20
120
 11
124.45
 21
60
  0
LINE
  8
0
  6
CONTINUOUS
 62
     7
 10
130.75
 20
119.5
 11
130.75
 21
60.5
  0
LINE
  8
0
  6
CONTINUOUS
 62
     7
 10
79.25
 20
119.5
 11
79.25
 21
60.5
  0
LINE
  8
0
  6
CONTINUOUS
 62
     7
 10
85.550003
 20
60
 11
124.45
 21
60
  0
LINE
  8
0
  6
CONTINUOUS
 62
     7
 10
85.550003
 20
120
 11
124.45
 21
120
  0
LINE
  8
0
  6
CONTINUOUS
 62
     7
 10
85.550003
 20
78
 11
124.45
 21
78
  0
LINE
  8
0
  6
CONTINUOUS
 62
     7
 10
85.550003
 20
102
 11
124.45
 21
102
  0
LINE
  8
0
  6
CONTINUOUS
 62
     7
 10
132.75
 20
111
 11
160
 21
111
  0
LINE
  8
0
  6
CONTINUOUS
 62
     7
 10
132.75
 20
69.994995
 11
160
 21
69.994995
  0
LINE
  8
0
  6
CONTINUOUS
 62
     7
 10
132.75
 20
69
 11
160
 21
69
  0
LINE
  8
0
  6
CONTINUOUS
 62
     7
 10
132.75
 20
110.00499
 11
160
 21
110.00499
  0
LINE
  8
0
  6
CONTINUOUS
 62
     7
 10
78.25
 20
60.5
 11
85.550003
 21
60.5
  0
LINE
  8
0
  6
CONTINUOUS
 62
     7
 10
78.25
 20
119.5
 11
85.550003
 21
119.5
  0
LINE
  8
0
  6
CONTINUOUS
 62
     7
 10
124.45
 20
60.5
 11
131.75
 21
60.5
  0
LINE
  8
0
  6
CONTINUOUS
 62
     7
 10
124.45
 20
119.5
 11
131.75
 21
119.5
  0
LINE
  8
0
  6
CONTINUOUS
 62
     7
 10
77.25
 20
111
 11
77.25
 21
92.25
  0
LINE
  8
0
  6
CONTINUOUS
 62
     7
 10
132.75
 20
111
 11
132.75
 21
69
  0
LINE
  8
0
  6
CONTINUOUS
 62
     7
 10
78.25
 20
119.5
 11
78.25
 21
60.5
  0
LINE
  8
0
  6
CONTINUOUS
 62
     7
 10
131.75
 20
119.5
 11
131.75
 21
60.5
  0
LINE
  8
0
  6
CONTINUOUS
 62
     7
 10
78.250008
 20
111.93732
 11
77.250008
 21
110.99999
  0
LINE
  8
0
  6
CONTINUOUS
 62
     7
 10
78.249992
 20
68.062668
 11
77.249992
 21
68.999992
  0
LINE
  8
0
  6
CONTINUOUS
 62
     7
 10
131.75
 20
68.062675
 11
132.75
 21
69.000008
  0
LINE
  8
0
  6
CONTINUOUS
 62
     7
 10
131.75
 20
111.93733
 11
132.75
 21
111
  0
LINE
  8
0
  6
CENTER
 62
     7
 10
110
 20
101.5
 11
100
 21
101.5
  0
LINE
  8
0
  6
CENTER
 62
     7
 10
105
 20
106.5
 11
105
 21
96.5
  0
LINE
  8
0
  6
CENTER
 62
     7
 10
110
 20
78.5
 11
100
 21
78.5
  0
LINE
  8
0
  6
CENTER
 62
     7
 10
105
 20
83.5
 11
105
 21
73.5
  0
LINE
  8
0
  6
CENTER
 62
     7
 10
150
 20
78.5
 11
140
 21
78.5
  0
LINE
  8
0
  6
CENTER
 62
     7
 10
145
 20
83.5
 11
145
 21
73.5
  0
LINE
  8
0
  6
CENTER
 62
     7
 10
150
 20
101.5
 11
140
 21
101.5
  0
LINE
  8
0
  6
CENTER
 62
     7
 10
145
 20
106.5
 11
145
 21
96.5
  0
LINE
  8
0
  6
CENTER
 62
     7
 10
117.5
 20
67.5
 11
112.5
 21
67.5
  0
LINE
  8
0
  6
CENTER
 62
     7
 10
115
 20
70
 11
115
 21
65
  0
LINE
  8
0
  6
CENTER
 62
     7
 10
97.5
 20
67.5
 11
92.5
 21
67.5
  0
LINE
  8
0
  6
CENTER
 62
     7
 10
95
 20
70
 11
95
 21
65
  0
LINE
  8
0
  6
CENTER
 62
     7
 10
97.5
 20
112.5
 11
92.5
 21
112.5
  0
LINE
  8
0
  6
CENTER
 62
     7
 10
95
 20
115
 11
95
 21
110
  0
LINE
  8
0
  6
CENTER
 62
     7
 10
117.5
 20
112.5
 11
112.5
 21
112.5
  0
LINE
  8
0
  6
CENTER
 62
     7
 10
115
 20
115
 11
115
 21
110
  0
LINE
  8
0
  6
CONTINUOUS
 62
     7
 10
-20.844086
 20
10.5
 11
-1.0307764
 21
10.5
  0
LINE
  8
0
  6
CONTINUOUS
 62
     7
 10
-27.7071
 20
11.792888
 11
-26.292887
 21
13.207102
  0
LINE
  8
0
  6
CONTINUOUS
 62
     7
 10
-27.7071
 20
13.207102
 11
-26.292887
 21
11.792888
  0
LINE
  8
0
  6
CONTINUOUS
 62
     7
 10
-21.531738
 20
4.0000019
 11
-21.47884
 21
4.3000002
  0
LINE
  8
0
  6
CONTINUOUS
 62
     7
 10
21.531723
 20
4.0000005
 11
21.478825
 21
4.2999988
  0
LINE
  8
0
  6
CONTINUOUS
 62
     7
 10
50
 20
8.5323219
 11
77.25
 21
8.5323219
  0
LINE
  8
0
  6
CONTINUOUS
 62
     7
 10
50
 20
5.4149456
 11
77.25
 21
5.4149456
  0
LINE
  8
0
  6
CONTINUOUS
 62
     7
 10
50
 20
3.8570786
 11
160
 21
3.8570786
  0
LINE
  8
0
  6
CONTINUOUS
 62
     7
 10
132.75
 20
8.5323219
 11
160
 21
8.5323219
  0
LINE
  8
0
  6
CONTINUOUS
 62
     7
 10
132.75
 20
5.4149456
 11
160
 21
5.4149456
  0
LINE
  8
0
  6
CENTER
 62
     7
 10
105
 20
6.975883
 11
105
 21
-1.5116348
  0
LINE
  8
0
  6
CENTER
 62
     7
 10
145
 20
10.650002
 11
145
 21
-1.5116348
  0
LINE
  8
0
  6
CENTER
 62
     7
 10
70
 20
101.5
 11
60
 21
101.5
  0
LINE
  8
0
  6
CENTER
 62
     7
 10
65
 20
106.5
 11
65
 21
96.5
  0
LINE
  8
0
  6
CENTER
 62
     7
 10
70
 20
78.5
 11
60
 21
78.5
  0
LINE
  8
0
  6
CENTER
 62
     7
 10
65
 20
83.5
 11
65
 21
73.5
  0
LINE
  8
0
  6
DASHED
 62
     7
 10
93
 20
15.999994
 11
93
 21
11.499994
  0
LINE
  8
0
  6
DASHED
 62
     7
 10
93.399994
 20
15.999994
 11
93.399994
 21
9.9999943
  0
LINE
  8
0
  6
DASHED
 62
     7
 10
96.599991
 20
15.999994
 11
96.599991
 21
9.9999943
  0
LINE
  8
0
  6
DASHED
 62
     7
 10
97
 20
15.999994
 11
97
 21
11.499994
  0
LINE
  8
0
  6
DASHED
 62
     7
 10
93
 20
11.499994
 11
97
 21
11.499994
  0
LINE
  8
0
  6
DASHED
 62
     7
 10
93
 20
11.499997
 11
93.400002
 21
10.807174
  0
LINE
  8
0
  6
DASHED
 62
     7
 10
93.399994
 20
9.9999943
 11
96.599991
 21
9.9999943
  0
LINE
  8
0
  6
DASHED
 62
     7
 10
93.399986
 20
9.9999952
 11
95
 21
9.0762281
  0
LINE
  8
0
  6
DASHED
 62
     7
 10
97
 20
11.499981
 11
96.600006
 21
10.807171
  0
LINE
  8
0
  6
DASHED
 62
     7
 10
96.599991
 20
10.000004
 11
94.999992
 21
9.0762444
  0
LINE
  8
0
  6
CONTINUOUS
 62
     7
 10
77.149994
 20
14.75
 11
78.25
 21
14.75
  0
LINE
  8
0
  6
CONTINUOUS
 62
     7
 10
77.149994
 20
10.25
 11
77.892845
 21
10.25
  0
LINE
  8
0
  6
CONTINUOUS
 62
     7
 10
75.999992
 20
10.75
 11
77.149994
 21
10.75
  0
LINE
  8
0
  6
CONTINUOUS
 62
     7
 10
75.999992
 20
14.25
 11
77.149994
 21
14.25
  0
LINE
  8
0
  6
CONTINUOUS
 62
     7
 10
77.149994
 20
14.75
 11
77.149994
 21
10.25
  0
LINE
  8
0
  6
CONTINUOUS
 62
     7
 10
1.0307764
 20
10.5
 11
20.844086
 21
10.5
  0
LINE
  8
0
  6
CONTINUOUS
 62
     7
 10
77.149994
 20
92.25
 11
77.149994
 21
87.75
  0
LINE
  8
0
  6
CONTINUOUS
 62
     7
 10
75.999992
 20
91.75
 11
77.149994
 21
91.75
  0
LINE
  8
0
  6
CONTINUOUS
 62
     7
 10
75.999992
 20
88.25
 11
77.149994
 21
88.25
  0
LINE
  8
0
  6
CONTINUOUS
 62
     7
 10
77.149994
 20
87.75
 11
78.25
 21
87.75
  0
LINE
  8
0
  6
CONTINUOUS
 62
     7
 10
77.149994
 20
92.25
 11
78.25
 21
92.25
  0
LINE
  8
0
  6
CONTINUOUS
 62
     7
 10
77.25
 20
87.75
 11
77.25
 21
69
  0
LINE
  8
0
  6
DASHED
 62
     7
 10
-24.5
 20
16
 11
-24.5
 21
11.5
  0
LINE
  8
0
  6
DASHED
 62
     7
 10
-24.100006
 20
16
 11
-24.100006
 21
10
  0
LINE
  8
0
  6
DASHED
 62
     7
 10
-20.900009
 20
16
 11
-20.900009
 21
10
  0
LINE
  8
0
  6
DASHED
 62
     7
 10
-20.5
 20
16
 11
-20.5
 21
11.5
  0
LINE
  8
0
  6
DASHED
 62
     7
 10
-24.5
 20
11.5
 11
-20.5
 21
11.5
  0
LINE
  8
0
  6
DASHED
 62
     7
 10
-24.500002
 20
11.500003
 11
-24.1
 21
10.807179
  0
LINE
  8
0
  6
DASHED
 62
     7
 10
-24.100006
 20
10
 11
-20.900009
 21
10
  0
LINE
  8
0
  6
DASHED
 62
     7
 10
-24.100012
 20
10.000001
 11
-22.5
 21
9.0762339
  0
LINE
  8
0
  6
DASHED
 62
     7
 10
-20.500004
 20
11.499987
 11
-20.899998
 21
10.807177
  0
LINE
  8
0
  6
DASHED
 62
     7
 10
-20.900005
 20
10.00001
 11
-22.500004
 21
9.076251
  0
LINE
  8
0
  6
CENTER
 62
     7
 10
-3.25
 20
12.5
 11
3.25
 21
12.5
  0
LINE
  8
0
  6
CENTER
 62
     7
 10
73.050819
 20
12.5
 11
78.948936
 21
12.5
  0
ARC
  8
0
  6
CONTINUOUS
 62
     7
 10
-20.445145
 20
5.2761536
 40
0.30000001
 50
165.43019
 51
169.99997
  0
ARC
  8
0
  6
CONTINUOUS
 62
     7
 10
-19.868652
 20
8.5455551
 40
0.30000001
 50
169.99997
 51
174.5698
  0
CIRCLE
  8
0
  6
CONTINUOUS
 62
     7
 10
65
 20
78.5
 40
4
  0
CIRCLE
  8
0
  6
CONTINUOUS
 62
     7
 10
65
 20
78.5
 40
2.25
  0
CIRCLE
  8
0
  6
CONTINUOUS
 62
     7
 10
145
 20
78.5
 40
2.25
  0
CIRCLE
  8
0
  6
CONTINUOUS
 62
     7
 10
145
 20
78.5
 40
4
  0
CIRCLE
  8
0
  6
CONTINUOUS
 62
     7
 10
65
 20
101.5
 40
4
  0
CIRCLE
  8
0
  6
CONTINUOUS
 62
     7
 10
65
 20
101.5
 40
2.25
  0
CIRCLE
  8
0
  6
CONTINUOUS
 62
     7
 10
145
 20
101.5
 40
4
  0
CIRCLE
  8
0
  6
CONTINUOUS
 62
     7
 10
145
 20
101.5
 40
2.25
  0
CIRCLE
  8
0
  6
CONTINUOUS
 62
     7
 10
-27
 20
12.5
 40
1.5999994
  0
CIRCLE
  8
0
  6
CONTINUOUS
 62
     7
 10
27
 20
12.5
 40
1.5999994
  0
ARC
  8
0
  6
CONTINUOUS
 62
     7
 10
-20.599991
 20
7
 40
1.5899992
 50
265.47996
 51
74.520041
  0
ARC
  8
0
  6
CONTINUOUS
 62
     7
 10
20.599991
 20
7
 40
1.5899992
 50
105.47992
 51
274.52006
  0
CIRCLE
  8
0
  6
CONTINUOUS
 62
     7
 10
95
 20
67.5
 40
2
  0
CIRCLE
  8
0
  6
CONTINUOUS
 62
     7
 10
95
 20
67.5
 40
1.5999994
  0
CIRCLE
  8
0
  6
CONTINUOUS
 62
     7
 10
0
 20
12.5
 40
0.90149999
  0
CIRCLE
  8
0
  6
CONTINUOUS
 62
     7
 10
0
 20
12.5
 40
1.75
  0
CIRCLE
  8
0
  6
CONTINUOUS
 62
     7
 10
0
 20
12.5
 40
2.25
  0
ARC
  8
0
  6
CONTINUOUS
 62
     7
 10
75.999992
 20
12.5
 40
1.75
 50
90.000003
 51
270
  0
ARC
  8
0
  6
CONTINUOUS
 62
     7
 10
75.999992
 20
90
 40
1.75
 50
90.000003
 51
270
  0
TEXT
  8
0
  6
CONTINUOUS
 62
     7
 10
-1.5999999
 20
-16.8
 40
3.5999994
 41
0.86188322
  1
ＲＳＲ１５Ｍ１ＷＶ
  0
ENDSEC
  0
EOF
