  0
SECTION
  2
HEADER
  0
ENDSEC
  0
SECTION
  2
TABLES
  0
TABLE
  2
LTYPE
 70
    22
  0
LTYPE
  2
CONTINUOUS
 70
    64
  3
Solid line
 72
    65
 73
     0
 40
0.000000
  0
LTYPE
  2
DASHED
 70
    64
  3
__ __ __ __ __ __ __ __ __ __ __ __ __ __ __
 72
    65
 73
     2
 40
3.500000
 49
2.000000
 49
-1.500000
  0
LTYPE
  2
CENTER
 70
    64
  3
____ _ ____ _ ____ _ ____ _ ____ _ ____ _ ____
 72
    65
 73
     4
 40
17.500000
 49
13.000000
 49
-1.500000
 49
1.500000
 49
-1.500000
  0
LTYPE
  2
PHANTOM
 70
    64
  3
_____ _ _ _____ _ _ _____ _ _ _____ _ _ ____  
 72
    65
 73
     6
 40
15.500000
 49
8.000000
 49
-1.500000
 49
1.500000
 49
-1.500000
 49
1.500000
 49
-1.500000
  0
LTYPE
  2
DOT
 70
    64
  3
. . . . . . . . . . . . . . . . . . . . . . . .
 72
    65
 73
     2
 40
0.25
 49
0.0
 49
-0.25
  0
ENDTAB
  0
TABLE
  2
LAYER
 70
     1
  0
LAYER
  2
0
 70
     0
 62
     7
  6
CONTINUOUS
  0
ENDTAB
  0
TABLE
  2
STYLE
 70
     1
  0
STYLE
  2
STANDARD
 70
     0
 40
0.000000
 41
1.000000
 50
0.000000
 71
     0
 42
0.200000
  3
txt
  0
ENDTAB
  0
TABLE
  2
VIEW
 70
     0
  0
ENDTAB
  0
ENDSEC
  0
SECTION
  2
BLOCKS
  0
ENDSEC
  0
SECTION
  2
ENTITIES
  0
LINE
  8
0
  6
CONTINUOUS
 62
     7
 10
-7
 20
0
 11
7
 21
0
  0
LINE
  8
0
  6
CENTER
 62
     7
 10
125
 20
10.5
 11
125
 21
-1
  0
LINE
  8
0
  6
CONTINUOUS
 62
     7
 10
-6.5075002
 20
9.5
 11
6.5075002
 21
9.5
  0
LINE
  8
0
  6
CONTINUOUS
 62
     7
 10
7.5
 20
3.8712528
 11
7.5
 21
0.5
  0
LINE
  8
0
  6
CONTINUOUS
 62
     7
 10
-7.5
 20
3.8712528
 11
-7.5
 21
0.5
  0
LINE
  8
0
  6
CONTINUOUS
 62
     7
 10
-7.5
 20
0.49999985
 11
-7
 21
0
  0
LINE
  8
0
  6
CONTINUOUS
 62
     7
 10
7
 20
0
 11
7.5
 21
0.49999985
  0
LINE
  8
0
  6
CONTINUOUS
 62
     7
 10
-7.5
 20
3.8712528
 11
-7.2277708
 21
5.4151421
  0
LINE
  8
0
  6
CONTINUOUS
 62
     7
 10
6.5075002
 20
9.5
 11
6.6780119
 21
8.532979
  0
LINE
  8
0
  6
DASHED
 62
     7
 10
43.25
 20
5
 11
43.25
 21
0
  0
LINE
  8
0
  6
DASHED
 62
     7
 10
46.75
 20
5
 11
46.75
 21
0
  0
LINE
  8
0
  6
DASHED
 62
     7
 10
48
 20
9.5
 11
48
 21
5
  0
LINE
  8
0
  6
DASHED
 62
     7
 10
42
 20
9.5
 11
42
 21
5
  0
LINE
  8
0
  6
DASHED
 62
     7
 10
42
 20
5
 11
48
 21
5
  0
LINE
  8
0
  6
CONTINUOUS
 62
     7
 10
-6.6780119
 20
8.532979
 11
-6.5075002
 21
9.5
  0
LINE
  8
0
  6
CONTINUOUS
 62
     7
 10
7.2277708
 20
5.4151421
 11
7.5
 21
3.8712528
  0
LINE
  8
0
  6
CONTINUOUS
 62
     7
 10
-15.5
 20
16
 11
-7.5
 21
16
  0
LINE
  8
0
  6
CONTINUOUS
 62
     7
 10
16
 20
15.5
 11
16
 21
4.5
  0
LINE
  8
0
  6
CONTINUOUS
 62
     7
 10
-16
 20
15.5
 11
-16
 21
4.5
  0
LINE
  8
0
  6
CONTINUOUS
 62
     7
 10
-15.5
 20
4
 11
-7.4772983
 21
4
  0
LINE
  8
0
  6
CONTINUOUS
 62
     7
 10
-15.499999
 20
15.999999
 11
-15.999999
 21
15.499999
  0
LINE
  8
0
  6
CONTINUOUS
 62
     7
 10
15.499999
 20
15.999999
 11
15.999999
 21
15.499999
  0
LINE
  8
0
  6
CONTINUOUS
 62
     7
 10
15.5
 20
3.9999995
 11
16
 21
4.5
  0
LINE
  8
0
  6
CONTINUOUS
 62
     7
 10
-15.5
 20
3.9999995
 11
-16
 21
4.5
  0
LINE
  8
0
  6
CONTINUOUS
 62
     7
 10
7.4772983
 20
4
 11
15.5
 21
4
  0
LINE
  8
0
  6
CONTINUOUS
 62
     7
 10
-7
 20
15.5
 11
7
 21
15.5
  0
LINE
  8
0
  6
CONTINUOUS
 62
     7
 10
7
 20
15.5
 11
7.5000005
 21
16
  0
LINE
  8
0
  6
CONTINUOUS
 62
     7
 10
-7.5000005
 20
16
 11
-7
 21
15.5
  0
LINE
  8
0
  6
CONTINUOUS
 62
     7
 10
7.5
 20
16
 11
15.5
 21
16
  0
LINE
  8
0
  6
CENTER
 62
     7
 10
-12.5
 20
17
 11
-12.5
 21
9.4006233
  0
LINE
  8
0
  6
CENTER
 62
     7
 10
12.5
 20
17
 11
12.5
 21
9.4006233
  0
LINE
  8
0
  6
CONTINUOUS
 62
     7
 10
-7.7661495
 20
11
 11
-1.8734994
 21
11
  0
LINE
  8
0
  6
CONTINUOUS
 62
     7
 10
-9.0004387
 20
4
 11
-7.7661495
 21
11
  0
LINE
  8
0
  6
CONTINUOUS
 62
     7
 10
7.7661495
 20
11
 11
9.0004387
 21
4
  0
LINE
  8
0
  6
CONTINUOUS
 62
     7
 10
-14.5
 20
15.3
 11
14.5
 21
15.3
  0
LINE
  8
0
  6
CONTINUOUS
 62
     7
 10
15.5
 20
14.3
 11
15.5
 21
4
  0
LINE
  8
0
  6
CONTINUOUS
 62
     7
 10
-15.5
 20
14.3
 11
-15.5
 21
4
  0
LINE
  8
0
  6
CONTINUOUS
 62
     7
 10
-14.499999
 20
15.299999
 11
-15.499999
 21
14.299999
  0
LINE
  8
0
  6
CONTINUOUS
 62
     7
 10
14.499999
 20
15.299999
 11
15.499999
 21
14.299999
  0
LINE
  8
0
  6
CONTINUOUS
 62
     7
 10
-15.4
 20
14.4
 11
-13.5
 21
14.4
  0
LINE
  8
0
  6
CONTINUOUS
 62
     7
 10
-15.5
 20
10.6
 11
-13.5
 21
10.6
  0
LINE
  8
0
  6
CONTINUOUS
 62
     7
 10
-14.383884
 20
11.616117
 11
-12.616117
 21
13.383884
  0
LINE
  8
0
  6
CONTINUOUS
 62
     7
 10
-14.383884
 20
13.383884
 11
-12.616117
 21
11.616117
  0
LINE
  8
0
  6
CONTINUOUS
 62
     7
 10
15.4
 20
14.4
 11
13.5
 21
14.4
  0
LINE
  8
0
  6
CONTINUOUS
 62
     7
 10
15.5
 20
10.6
 11
13.5
 21
10.6
  0
LINE
  8
0
  6
CONTINUOUS
 62
     7
 10
-2.4000001
 20
15.3
 11
-2.4000001
 21
12.5
  0
LINE
  8
0
  6
CONTINUOUS
 62
     7
 10
2.4000001
 20
15.3
 11
2.4000001
 21
12.5
  0
LINE
  8
0
  6
CONTINUOUS
 62
     7
 10
1.8734994
 20
11
 11
7.7661495
 21
11
  0
LINE
  8
0
  6
CONTINUOUS
 62
     7
 10
30
 20
9.5
 11
30
 21
0
  0
LINE
  8
0
  6
CONTINUOUS
 62
     7
 10
140
 20
9.5
 11
140
 21
0
  0
LINE
  8
0
  6
CONTINUOUS
 62
     7
 10
30
 20
0
 11
140
 21
0
  0
LINE
  8
0
  6
CONTINUOUS
 62
     7
 10
30
 20
3.8712528
 11
140
 21
3.8712528
  0
LINE
  8
0
  6
CONTINUOUS
 62
     7
 10
30
 20
5.4151421
 11
54.5
 21
5.4151421
  0
LINE
  8
0
  6
CONTINUOUS
 62
     7
 10
30
 20
8.532979
 11
54.5
 21
8.532979
  0
LINE
  8
0
  6
CONTINUOUS
 62
     7
 10
30
 20
9.5
 11
54.5
 21
9.5
  0
LINE
  8
0
  6
DASHED
 62
     7
 10
-1.75
 20
5
 11
-1.75
 21
0
  0
LINE
  8
0
  6
DASHED
 62
     7
 10
-3
 20
9.5
 11
-3
 21
5
  0
LINE
  8
0
  6
DASHED
 62
     7
 10
-3
 20
5
 11
3
 21
5
  0
LINE
  8
0
  6
CENTER
 62
     7
 10
0
 20
17
 11
0
 21
-1
  0
LINE
  8
0
  6
DASHED
 62
     7
 10
1.75
 20
5
 11
1.75
 21
0
  0
LINE
  8
0
  6
DASHED
 62
     7
 10
3
 20
9.5
 11
3
 21
5
  0
LINE
  8
0
  6
CENTER
 62
     7
 10
45
 20
10.5
 11
45
 21
-1
  0
LINE
  8
0
  6
CENTER
 62
     7
 10
85
 20
10.5
 11
85
 21
-1
  0
LINE
  8
0
  6
CONTINUOUS
 62
     7
 10
63.25
 20
16
 11
106.75
 21
16
  0
LINE
  8
0
  6
CONTINUOUS
 62
     7
 10
54.5
 20
4
 11
115.5
 21
4
  0
LINE
  8
0
  6
CONTINUOUS
 62
     7
 10
106.75
 20
16
 11
106.75
 21
4
  0
LINE
  8
0
  6
CONTINUOUS
 62
     7
 10
63.25
 20
16
 11
63.25
 21
4
  0
LINE
  8
0
  6
CONTINUOUS
 62
     7
 10
115.5
 20
5.4151421
 11
140
 21
5.4151421
  0
LINE
  8
0
  6
CONTINUOUS
 62
     7
 10
115.5
 20
8.532979
 11
140
 21
8.532979
  0
LINE
  8
0
  6
CONTINUOUS
 62
     7
 10
115.5
 20
9.5
 11
140
 21
9.5
  0
LINE
  8
0
  6
CENTER
 62
     7
 10
97.5
 20
17.31708
 11
97.5
 21
8.8565083
  0
LINE
  8
0
  6
DASHED
 62
     7
 10
71
 20
16
 11
71
 21
11.9
  0
LINE
  8
0
  6
DASHED
 62
     7
 10
74
 20
16
 11
74
 21
11.9
  0
LINE
  8
0
  6
DASHED
 62
     7
 10
71.300003
 20
16
 11
71.300003
 21
10.5
  0
LINE
  8
0
  6
DASHED
 62
     7
 10
73.699997
 20
16
 11
73.699997
 21
10.5
  0
LINE
  8
0
  6
DASHED
 62
     7
 10
71
 20
11.9
 11
74
 21
11.9
  0
LINE
  8
0
  6
DASHED
 62
     7
 10
71.300003
 20
10.5
 11
73.699997
 21
10.5
  0
LINE
  8
0
  6
DASHED
 62
     7
 10
73.699997
 20
11.380385
 11
74
 21
11.9
  0
LINE
  8
0
  6
DASHED
 62
     7
 10
72.5
 20
9.8071795
 11
73.699997
 21
10.500001
  0
LINE
  8
0
  6
DASHED
 62
     7
 10
71.300003
 20
11.380385
 11
71
 21
11.900002
  0
LINE
  8
0
  6
DASHED
 62
     7
 10
72.5
 20
9.8071795
 11
71.300003
 21
10.499999
  0
LINE
  8
0
  6
CONTINUOUS
 62
     7
 10
56.650002
 20
15.3
 11
56.650002
 21
4
  0
LINE
  8
0
  6
CONTINUOUS
 62
     7
 10
56.049999
 20
15.3
 11
56.049999
 21
4
  0
LINE
  8
0
  6
CONTINUOUS
 62
     7
 10
55.650002
 20
15.3
 11
55.650002
 21
14.215005
  0
LINE
  8
0
  6
CONTINUOUS
 62
     7
 10
55.650002
 20
15.3
 11
63.25
 21
15.3
  0
LINE
  8
0
  6
CONTINUOUS
 62
     7
 10
54.75
 20
65.136261
 11
54.75
 21
61.863735
  0
LINE
  8
0
  6
CONTINUOUS
 62
     7
 10
54.75
 20
65.136261
 11
55.650002
 21
65.215004
  0
LINE
  8
0
  6
CONTINUOUS
 62
     7
 10
54.75
 20
61.863735
 11
55.650002
 21
61.784996
  0
LINE
  8
0
  6
CONTINUOUS
 62
     7
 10
55.650002
 20
10.784995
 11
55.650002
 21
4
  0
LINE
  8
0
  6
CONTINUOUS
 62
     7
 10
54.549999
 20
10.25
 11
54.900002
 21
10.25
  0
LINE
  8
0
  6
CONTINUOUS
 62
     7
 10
54.549999
 20
14.75
 11
55.650002
 21
14.75
  0
LINE
  8
0
  6
CONTINUOUS
 62
     7
 10
54.549999
 20
14.75
 11
54.549999
 21
10.25
  0
LINE
  8
0
  6
CONTINUOUS
 62
     7
 10
54.5
 20
9.8500013
 11
55.452293
 21
10.802294
  0
LINE
  8
0
  6
CONTINUOUS
 62
     7
 10
52.549999
 20
14.25
 11
54.549999
 21
14.25
  0
LINE
  8
0
  6
CONTINUOUS
 62
     7
 10
52.549999
 20
10.75
 11
54.549999
 21
10.75
  0
LINE
  8
0
  6
CONTINUOUS
 62
     7
 10
114.35
 20
15.3
 11
106.75
 21
15.3
  0
LINE
  8
0
  6
CONTINUOUS
 62
     7
 10
113.35
 20
15.3
 11
113.35
 21
4
  0
LINE
  8
0
  6
CONTINUOUS
 62
     7
 10
113.95
 20
15.3
 11
113.95
 21
4
  0
LINE
  8
0
  6
CONTINUOUS
 62
     7
 10
114.35
 20
15.3
 11
114.35
 21
14.215005
  0
LINE
  8
0
  6
CONTINUOUS
 62
     7
 10
115.25
 20
14.136264
 11
113.95
 21
14.249999
  0
LINE
  8
0
  6
CONTINUOUS
 62
     7
 10
115.25
 20
14.136265
 11
115.25
 21
10.863735
  0
LINE
  8
0
  6
CONTINUOUS
 62
     7
 10
115.25
 20
10.863735
 11
113.95
 21
10.75
  0
LINE
  8
0
  6
CONTINUOUS
 62
     7
 10
115.5
 20
9.8499975
 11
114.54771
 21
10.802293
  0
LINE
  8
0
  6
CONTINUOUS
 62
     7
 10
114.35
 20
10.784995
 11
114.35
 21
4
  0
LINE
  8
0
  6
CENTER
 62
     7
 10
29
 20
50
 11
141
 21
50
  0
LINE
  8
0
  6
CONTINUOUS
 62
     7
 10
30
 20
57.5
 11
30
 21
42.5
  0
LINE
  8
0
  6
CONTINUOUS
 62
     7
 10
140
 20
57.5
 11
140
 21
42.5
  0
LINE
  8
0
  6
CONTINUOUS
 62
     7
 10
30
 20
57.5
 11
54.5
 21
57.5
  0
LINE
  8
0
  6
CONTINUOUS
 62
     7
 10
30
 20
42.5
 11
54.5
 21
42.5
  0
LINE
  8
0
  6
CONTINUOUS
 62
     7
 10
30
 20
56.507
 11
54.5
 21
56.507
  0
LINE
  8
0
  6
CONTINUOUS
 62
     7
 10
30
 20
43.493
 11
54.5
 21
43.493
  0
LINE
  8
0
  6
CENTER
 62
     7
 10
125
 20
54.5
 11
125
 21
45.5
  0
LINE
  8
0
  6
CENTER
 62
     7
 10
45
 20
54.5
 11
45
 21
45.5
  0
LINE
  8
0
  6
CENTER
 62
     7
 10
85
 20
54.5
 11
85
 21
45.5
  0
LINE
  8
0
  6
CONTINUOUS
 62
     7
 10
63.25
 20
66
 11
106.75
 21
66
  0
LINE
  8
0
  6
CONTINUOUS
 62
     7
 10
63.25
 20
34
 11
106.75
 21
34
  0
LINE
  8
0
  6
CONTINUOUS
 62
     7
 10
63.25
 20
66
 11
63.25
 21
34
  0
LINE
  8
0
  6
CONTINUOUS
 62
     7
 10
106.75
 20
66
 11
106.75
 21
34
  0
LINE
  8
0
  6
CONTINUOUS
 62
     7
 10
115.5
 20
57.5
 11
140
 21
57.5
  0
LINE
  8
0
  6
CONTINUOUS
 62
     7
 10
115.5
 20
56.507
 11
140
 21
56.507
  0
LINE
  8
0
  6
CONTINUOUS
 62
     7
 10
115.5
 20
43.493
 11
140
 21
43.493
  0
LINE
  8
0
  6
CONTINUOUS
 62
     7
 10
63.25
 20
42.5
 11
106.75
 21
42.5
  0
LINE
  8
0
  6
CONTINUOUS
 62
     7
 10
63.25
 20
57.5
 11
106.75
 21
57.5
  0
LINE
  8
0
  6
CONTINUOUS
 62
     7
 10
56.650002
 20
65.800003
 11
56.650002
 21
34.200001
  0
LINE
  8
0
  6
CONTINUOUS
 62
     7
 10
56.049999
 20
65.5
 11
56.049999
 21
34.5
  0
LINE
  8
0
  6
CONTINUOUS
 62
     7
 10
55.650002
 20
65.5
 11
55.650002
 21
52.25
  0
LINE
  8
0
  6
CONTINUOUS
 62
     7
 10
54.500004
 20
57.850002
 11
55.650002
 21
59
  0
LINE
  8
0
  6
CONTINUOUS
 62
     7
 10
54.5
 20
42.150002
 11
55.650002
 21
41
  0
LINE
  8
0
  6
CONTINUOUS
 62
     7
 10
56.650002
 20
65.800003
 11
63.25
 21
65.800003
  0
LINE
  8
0
  6
CONTINUOUS
 62
     7
 10
56.650002
 20
34.200001
 11
63.25
 21
34.200001
  0
LINE
  8
0
  6
CONTINUOUS
 62
     7
 10
55.650002
 20
65.5
 11
56.650002
 21
65.5
  0
LINE
  8
0
  6
CONTINUOUS
 62
     7
 10
55.650002
 20
34.5
 11
56.650002
 21
34.5
  0
LINE
  8
0
  6
CONTINUOUS
 62
     7
 10
54.75
 20
10.863735
 11
56.049999
 21
10.75
  0
LINE
  8
0
  6
CONTINUOUS
 62
     7
 10
54.75
 20
14.136265
 11
54.75
 21
10.863735
  0
LINE
  8
0
  6
CONTINUOUS
 62
     7
 10
54.75
 20
14.136264
 11
56.049999
 21
14.25
  0
LINE
  8
0
  6
CONTINUOUS
 62
     7
 10
54.75
 20
34.863735
 11
55.650002
 21
34.784996
  0
LINE
  8
0
  6
CONTINUOUS
 62
     7
 10
54.75
 20
38.136265
 11
54.75
 21
34.863735
  0
LINE
  8
0
  6
CONTINUOUS
 62
     7
 10
54.75
 20
38.136265
 11
55.649998
 21
38.215004
  0
LINE
  8
0
  6
CONTINUOUS
 62
     7
 10
54.549999
 20
52.25
 11
56.049999
 21
52.25
  0
LINE
  8
0
  6
CONTINUOUS
 62
     7
 10
54.549999
 20
47.75
 11
56.049999
 21
47.75
  0
LINE
  8
0
  6
CONTINUOUS
 62
     7
 10
54.549999
 20
52.25
 11
54.549999
 21
47.75
  0
LINE
  8
0
  6
CONTINUOUS
 62
     7
 10
55.650002
 20
47.75
 11
55.650002
 21
34.5
  0
LINE
  8
0
  6
CONTINUOUS
 62
     7
 10
52.549999
 20
48.25
 11
54.549999
 21
48.25
  0
LINE
  8
0
  6
CONTINUOUS
 62
     7
 10
52.549999
 20
51.75
 11
54.549999
 21
51.75
  0
LINE
  8
0
  6
CONTINUOUS
 62
     7
 10
113.35
 20
65.800003
 11
106.75
 21
65.800003
  0
LINE
  8
0
  6
CONTINUOUS
 62
     7
 10
113.35
 20
65.800003
 11
113.35
 21
34.200001
  0
LINE
  8
0
  6
CONTINUOUS
 62
     7
 10
114.35
 20
65.5
 11
113.35
 21
65.5
  0
LINE
  8
0
  6
CONTINUOUS
 62
     7
 10
113.95
 20
65.5
 11
113.95
 21
34.5
  0
LINE
  8
0
  6
CONTINUOUS
 62
     7
 10
114.35
 20
65.5
 11
114.35
 21
34.5
  0
LINE
  8
0
  6
CONTINUOUS
 62
     7
 10
115.25
 20
65.136261
 11
114.35
 21
65.215004
  0
LINE
  8
0
  6
CONTINUOUS
 62
     7
 10
115.25
 20
65.136261
 11
115.25
 21
61.863735
  0
LINE
  8
0
  6
CONTINUOUS
 62
     7
 10
115.25
 20
61.863735
 11
114.35
 21
61.784996
  0
LINE
  8
0
  6
CONTINUOUS
 62
     7
 10
115.5
 20
57.849998
 11
114.35
 21
59
  0
LINE
  8
0
  6
CONTINUOUS
 62
     7
 10
115.5
 20
42.149998
 11
114.35
 21
41
  0
LINE
  8
0
  6
CONTINUOUS
 62
     7
 10
115.25
 20
38.136265
 11
114.35
 21
38.215004
  0
LINE
  8
0
  6
CONTINUOUS
 62
     7
 10
115.25
 20
38.136265
 11
115.25
 21
34.863735
  0
LINE
  8
0
  6
CONTINUOUS
 62
     7
 10
115.25
 20
34.863735
 11
114.35001
 21
34.784996
  0
LINE
  8
0
  6
CONTINUOUS
 62
     7
 10
114.35
 20
34.5
 11
113.35
 21
34.5
  0
LINE
  8
0
  6
CONTINUOUS
 62
     7
 10
113.35
 20
34.200001
 11
106.75
 21
34.200001
  0
LINE
  8
0
  6
CENTER
 62
     7
 10
72.5
 20
17.31708
 11
72.5
 21
8.8565083
  0
LINE
  8
0
  6
CENTER
 62
     7
 10
99.25
 20
62.5
 11
95.75
 21
62.5
  0
LINE
  8
0
  6
CENTER
 62
     7
 10
97.5
 20
64.25
 11
97.5
 21
60.75
  0
LINE
  8
0
  6
CENTER
 62
     7
 10
74.25
 20
62.5
 11
70.75
 21
62.5
  0
LINE
  8
0
  6
CENTER
 62
     7
 10
72.5
 20
64.25
 11
72.5
 21
60.75
  0
LINE
  8
0
  6
CENTER
 62
     7
 10
74.25
 20
37.5
 11
70.75
 21
37.5
  0
LINE
  8
0
  6
CENTER
 62
     7
 10
72.5
 20
39.25
 11
72.5
 21
35.75
  0
LINE
  8
0
  6
CENTER
 62
     7
 10
99.25
 20
37.5
 11
95.75
 21
37.5
  0
LINE
  8
0
  6
CENTER
 62
     7
 10
97.5
 20
39.25
 11
97.5
 21
35.75
  0
LINE
  8
0
  6
CONTINUOUS
 62
     7
 10
54.5
 20
9.8500023
 11
54.5
 21
4
  0
LINE
  8
0
  6
CONTINUOUS
 62
     7
 10
115.5
 20
9.8499994
 11
115.5
 21
4
  0
LINE
  8
0
  6
CONTINUOUS
 62
     7
 10
115.5
 20
57.849998
 11
115.5
 21
42.149998
  0
LINE
  8
0
  6
CONTINUOUS
 62
     7
 10
54.5
 20
48.25
 11
54.5
 21
42.150002
  0
LINE
  8
0
  6
CONTINUOUS
 62
     7
 10
115.5
 20
42.5
 11
140
 21
42.5
  0
LINE
  8
0
  6
CONTINUOUS
 62
     7
 10
54.5
 20
51.75
 11
54.5
 21
57.849998
  0
LINE
  8
0
  6
CENTER
 62
     7
 10
4.29
 20
12.5
 11
-4.29
 21
12.5
  0
LINE
  8
0
  6
CENTER
 62
     7
 10
56.84
 20
12.5
 11
49.884895
 21
12.5
  0
LINE
  8
0
  6
DASHED
 62
     7
 10
-13.699997
 20
10.5
 11
-11.300003
 21
10.5
  0
LINE
  8
0
  6
DASHED
 62
     7
 10
-14
 20
16
 11
-14
 21
11.9
  0
LINE
  8
0
  6
DASHED
 62
     7
 10
-11
 20
16
 11
-11
 21
11.9
  0
LINE
  8
0
  6
DASHED
 62
     7
 10
-13.699997
 20
16
 11
-13.699997
 21
10.5
  0
LINE
  8
0
  6
DASHED
 62
     7
 10
-11.300003
 20
16
 11
-11.300003
 21
10.5
  0
LINE
  8
0
  6
DASHED
 62
     7
 10
-14
 20
11.9
 11
-11
 21
11.9
  0
LINE
  8
0
  6
DASHED
 62
     7
 10
-13.699998
 20
11.380385
 11
-13.999998
 21
11.900001
  0
LINE
  8
0
  6
DASHED
 62
     7
 10
-12.5
 20
9.8071795
 11
-13.7
 21
10.5
  0
LINE
  8
0
  6
DASHED
 62
     7
 10
-12.500002
 20
9.8071804
 11
-11.3
 21
10.500002
  0
LINE
  8
0
  6
DASHED
 62
     7
 10
-11.299999
 20
11.380385
 11
-11
 21
11.9
  0
ARC
  8
0
  6
CONTINUOUS
 62
     7
 10
-7.0999999
 20
7
 40
1.59
 50
265.3908
 51
74.609196
  0
ARC
  8
0
  6
CONTINUOUS
 62
     7
 10
7.0999999
 20
7
 40
1.59
 50
105.3908
 51
274.6092
  0
CIRCLE
  8
0
  6
CONTINUOUS
 62
     7
 10
-13.5
 20
12.5
 40
1.75
  0
ARC
  8
0
  6
CONTINUOUS
 62
     7
 10
-13.5
 20
12.5
 40
1.9
 50
270
 51
90.000003
  0
ARC
  8
0
  6
CONTINUOUS
 62
     7
 10
13.5
 20
12.5
 40
1.9
 50
90.000003
 51
270
  0
CIRCLE
  8
0
  6
CONTINUOUS
 62
     7
 10
13.5
 20
12.5
 40
1.75
  0
CIRCLE
  8
0
  6
CONTINUOUS
 62
     7
 10
0
 20
12.5
 40
0.90149999
  0
CIRCLE
  8
0
  6
CONTINUOUS
 62
     7
 10
0
 20
12.5
 40
1.75
  0
CIRCLE
  8
0
  6
CONTINUOUS
 62
     7
 10
0
 20
12.5
 40
2.25
  0
ARC
  8
0
  6
CONTINUOUS
 62
     7
 10
0
 20
12.5
 40
2.4000001
 50
179.99999
 51
1.0017913E-005
  0
ARC
  8
0
  6
CONTINUOUS
 62
     7
 10
52.549999
 20
12.5
 40
1.75
 50
90.000003
 51
270
  0
CIRCLE
  8
0
  6
CONTINUOUS
 62
     7
 10
45
 20
50
 40
1.75
  0
CIRCLE
  8
0
  6
CONTINUOUS
 62
     7
 10
45
 20
50
 40
3
  0
CIRCLE
  8
0
  6
CONTINUOUS
 62
     7
 10
72.5
 20
37.5
 40
1.2
  0
CIRCLE
  8
0
  6
CONTINUOUS
 62
     7
 10
72.5
 20
37.5
 40
1.5
  0
ARC
  8
0
  6
CONTINUOUS
 62
     7
 10
52.549999
 20
50
 40
1.75
 50
90.000003
 51
270
  0
TEXT
  8
0
  6
CONTINUOUS
 62
     7
 10
-1.285875
 20
-16.8
 40
3.5999999
 41
0.84741102
  1
ＲＳＲ１５Ｎ
  0
ENDSEC
  0
EOF
