  0
SECTION
  2
HEADER
  0
ENDSEC
  0
SECTION
  2
TABLES
  0
TABLE
  2
LTYPE
 70
    22
  0
LTYPE
  2
CONTINUOUS
 70
    64
  3
Solid line
 72
    65
 73
     0
 40
0.000000
  0
LTYPE
  2
DASHED
 70
    64
  3
__ __ __ __ __ __ __ __ __ __ __ __ __ __ __
 72
    65
 73
     2
 40
3.500000
 49
2.000000
 49
-1.500000
  0
LTYPE
  2
CENTER
 70
    64
  3
____ _ ____ _ ____ _ ____ _ ____ _ ____ _ ____
 72
    65
 73
     4
 40
17.500000
 49
13.000000
 49
-1.500000
 49
1.500000
 49
-1.500000
  0
LTYPE
  2
PHANTOM
 70
    64
  3
_____ _ _ _____ _ _ _____ _ _ _____ _ _ ____  
 72
    65
 73
     6
 40
15.500000
 49
8.000000
 49
-1.500000
 49
1.500000
 49
-1.500000
 49
1.500000
 49
-1.500000
  0
LTYPE
  2
DOT
 70
    64
  3
. . . . . . . . . . . . . . . . . . . . . . . .
 72
    65
 73
     2
 40
0.25
 49
0.0
 49
-0.25
  0
ENDTAB
  0
TABLE
  2
LAYER
 70
     1
  0
LAYER
  2
0
 70
     0
 62
     7
  6
CONTINUOUS
  0
ENDTAB
  0
TABLE
  2
STYLE
 70
     1
  0
STYLE
  2
STANDARD
 70
     0
 40
0.000000
 41
1.000000
 50
0.000000
 71
     0
 42
0.200000
  3
txt
  0
ENDTAB
  0
TABLE
  2
VIEW
 70
     0
  0
ENDTAB
  0
ENDSEC
  0
SECTION
  2
BLOCKS
  0
ENDSEC
  0
SECTION
  2
ENTITIES
  0
LINE
  8
0
  6
CENTER
 62
     7
 10
159.0005493164063
 20
26.25299072265625
 11
159.0005493164063
 21
15.35797119140625
  0
LINE
  8
0
  6
CONTINUOUS
 62
     7
 10
50
 20
-0.0001220703125
 11
210
 21
-0.0001220703125
  0
LINE
  8
0
  6
DASHED
 62
     7
 10
67
 20
6.417282104492188
 11
67
 21
-0.0001220703125
  0
LINE
  8
0
  6
DASHED
 62
     7
 10
73
 20
6.499969482421875
 11
73
 21
-0.0001220703125
  0
LINE
  8
0
  6
DASHED
 62
     7
 10
65.25
 20
6.499969482421875
 11
74.75
 21
6.499969482421875
  0
LINE
  8
0
  6
DASHED
 62
     7
 10
65.25
 20
14.99974060058594
 11
65.25
 21
6.499969482421875
  0
LINE
  8
0
  6
DASHED
 62
     7
 10
74.75
 20
14.99974060058594
 11
74.75
 21
6.499969482421875
  0
LINE
  8
0
  6
CONTINUOUS
 62
     7
 10
50
 20
9.180007934570313
 11
96.75025939941406
 21
9.180007934570313
  0
LINE
  8
0
  6
CONTINUOUS
 62
     7
 10
50
 20
13.14939880371094
 11
96.75025939941406
 21
13.14939880371094
  0
LINE
  8
0
  6
CONTINUOUS
 62
     7
 10
50
 20
14.99974060058594
 11
96.75025939941406
 21
14.99974060058594
  0
LINE
  8
0
  6
CONTINUOUS
 62
     7
 10
50
 20
5.499557495117188
 11
210
 21
5.499557495117188
  0
LINE
  8
0
  6
CENTER
 62
     7
 10
70
 20
17.20890808105469
 11
70
 21
-1.963104248046875
  0
LINE
  8
0
  6
CONTINUOUS
 62
     7
 10
96.75025939941406
 20
7.499847412109375
 11
183.2498016357422
 21
7.499847412109375
  0
LINE
  8
0
  6
CONTINUOUS
 62
     7
 10
107.5001449584961
 20
19.29986572265625
 11
172.4998931884766
 21
19.29986572265625
  0
LINE
  8
0
  6
CONTINUOUS
 62
     7
 10
107.5001449584961
 20
24.99978637695313
 11
172.4998931884766
 21
24.99978637695313
  0
LINE
  8
0
  6
CONTINUOUS
 62
     7
 10
107.5001449584961
 20
24.99978637695313
 11
107.5001449584961
 21
7.499847412109375
  0
LINE
  8
0
  6
CONTINUOUS
 62
     7
 10
172.4998931884766
 20
24.99978637695313
 11
172.4998931884766
 21
7.499847412109375
  0
LINE
  8
0
  6
CONTINUOUS
 62
     7
 10
183.2498016357422
 20
14.99964904785156
 11
210
 21
14.99964904785156
  0
LINE
  8
0
  6
CONTINUOUS
 62
     7
 10
183.2498016357422
 20
13.1492919921875
 11
210
 21
13.1492919921875
  0
LINE
  8
0
  6
CONTINUOUS
 62
     7
 10
183.2498016357422
 20
9.179916381835938
 11
210
 21
9.179916381835938
  0
LINE
  8
0
  6
CONTINUOUS
 62
     7
 10
98.25025939941406
 20
24.29978942871094
 11
107.5001449584961
 21
24.29978942871094
  0
LINE
  8
0
  6
CONTINUOUS
 62
     7
 10
99.25025939941406
 20
24.29978942871094
 11
99.25025939941406
 21
7.499847412109375
  0
LINE
  8
0
  6
CONTINUOUS
 62
     7
 10
98.25025939941406
 20
24.29978942871094
 11
98.25025939941406
 21
7.499847412109375
  0
LINE
  8
0
  6
CONTINUOUS
 62
     7
 10
96.75025939941406
 20
15.49990844726563
 11
96.75025939941406
 21
7.499847412109375
  0
LINE
  8
0
  6
CONTINUOUS
 62
     7
 10
96.75114440917969
 20
15.49839115142822
 11
98.25112915039063
 21
16.99851226806641
  0
LINE
  8
0
  6
CONTINUOUS
 62
     7
 10
90.35014343261719
 20
22.3997802734375
 11
90.35014343261719
 21
17.59979248046875
  0
LINE
  8
0
  6
CONTINUOUS
 62
     7
 10
93.05010986328125
 20
23.29977416992188
 11
93.05010986328125
 21
16.69978332519531
  0
LINE
  8
0
  6
CONTINUOUS
 62
     7
 10
90.34980010986328
 20
22.39766120910645
 11
93.04970550537109
 21
23.2976188659668
  0
LINE
  8
0
  6
CONTINUOUS
 62
     7
 10
90.35202026367188
 20
17.59866523742676
 11
93.05194091796875
 21
16.69869613647461
  0
LINE
  8
0
  6
CONTINUOUS
 62
     7
 10
96.77040100097656
 20
24.03819274902344
 11
98.25025939941406
 21
24.03819274902344
  0
LINE
  8
0
  6
CONTINUOUS
 62
     7
 10
96.77044677734375
 20
15.95809936523438
 11
97.21080780029297
 21
15.95809936523438
  0
LINE
  8
0
  6
CONTINUOUS
 62
     7
 10
96.17042541503906
 20
22.01901245117188
 11
97.65155029296875
 21
22.01901245117188
  0
LINE
  8
0
  6
CONTINUOUS
 62
     7
 10
96.17042541503906
 20
17.97866821289063
 11
97.65451812744141
 21
17.97866821289063
  0
LINE
  8
0
  6
CONTINUOUS
 62
     7
 10
180.7498016357422
 20
7.499786376953125
 11
180.7498016357422
 21
24.29978942871094
  0
LINE
  8
0
  6
CONTINUOUS
 62
     7
 10
181.7498016357422
 20
7.499786376953125
 11
181.7498016357422
 21
24.29978942871094
  0
LINE
  8
0
  6
CONTINUOUS
 62
     7
 10
183.2498016357422
 20
7.499786376953125
 11
183.2498016357422
 21
15.49990844726563
  0
LINE
  8
0
  6
CONTINUOUS
 62
     7
 10
181.7498016357422
 20
24.29978942871094
 11
172.4998931884766
 21
24.29978942871094
  0
LINE
  8
0
  6
CONTINUOUS
 62
     7
 10
181.7507171630859
 20
16.99872779846191
 11
183.2506713867188
 21
15.49864959716797
  0
LINE
  8
0
  6
CENTER
 62
     7
 10
121.0007476806641
 20
26.25299072265625
 11
121.0007476806641
 21
15.35797119140625
  0
LINE
  8
0
  6
DASHED
 62
     7
 10
123.0007476806641
 20
24.99978637695313
 11
123.0007476806641
 21
18.999755859375
  0
LINE
  8
0
  6
DASHED
 62
     7
 10
119.0007476806641
 20
24.99978637695313
 11
119.0007476806641
 21
18.999755859375
  0
LINE
  8
0
  6
DASHED
 62
     7
 10
122.7004547119141
 20
24.99978637695313
 11
122.7004547119141
 21
17.499755859375
  0
LINE
  8
0
  6
DASHED
 62
     7
 10
119.3005523681641
 20
24.99978637695313
 11
119.3005523681641
 21
17.499755859375
  0
LINE
  8
0
  6
DASHED
 62
     7
 10
119.0007476806641
 20
18.999755859375
 11
123.0007476806641
 21
18.999755859375
  0
LINE
  8
0
  6
DASHED
 62
     7
 10
119.3005523681641
 20
17.499755859375
 11
122.7004547119141
 21
17.499755859375
  0
LINE
  8
0
  6
DASHED
 62
     7
 10
118.9994735717773
 20
18.99893379211426
 11
119.2995223999023
 21
18.47923278808594
  0
LINE
  8
0
  6
DASHED
 62
     7
 10
119.3007736206055
 20
17.49889945983887
 11
121.0009002685547
 21
16.51733016967773
  0
LINE
  8
0
  6
DASHED
 62
     7
 10
122.7001495361328
 20
17.49825096130371
 11
121.0000915527344
 21
16.51671981811523
  0
LINE
  8
0
  6
DASHED
 62
     7
 10
123.0007553100586
 20
18.99884796142578
 11
122.7007904052734
 21
18.47929382324219
  0
LINE
  8
0
  6
CONTINUOUS
 62
     7
 10
183.0496673583984
 20
19.24977111816406
 11
183.0496673583984
 21
20.74977111816406
  0
LINE
  8
0
  6
CONTINUOUS
 62
     7
 10
96.95069885253906
 20
51.74995422363281
 11
96.95069885253906
 21
50.24995422363281
  0
LINE
  8
0
  6
CENTER
 62
     7
 10
-19
 20
15.35820007324219
 11
-19
 21
26.25321960449219
  0
LINE
  8
0
  6
CENTER
 62
     7
 10
0
 20
27.08573913574219
 11
0
 21
-2.774627685546875
  0
LINE
  8
0
  6
DASHED
 62
     7
 10
-3
 20
6.41729736328125
 11
-3
 21
0
  0
LINE
  8
0
  6
DASHED
 62
     7
 10
3
 20
6.499984741210938
 11
3
 21
0
  0
LINE
  8
0
  6
DASHED
 62
     7
 10
-4.75
 20
6.499984741210938
 11
4.75
 21
6.499984741210938
  0
LINE
  8
0
  6
DASHED
 62
     7
 10
-4.75
 20
14.99998474121094
 11
-4.75
 21
6.499984741210938
  0
LINE
  8
0
  6
DASHED
 62
     7
 10
4.75
 20
14.99998474121094
 11
4.75
 21
6.499984741210938
  0
LINE
  8
0
  6
CONTINUOUS
 62
     7
 10
-10
 20
5.501154899597168
 11
-10
 21
0.9999847412109375
  0
LINE
  8
0
  6
CONTINUOUS
 62
     7
 10
-10.0000467300415
 20
0.9997053146362305
 11
-9.000151634216309
 21
-0.000186162898899056
  0
LINE
  8
0
  6
CONTINUOUS
 62
     7
 10
-8.32470703125
 20
14.99998474121094
 11
8.324951171875
 21
14.99998474121094
  0
LINE
  8
0
  6
CONTINUOUS
 62
     7
 10
-8.325105667114258
 20
14.99998760223389
 11
-8.65850830078125
 21
13.10915851593018
  0
LINE
  8
0
  6
CONTINUOUS
 62
     7
 10
10
 20
0.9999847412109375
 11
10
 21
5.499786376953125
  0
LINE
  8
0
  6
CONTINUOUS
 62
     7
 10
8.999780654907227
 20
-0.000152444772538729
 11
9.999675750732422
 21
0.9997389912605286
  0
LINE
  8
0
  6
CONTINUOUS
 62
     7
 10
8.658173561096191
 20
13.10906314849854
 11
8.324748992919922
 21
15.00001621246338
  0
LINE
  8
0
  6
CONTINUOUS
 62
     7
 10
9.999879837036133
 20
5.499845504760742
 11
9.343806266784668
 21
9.220633506774902
  0
LINE
  8
0
  6
CONTINUOUS
 62
     7
 10
-9.000338554382324
 20
0
 11
9.000244140625
 21
0
  0
LINE
  8
0
  6
CONTINUOUS
 62
     7
 10
-21.999755859375
 20
24.99998474121094
 11
-10.499755859375
 21
24.99998474121094
  0
LINE
  8
0
  6
CONTINUOUS
 62
     7
 10
-23
 20
23.99998474121094
 11
-23
 21
19.00033950805664
  0
LINE
  8
0
  6
CONTINUOUS
 62
     7
 10
-23.00003242492676
 20
23.99968910217285
 11
-21.99997329711914
 21
24.99969482421875
  0
LINE
  8
0
  6
CONTINUOUS
 62
     7
 10
-22.699951171875
 20
18.70019912719727
 11
-22.699951171875
 21
7.999984741210938
  0
LINE
  8
0
  6
CONTINUOUS
 62
     7
 10
-23.00015640258789
 20
19.00014114379883
 11
-22.70011901855469
 21
18.70010375976563
  0
LINE
  8
0
  6
CONTINUOUS
 62
     7
 10
-22.19970703125
 20
7.499984741210938
 11
-9.647552490234375
 21
7.499984741210938
  0
LINE
  8
0
  6
CONTINUOUS
 62
     7
 10
-22.69989585876465
 20
7.999692440032959
 11
-22.1999454498291
 21
7.499747753143311
  0
LINE
  8
0
  6
CONTINUOUS
 62
     7
 10
-10
 20
24.49998474121094
 11
10
 21
24.49998474121094
  0
LINE
  8
0
  6
CONTINUOUS
 62
     7
 10
-10.5001916885376
 20
24.99985694885254
 11
-10.00024509429932
 21
24.49991035461426
  0
LINE
  8
0
  6
CONTINUOUS
 62
     7
 10
3.5
 20
22.02114868164063
 11
3.5
 21
17.97895812988281
  0
LINE
  8
0
  6
CONTINUOUS
 62
     7
 10
-3.499755859375
 20
22.02114868164063
 11
-3.499755859375
 21
17.97850036621094
  0
LINE
  8
0
  6
CONTINUOUS
 62
     7
 10
3.49989914894104
 20
22.02107810974121
 11
-0.000148493840242736
 21
24.04182815551758
  0
LINE
  8
0
  6
CONTINUOUS
 62
     7
 10
-3.500301122665405
 20
22.02115821838379
 11
-0.0003056826826650649
 21
24.04187393188477
  0
LINE
  8
0
  6
CONTINUOUS
 62
     7
 10
-4.099853515625
 20
24.29997253417969
 11
-4.099853515625
 21
19.97691345214844
  0
LINE
  8
0
  6
CONTINUOUS
 62
     7
 10
4.10009765625
 20
24.29997253417969
 11
4.10009765625
 21
19.99998474121094
  0
LINE
  8
0
  6
CONTINUOUS
 62
     7
 10
-22.199951171875
 20
7.499984741210938
 11
-22.199951171875
 21
23.29969787597656
  0
LINE
  8
0
  6
CONTINUOUS
 62
     7
 10
-1.19970703125
 20
14.99995422363281
 11
1.200439453125
 21
14.99995422363281
  0
LINE
  8
0
  6
CONTINUOUS
 62
     7
 10
23.00001525878906
 20
19.00033950805664
 11
23.00001525878906
 21
23.99998474121094
  0
LINE
  8
0
  6
CONTINUOUS
 62
     7
 10
21.99968910217285
 20
24.99969863891602
 11
22.99978065490723
 21
23.99966049194336
  0
LINE
  8
0
  6
CONTINUOUS
 62
     7
 10
22.69972229003906
 20
7.999984741210938
 11
22.69972229003906
 21
18.70019912719727
  0
LINE
  8
0
  6
CONTINUOUS
 62
     7
 10
22.69965934753418
 20
18.70004653930664
 11
22.99969482421875
 21
19.00008392333984
  0
LINE
  8
0
  6
CONTINUOUS
 62
     7
 10
9.6474609375
 20
7.499984741210938
 11
22.19972229003906
 21
7.499984741210938
  0
LINE
  8
0
  6
CONTINUOUS
 62
     7
 10
22.19958686828613
 20
7.499870777130127
 11
22.69953536987305
 21
7.999814987182617
  0
LINE
  8
0
  6
CONTINUOUS
 62
     7
 10
10.499755859375
 20
24.99998474121094
 11
21.99977111816406
 21
24.99998474121094
  0
LINE
  8
0
  6
CONTINUOUS
 62
     7
 10
9.999649047851563
 20
24.49987983703613
 11
10.49959564208984
 21
24.99982643127441
  0
LINE
  8
0
  6
CONTINUOUS
 62
     7
 10
-21.19964599609375
 20
24.29997253417969
 11
21.19969177246094
 21
24.29997253417969
  0
LINE
  8
0
  6
CONTINUOUS
 62
     7
 10
22.19996643066406
 20
23.29997253417969
 11
22.19996643066406
 21
7.499984741210938
  0
LINE
  8
0
  6
CONTINUOUS
 62
     7
 10
22.19981193542481
 20
23.29986190795898
 11
21.19974708557129
 21
24.29992866516113
  0
LINE
  8
0
  6
CENTER
 62
     7
 10
19.00001525878906
 20
26.25321960449219
 11
19.00001525878906
 21
15.35820007324219
  0
LINE
  8
0
  6
CONTINUOUS
 62
     7
 10
-22.19976997375488
 20
23.29983711242676
 11
-21.19970703125
 21
24.29990386962891
  0
LINE
  8
0
  6
CONTINUOUS
 62
     7
 10
-10.0032958984375
 20
16.99998474121094
 11
-2.794647216796875
 21
16.99998474121094
  0
LINE
  8
0
  6
CONTINUOUS
 62
     7
 10
-10.00329685211182
 20
17.00004005432129
 11
-11.67840671539307
 21
7.499984264373779
  0
LINE
  8
0
  6
CONTINUOUS
 62
     7
 10
11.67805576324463
 20
7.499984264373779
 11
10.00293731689453
 21
17.00008392333984
  0
LINE
  8
0
  6
CONTINUOUS
 62
     7
 10
-3.500302314758301
 20
17.97882652282715
 11
-0.0003061640891246498
 21
15.95810985565186
  0
LINE
  8
0
  6
CONTINUOUS
 62
     7
 10
3.499944448471069
 20
17.97888946533203
 11
-0.0001032252112054266
 21
15.9581413269043
  0
LINE
  8
0
  6
CONTINUOUS
 62
     7
 10
2.79461669921875
 20
16.99998474121094
 11
10.00283813476563
 21
16.99998474121094
  0
LINE
  8
0
  6
CENTER
 62
     7
 10
48.08181762695313
 20
69.99998474121094
 11
211.9977569580078
 21
69.99998474121094
  0
LINE
  8
0
  6
CONTINUOUS
 62
     7
 10
107.5001449584961
 20
93.00001525878906
 11
107.5001449584961
 21
46.99993896484375
  0
LINE
  8
0
  6
CONTINUOUS
 62
     7
 10
172.4998931884766
 20
93.00001525878906
 11
172.4998931884766
 21
46.99993896484375
  0
LINE
  8
0
  6
CONTINUOUS
 62
     7
 10
107.5001449584961
 20
93.00001525878906
 11
172.4998931884766
 21
93.00001525878906
  0
LINE
  8
0
  6
CONTINUOUS
 62
     7
 10
107.5001449584961
 20
80.50018310546875
 11
172.4998931884766
 21
80.50018310546875
  0
LINE
  8
0
  6
CONTINUOUS
 62
     7
 10
107.5001449584961
 20
59.49977111816406
 11
172.4998931884766
 21
59.49977111816406
  0
LINE
  8
0
  6
CONTINUOUS
 62
     7
 10
107.5001449584961
 20
46.99993896484375
 11
172.4998931884766
 21
46.99993896484375
  0
LINE
  8
0
  6
CONTINUOUS
 62
     7
 10
99.25015258789063
 20
92.50022888183594
 11
99.25015258789063
 21
47.49974060058594
  0
LINE
  8
0
  6
CONTINUOUS
 62
     7
 10
99.25015258789063
 20
92.50022888183594
 11
107.5001449584961
 21
92.50022888183594
  0
LINE
  8
0
  6
CONTINUOUS
 62
     7
 10
99.25015258789063
 20
47.49974060058594
 11
107.5001449584961
 21
47.49974060058594
  0
LINE
  8
0
  6
CONTINUOUS
 62
     7
 10
96.75015258789063
 20
80.15525817871094
 11
96.75015258789063
 21
73.49946594238281
  0
LINE
  8
0
  6
CONTINUOUS
 62
     7
 10
98.25015258789063
 20
92.19976806640625
 11
98.25015258789063
 21
47.80020141601563
  0
LINE
  8
0
  6
CONTINUOUS
 62
     7
 10
98.25015258789063
 20
92.19976806640625
 11
99.25015258789063
 21
92.19976806640625
  0
LINE
  8
0
  6
CONTINUOUS
 62
     7
 10
98.25015258789063
 20
47.80020141601563
 11
99.25015258789063
 21
47.80020141601563
  0
LINE
  8
0
  6
CONTINUOUS
 62
     7
 10
96.75016021728516
 20
80.15525817871094
 11
98.25016021728516
 21
81.67839813232422
  0
LINE
  8
0
  6
CONTINUOUS
 62
     7
 10
96.75013732910156
 20
59.84471893310547
 11
98.25014495849609
 21
58.32157135009766
  0
LINE
  8
0
  6
CONTINUOUS
 62
     7
 10
96.95094299316406
 20
20.74977111816406
 11
96.95094299316406
 21
19.24977111816406
  0
LINE
  8
0
  6
CONTINUOUS
 62
     7
 10
96.95069885253906
 20
88.25001525878906
 11
96.95069885253906
 21
89.75001525878906
  0
LINE
  8
0
  6
CONTINUOUS
 62
     7
 10
50
 20
79.99998474121094
 11
96.75015258789063
 21
79.99998474121094
  0
LINE
  8
0
  6
CONTINUOUS
 62
     7
 10
50
 20
78.32508850097656
 11
96.75015258789063
 21
78.32508850097656
  0
LINE
  8
0
  6
CONTINUOUS
 62
     7
 10
50
 20
61.67486572265625
 11
96.75015258789063
 21
61.67486572265625
  0
LINE
  8
0
  6
CONTINUOUS
 62
     7
 10
50
 20
59.99998474121094
 11
96.75015258789063
 21
59.99998474121094
  0
LINE
  8
0
  6
CONTINUOUS
 62
     7
 10
183.0496215820313
 20
51.74995422363281
 11
183.0496215820313
 21
50.24995422363281
  0
LINE
  8
0
  6
CONTINUOUS
 62
     7
 10
180.7501525878906
 20
92.50022888183594
 11
180.7501525878906
 21
47.49974060058594
  0
LINE
  8
0
  6
CONTINUOUS
 62
     7
 10
180.7501525878906
 20
92.50022888183594
 11
172.5001525878906
 21
92.50022888183594
  0
LINE
  8
0
  6
CONTINUOUS
 62
     7
 10
180.7501525878906
 20
47.49974060058594
 11
172.5001525878906
 21
47.49974060058594
  0
LINE
  8
0
  6
CONTINUOUS
 62
     7
 10
183.2501525878906
 20
80.15525817871094
 11
183.2501525878906
 21
59.84471130371094
  0
LINE
  8
0
  6
CONTINUOUS
 62
     7
 10
181.7501525878906
 20
92.19976806640625
 11
181.7501525878906
 21
47.80020141601563
  0
LINE
  8
0
  6
CONTINUOUS
 62
     7
 10
181.7501525878906
 20
92.19976806640625
 11
180.7501525878906
 21
92.19976806640625
  0
LINE
  8
0
  6
CONTINUOUS
 62
     7
 10
181.7501525878906
 20
47.80020141601563
 11
180.7501525878906
 21
47.80020141601563
  0
LINE
  8
0
  6
CONTINUOUS
 62
     7
 10
183.2501525878906
 20
80.15526580810547
 11
181.7501525878906
 21
81.67840576171875
  0
LINE
  8
0
  6
CONTINUOUS
 62
     7
 10
183.2501525878906
 20
59.84471893310547
 11
181.7501525878906
 21
58.32158279418945
  0
LINE
  8
0
  6
CONTINUOUS
 62
     7
 10
183.0496215820313
 20
88.25001525878906
 11
183.0496215820313
 21
89.75001525878906
  0
LINE
  8
0
  6
CONTINUOUS
 62
     7
 10
210
 20
79.99998474121094
 11
183.2501525878906
 21
79.99998474121094
  0
LINE
  8
0
  6
CONTINUOUS
 62
     7
 10
210
 20
78.32508850097656
 11
183.2501525878906
 21
78.32508850097656
  0
LINE
  8
0
  6
CONTINUOUS
 62
     7
 10
210
 20
61.67486572265625
 11
183.2501525878906
 21
61.67486572265625
  0
LINE
  8
0
  6
CONTINUOUS
 62
     7
 10
210
 20
59.99998474121094
 11
183.2501525878906
 21
59.99998474121094
  0
LINE
  8
0
  6
CENTER
 62
     7
 10
190
 20
74.99998474121094
 11
190
 21
64.99998474121094
  0
LINE
  8
0
  6
CENTER
 62
     7
 10
70
 20
74.99998474121094
 11
70
 21
64.99998474121094
  0
LINE
  8
0
  6
CENTER
 62
     7
 10
130
 20
74.99998474121094
 11
130
 21
64.99998474121094
  0
LINE
  8
0
  6
CENTER
 62
     7
 10
123.5007476806641
 20
88.99998474121094
 11
118.5007476806641
 21
88.99998474121094
  0
LINE
  8
0
  6
CENTER
 62
     7
 10
121.0007476806641
 20
91.49998474121094
 11
121.0007476806641
 21
86.49998474121094
  0
LINE
  8
0
  6
CENTER
 62
     7
 10
161.5005493164063
 20
88.99998474121094
 11
156.5005493164063
 21
88.99998474121094
  0
LINE
  8
0
  6
CENTER
 62
     7
 10
159.0005493164063
 20
91.49998474121094
 11
159.0005493164063
 21
86.49998474121094
  0
LINE
  8
0
  6
CENTER
 62
     7
 10
161.5005493164063
 20
50.99996948242188
 11
156.5005493164063
 21
50.99996948242188
  0
LINE
  8
0
  6
CENTER
 62
     7
 10
159.0005493164063
 20
53.49996948242188
 11
159.0005493164063
 21
48.49996948242188
  0
LINE
  8
0
  6
CENTER
 62
     7
 10
123.5007476806641
 20
50.99996948242188
 11
118.5007476806641
 21
50.99996948242188
  0
LINE
  8
0
  6
CENTER
 62
     7
 10
121.0007476806641
 20
53.49996948242188
 11
121.0007476806641
 21
48.49996948242188
  0
LINE
  8
0
  6
CONTINUOUS
 62
     7
 10
90.35014343261719
 20
72.39997863769531
 11
90.35014343261719
 21
67.59999084472656
  0
LINE
  8
0
  6
CONTINUOUS
 62
     7
 10
93.05015563964844
 20
73.29997253417969
 11
93.05015563964844
 21
66.69999694824219
  0
LINE
  8
0
  6
CONTINUOUS
 62
     7
 10
90.35017395019531
 20
72.39999389648438
 11
93.05017852783203
 21
73.29998779296875
  0
LINE
  8
0
  6
CONTINUOUS
 62
     7
 10
90.35015106201172
 20
67.59998321533203
 11
93.0501708984375
 21
66.69998168945313
  0
LINE
  8
0
  6
CONTINUOUS
 62
     7
 10
96.10794067382813
 20
73.49946594238281
 11
98.25015258789063
 21
73.49946594238281
  0
LINE
  8
0
  6
CONTINUOUS
 62
     7
 10
96.10940551757813
 20
66.49946594238281
 11
98.25015258789063
 21
66.49946594238281
  0
LINE
  8
0
  6
CONTINUOUS
 62
     7
 10
-9.34415340423584
 20
9.220659255981445
 11
-10
 21
5.501154899597168
  0
LINE
  8
0
  6
CONTINUOUS
 62
     7
 10
-20.06065368652344
 20
18.93932342529297
 11
-17.93933486938477
 21
21.06064224243164
  0
LINE
  8
0
  6
CONTINUOUS
 62
     7
 10
-20.06065368652344
 20
21.06064224243164
 11
-17.93933486938477
 21
18.93932342529297
  0
LINE
  8
0
  6
CONTINUOUS
 62
     7
 10
50
 20
14.99974060058594
 11
50
 21
-0.0001220703125
  0
LINE
  8
0
  6
CONTINUOUS
 62
     7
 10
50
 20
79.99998474121094
 11
50
 21
59.99998474121094
  0
LINE
  8
0
  6
CONTINUOUS
 62
     7
 10
210
 20
14.99964904785156
 11
210
 21
-0.0001220703125
  0
LINE
  8
0
  6
CONTINUOUS
 62
     7
 10
210
 20
79.99998474121094
 11
210
 21
59.99998474121094
  0
LINE
  8
0
  6
CENTER
 62
     7
 10
130
 20
10.47679805755615
 11
130
 21
-1.963104248046875
  0
LINE
  8
0
  6
CENTER
 62
     7
 10
190
 20
17.20890808105469
 11
190
 21
-1.963104248046875
  0
LINE
  8
0
  6
CONTINUOUS
 62
     7
 10
96.17042541503906
 20
23.5440673828125
 11
96.17042541503906
 21
16.45550537109375
  0
LINE
  8
0
  6
CONTINUOUS
 62
     7
 10
96.75015258789063
 20
66.49946594238281
 11
96.75015258789063
 21
59.84471130371094
  0
LINE
  8
0
  6
CONTINUOUS
 62
     7
 10
96.17047119140625
 20
73.54427337646484
 11
96.17047119140625
 21
66.45571136474609
  0
LINE
  8
0
  6
CONTINUOUS
 62
     7
 10
96.17047119140625
 20
69.99998474121094
 11
98.25015258789063
 21
69.99998474121094
  0
LINE
  8
0
  6
DASHED
 62
     7
 10
-17
 20
24.99998474121094
 11
-17
 21
18.99995422363281
  0
LINE
  8
0
  6
DASHED
 62
     7
 10
-21
 20
24.99998474121094
 11
-21
 21
18.99995422363281
  0
LINE
  8
0
  6
DASHED
 62
     7
 10
-17.30029296875
 20
24.99998474121094
 11
-17.30029296875
 21
17.49995422363281
  0
LINE
  8
0
  6
DASHED
 62
     7
 10
-20.7001953125
 20
24.99998474121094
 11
-20.7001953125
 21
17.49995422363281
  0
LINE
  8
0
  6
DASHED
 62
     7
 10
-21
 20
18.99995422363281
 11
-17
 21
18.99995422363281
  0
LINE
  8
0
  6
DASHED
 62
     7
 10
-20.7001953125
 20
17.49995422363281
 11
-17.30029296875
 21
17.49995422363281
  0
LINE
  8
0
  6
DASHED
 62
     7
 10
-21.00127029418945
 20
18.9991340637207
 11
-20.70122528076172
 21
18.47943115234375
  0
LINE
  8
0
  6
DASHED
 62
     7
 10
-20.69997596740723
 20
17.49909782409668
 11
-18.99985122680664
 21
16.51752853393555
  0
LINE
  8
0
  6
DASHED
 62
     7
 10
-17.30059814453125
 20
17.49844932556152
 11
-19.00065612792969
 21
16.51692008972168
  0
LINE
  8
0
  6
DASHED
 62
     7
 10
-16.9999942779541
 20
18.99904632568359
 11
-17.29995918273926
 21
18.4794921875
  0
LINE
  8
0
  6
CENTER
 62
     7
 10
-4.499998092651367
 20
20.00045776367188
 11
4.499998092651367
 21
20.00045776367188
  0
LINE
  8
0
  6
DASHED
 62
     7
 10
88.85053253173828
 20
19.99884033203125
 11
100.2760009765625
 21
19.99884033203125
  0
ARC
  8
0
  6
CONTINUOUS
 62
     7
 10
94.84234619140625
 20
16.31222534179688
 40
0.7999998331069985
 50
65.06700482618233
 51
115.9201674235154
  0
ARC
  8
0
  6
CONTINUOUS
 62
     7
 10
94.84234619140625
 20
23.68736267089844
 40
0.7999998331069931
 50
244.0798325764847
 51
294.9330498153306
  0
ARC
  8
0
  6
CONTINUOUS
 62
     7
 10
93.05010986328125
 20
19.99980163574219
 40
3.299997329711913
 50
270.0000179860895
 51
295.9196023390472
  0
ARC
  8
0
  6
CONTINUOUS
 62
     7
 10
92.64996337890625
 20
28.40269470214844
 40
5.99999809265137
 50
294.9336508719776
 51
313.3717431213324
  0
ARC
  8
0
  6
CONTINUOUS
 62
     7
 10
92.64996337890625
 20
11.59687805175781
 40
5.999998092651365
 50
46.62781974656073
 51
65.06634912802241
  0
ARC
  8
0
  6
CONTINUOUS
 62
     7
 10
181.5496826171875
 20
19.24977111816406
 40
1.499999046325683
 50
277.6668780086724
 51
0
  0
ARC
  8
0
  6
CONTINUOUS
 62
     7
 10
93.05010986328125
 20
19.99980163574219
 40
3.299997329711916
 50
64.08039766095276
 51
89.99998201391058
  0
ARC
  8
0
  6
CONTINUOUS
 62
     7
 10
181.5496826171875
 20
20.74977111816406
 40
1.499999046325684
 50
0
 51
82.33312199132769
  0
ARC
  8
0
  6
CONTINUOUS
 62
     7
 10
98.45069885253906
 20
51.74995422363281
 40
1.499999046325687
 50
97.66684203649324
 51
179.9999640278213
  0
ARC
  8
0
  6
CONTINUOUS
 62
     7
 10
98.45069885253906
 20
50.24995422363281
 40
1.499999046325681
 50
180.0000359721787
 51
262.3331579635068
  0
CIRCLE
  8
0
  6
CONTINUOUS
 62
     7
 10
-19
 20
19.99998474121094
 40
2.249998092651367
  0
ARC
  8
0
  6
CONTINUOUS
 62
     7
 10
0
 20
20.00045776367188
 40
3.499998092651367
 50
327.3566305790144
 51
327.2462749852234
  0
ARC
  8
0
  6
CONTINUOUS
 62
     7
 10
0
 20
19.99998474121094
 40
4.099998474121094
 50
179.6777430235368
 51
332.4188045644308
  0
ARC
  8
0
  6
CONTINUOUS
 62
     7
 10
0
 20
19.99998474121094
 40
4.099998474121094
 50
332.5898907852269
 51
359.9999826971572
  0
CIRCLE
  8
0
  6
CONTINUOUS
 62
     7
 10
19.00001525878906
 20
19.99998474121094
 40
2.399997711181641
  0
ARC
  8
0
  6
CONTINUOUS
 62
     7
 10
98.45094299316406
 20
19.24977111816406
 40
1.499999046325681
 50
180.0000359721787
 51
262.3331579635068
  0
ARC
  8
0
  6
CONTINUOUS
 62
     7
 10
98.45094299316406
 20
20.74977111816406
 40
1.499999046325683
 50
97.66684203649324
 51
179.9999640278213
  0
ARC
  8
0
  6
CONTINUOUS
 62
     7
 10
98.45069885253906
 20
88.25001525878906
 40
1.499999046325681
 50
180.0000359721787
 51
262.3331579635068
  0
ARC
  8
0
  6
CONTINUOUS
 62
     7
 10
98.45069885253906
 20
89.75001525878906
 40
1.499999046325687
 50
97.66684203649324
 51
179.9999640278213
  0
ARC
  8
0
  6
CONTINUOUS
 62
     7
 10
181.5496215820313
 20
89.75001525878906
 40
1.499999046325695
 50
3.597217814716025E-005
 51
82.33312199132769
  0
ARC
  8
0
  6
CONTINUOUS
 62
     7
 10
181.5496215820313
 20
51.74995422363281
 40
1.499999046325695
 50
3.597217814716025E-005
 51
82.33312199132769
  0
ARC
  8
0
  6
CONTINUOUS
 62
     7
 10
181.5496215820313
 20
50.24995422363281
 40
1.499999046325683
 50
277.6668780086724
 51
359.9999640278219
  0
ARC
  8
0
  6
CONTINUOUS
 62
     7
 10
181.5496215820313
 20
88.25001525878906
 40
1.499999046325683
 50
277.6668780086724
 51
359.9999640278219
  0
CIRCLE
  8
0
  6
CONTINUOUS
 62
     7
 10
121.0007476806641
 20
50.99996948242188
 40
2
  0
CIRCLE
  8
0
  6
CONTINUOUS
 62
     7
 10
121.0007476806641
 20
50.99996948242188
 40
1.619999885559082
  0
CIRCLE
  8
0
  6
CONTINUOUS
 62
     7
 10
190
 20
69.99998474121094
 40
4.75
  0
CIRCLE
  8
0
  6
CONTINUOUS
 62
     7
 10
190
 20
69.99998474121094
 40
3
  0
CIRCLE
  8
0
  6
CONTINUOUS
 62
     7
 10
70
 20
69.99998474121094
 40
3
  0
CIRCLE
  8
0
  6
CONTINUOUS
 62
     7
 10
70
 20
69.99998474121094
 40
4.75
  0
ARC
  8
0
  6
CONTINUOUS
 62
     7
 10
93.05015563964844
 20
69.99998474121094
 40
3.299999237060546
 50
64.08039766095278
 51
89.9999820139106
  0
ARC
  8
0
  6
CONTINUOUS
 62
     7
 10
93.05015563964844
 20
69.99998474121094
 40
3.299999237060553
 50
270.0000179860894
 51
295.9196023390472
  0
ARC
  8
0
  6
CONTINUOUS
 62
     7
 10
92.650146484375
 20
78.40289306640625
 40
6.000000000000001
 50
294.9336508719775
 51
305.1907610995445
  0
ARC
  8
0
  6
CONTINUOUS
 62
     7
 10
92.650146484375
 20
61.59707641601563
 40
6.000000000000008
 50
54.79198925770655
 51
65.091320299628
  0
ARC
  8
0
  6
CONTINUOUS
 62
     7
 10
94.84230041503906
 20
73.68756103515625
 40
0.7999999523162883
 50
244.0798325764847
 51
294.9330498153308
  0
ARC
  8
0
  6
CONTINUOUS
 62
     7
 10
94.84230041503906
 20
66.31242370605469
 40
0.7999999523162786
 50
65.06700482618263
 51
115.9201674235154
  0
ARC
  8
0
  6
CONTINUOUS
 62
     7
 10
-9.199782371520996
 20
11.19990158081055
 40
1.98449993133545
 50
265.8280837995322
 51
74.17197483888991
  0
ARC
  8
0
  6
CONTINUOUS
 62
     7
 10
9.199782371520996
 20
11.19990158081055
 40
1.98449993133545
 50
105.8279891889314
 51
274.1618808313442
  0
CIRCLE
  8
0
  6
CONTINUOUS
 62
     7
 10
0
 20
20.00045776367188
 40
3.299999952316284
  0
CIRCLE
  8
0
  6
CONTINUOUS
 62
     7
 10
0
 20
20.00045776367188
 40
2.400000095367432
  0
TEXT
  8
0
  6
CONTINUOUS
 62
     7
 10
-1.599999904632568
 20
-16.79999971389771
 40
3.59999942779541
 41
1.039215701857426
  1
RSR20N
  0
ENDSEC
  0
EOF
