  0
SECTION
  2
HEADER
  0
ENDSEC
  0
SECTION
  2
TABLES
  0
TABLE
  2
LTYPE
 70
    22
  0
LTYPE
  2
CONTINUOUS
 70
    64
  3
Solid line
 72
    65
 73
     0
 40
0.000000
  0
LTYPE
  2
DASHED
 70
    64
  3
__ __ __ __ __ __ __ __ __ __ __ __ __ __ __
 72
    65
 73
     2
 40
3.500000
 49
2.000000
 49
-1.500000
  0
LTYPE
  2
CENTER
 70
    64
  3
____ _ ____ _ ____ _ ____ _ ____ _ ____ _ ____
 72
    65
 73
     4
 40
17.500000
 49
13.000000
 49
-1.500000
 49
1.500000
 49
-1.500000
  0
LTYPE
  2
PHANTOM
 70
    64
  3
_____ _ _ _____ _ _ _____ _ _ _____ _ _ ____  
 72
    65
 73
     6
 40
15.500000
 49
8.000000
 49
-1.500000
 49
1.500000
 49
-1.500000
 49
1.500000
 49
-1.500000
  0
LTYPE
  2
DOT
 70
    64
  3
. . . . . . . . . . . . . . . . . . . . . . . .
 72
    65
 73
     2
 40
0.25
 49
0.0
 49
-0.25
  0
ENDTAB
  0
TABLE
  2
LAYER
 70
     1
  0
LAYER
  2
0
 70
     0
 62
     7
  6
CONTINUOUS
  0
ENDTAB
  0
TABLE
  2
STYLE
 70
     1
  0
STYLE
  2
STANDARD
 70
     0
 40
0.000000
 41
1.000000
 50
0.000000
 71
     0
 42
0.200000
  3
txt
  0
ENDTAB
  0
TABLE
  2
VIEW
 70
     0
  0
ENDTAB
  0
ENDSEC
  0
SECTION
  2
BLOCKS
  0
ENDSEC
  0
SECTION
  2
ENTITIES
  0
LINE
  8
0
  6
CENTER
 62
     7
 10
47.564423
 20
7.0406189
 11
47.564423
 21
3.1271362
  0
LINE
  8
0
  6
DASHED
 62
     7
 10
46.564423
 20
6
 11
46.564423
 21
4.5
  0
LINE
  8
0
  6
DASHED
 62
     7
 10
48.564423
 20
6
 11
48.564423
 21
4.5
  0
LINE
  8
0
  6
DASHED
 62
     7
 10
46.564423
 20
4.5
 11
48.564423
 21
4.5
  0
LINE
  8
0
  6
DASHED
 62
     7
 10
46.764435
 20
4
 11
48.364426
 21
4
  0
LINE
  8
0
  6
DASHED
 62
     7
 10
46.764435
 20
6
 11
46.764435
 21
4
  0
LINE
  8
0
  6
DASHED
 62
     7
 10
48.364426
 20
6
 11
48.364426
 21
4
  0
LINE
  8
0
  6
DASHED
 62
     7
 10
46.764431
 20
4.0000024
 11
47.564423
 21
3.5381262
  0
LINE
  8
0
  6
DASHED
 62
     7
 10
46.564426
 20
4.5000005
 11
46.764423
 21
4.1535954
  0
LINE
  8
0
  6
DASHED
 62
     7
 10
48.564423
 20
4.5000052
 11
48.364426
 21
4.1535969
  0
LINE
  8
0
  6
DASHED
 62
     7
 10
48.364426
 20
4.0000048
 11
47.564426
 21
3.5381248
  0
LINE
  8
0
  6
CENTER
 62
     7
 10
4
 20
6.5406189
 11
4
 21
2.6271362
  0
LINE
  8
0
  6
CONTINUOUS
 62
     7
 10
-5.3999977
 20
5.9000092
 11
5.4000092
 21
5.9000092
  0
LINE
  8
0
  6
CONTINUOUS
 62
     7
 10
5.9000092
 20
5.4000092
 11
5.9000092
 21
2.1000061
  0
LINE
  8
0
  6
CONTINUOUS
 62
     7
 10
2.5
 20
1.6000061
 11
5.4000092
 21
1.6000061
  0
LINE
  8
0
  6
CONTINUOUS
 62
     7
 10
5.7000165
 20
5.9999986
 11
6.00001
 21
5.7000046
  0
LINE
  8
0
  6
CONTINUOUS
 62
     7
 10
6
 20
5.7000122
 11
6
 21
1.8000031
  0
LINE
  8
0
  6
CONTINUOUS
 62
     7
 10
5.7000146
 20
1.4999946
 11
6.0000191
 21
1.7999992
  0
LINE
  8
0
  6
CONTINUOUS
 62
     7
 10
5.7000122
 20
1.5
 11
3
 21
1.5
  0
LINE
  8
0
  6
CONTINUOUS
 62
     7
 10
3.0000174
 20
1.4999937
 11
2.8999979
 21
1.6000133
  0
LINE
  8
0
  6
CONTINUOUS
 62
     7
 10
5.4000173
 20
5.8999953
 11
5.9000068
 21
5.4000053
  0
LINE
  8
0
  6
CONTINUOUS
 62
     7
 10
5.3999991
 20
1.6000141
 11
5.8999996
 21
2.1000147
  0
LINE
  8
0
  6
CONTINUOUS
 62
     7
 10
2.9000092
 20
3.8000031
 11
2.9000092
 21
1.6000061
  0
LINE
  8
0
  6
CONTINUOUS
 62
     7
 10
0
 20
4.4000092
 11
2.3000183
 21
4.4000092
  0
LINE
  8
0
  6
CONTINUOUS
 62
     7
 10
27.564423
 20
2.1955109
 11
39.114426
 21
2.1955109
  0
LINE
  8
0
  6
CONTINUOUS
 62
     7
 10
27.564423
 20
3.2044983
 11
39.114426
 21
3.2044983
  0
LINE
  8
0
  6
CONTINUOUS
 62
     7
 10
43.164429
 20
1.5
 11
51.964417
 21
1.5
  0
LINE
  8
0
  6
CONTINUOUS
 62
     7
 10
43.164429
 20
6
 11
51.964417
 21
6
  0
LINE
  8
0
  6
CONTINUOUS
 62
     7
 10
56.01442
 20
4
 11
67.564423
 21
4
  0
LINE
  8
0
  6
CONTINUOUS
 62
     7
 10
56.01442
 20
3.2044983
 11
67.564423
 21
3.2044983
  0
LINE
  8
0
  6
CONTINUOUS
 62
     7
 10
56.01442
 20
2.1955109
 11
67.564423
 21
2.1955109
  0
LINE
  8
0
  6
CONTINUOUS
 62
     7
 10
43.164429
 20
6
 11
43.164429
 21
1.5
  0
LINE
  8
0
  6
CONTINUOUS
 62
     7
 10
51.964417
 20
6
 11
51.964417
 21
1.5
  0
LINE
  8
0
  6
CONTINUOUS
 62
     7
 10
39.614426
 20
5.9000092
 11
43.164429
 21
5.9000092
  0
LINE
  8
0
  6
CONTINUOUS
 62
     7
 10
39.114426
 20
1.6000061
 11
43.164429
 21
1.6000061
  0
LINE
  8
0
  6
CONTINUOUS
 62
     7
 10
51.964417
 20
5.9000092
 11
55.51442
 21
5.9000092
  0
LINE
  8
0
  6
CONTINUOUS
 62
     7
 10
51.964417
 20
1.6000061
 11
56.01442
 21
1.6000061
  0
LINE
  8
0
  6
CENTER
 62
     7
 10
0
 20
6.5024261
 11
0
 21
-0.72442627
  0
LINE
  8
0
  6
CONTINUOUS
 62
     7
 10
5.2000122
 20
5.9000092
 11
5.2000122
 21
4.7000122
  0
LINE
  8
0
  6
CONTINUOUS
 62
     7
 10
39.614426
 20
5.9000092
 11
39.614426
 21
1.6000061
  0
LINE
  8
0
  6
CONTINUOUS
 62
     7
 10
39.114426
 20
4.4000092
 11
39.114426
 21
1.6000061
  0
LINE
  8
0
  6
CONTINUOUS
 62
     7
 10
39.114426
 20
4.4000092
 11
39.482483
 21
4.4000092
  0
LINE
  8
0
  6
CONTINUOUS
 62
     7
 10
56.01442
 20
4.4000092
 11
55.646362
 21
4.4000092
  0
LINE
  8
0
  6
CONTINUOUS
 62
     7
 10
55.51442
 20
5.9000092
 11
55.51442
 21
1.6000061
  0
LINE
  8
0
  6
CONTINUOUS
 62
     7
 10
54.51442
 20
5.9000092
 11
54.51442
 21
1.6000061
  0
LINE
  8
0
  6
CONTINUOUS
 62
     7
 10
56.01442
 20
4.4000092
 11
56.01442
 21
1.6000061
  0
LINE
  8
0
  6
CONTINUOUS
 62
     7
 10
27.564423
 20
0
 11
67.564423
 21
0
  0
LINE
  8
0
  6
CONTINUOUS
 62
     7
 10
27.564423
 20
4
 11
39.114426
 21
4
  0
LINE
  8
0
  6
DASHED
 62
     7
 10
34.314423
 20
3.9966888
 11
34.314423
 21
3
  0
LINE
  8
0
  6
DASHED
 62
     7
 10
33.764435
 20
2.9966888
 11
33.764435
 21
-0.0033111572
  0
LINE
  8
0
  6
DASHED
 62
     7
 10
31.364426
 20
2.9966888
 11
31.364426
 21
-0.0033111572
  0
LINE
  8
0
  6
DASHED
 62
     7
 10
30.814423
 20
3.9966888
 11
30.814423
 21
3
  0
LINE
  8
0
  6
CONTINUOUS
 62
     7
 10
-2.500001
 20
0.100012
 11
-2.400003
 21
1.4060189E-005
  0
LINE
  8
0
  6
CONTINUOUS
 62
     7
 10
-2.3999939
 20
0
 11
2.4000092
 21
0
  0
LINE
  8
0
  6
CONTINUOUS
 62
     7
 10
2.5000114
 20
0.10000627
 11
2.4000082
 21
2.9334203E-006
  0
LINE
  8
0
  6
CONTINUOUS
 62
     7
 10
2.5
 20
2.1955109
 11
2.5
 21
0.1000061
  0
LINE
  8
0
  6
CONTINUOUS
 62
     7
 10
2.5
 20
3.9000092
 11
2.5
 21
3.2044983
  0
LINE
  8
0
  6
CONTINUOUS
 62
     7
 10
2.4000084
 20
4.0000076
 11
2.5000064
 21
3.9000094
  0
LINE
  8
0
  6
CONTINUOUS
 62
     7
 10
-2.3999939
 20
4
 11
2.4000092
 21
4
  0
LINE
  8
0
  6
DASHED
 62
     7
 10
1.75
 20
4
 11
1.75
 21
3
  0
LINE
  8
0
  6
DASHED
 62
     7
 10
-1.75
 20
3
 11
0
 21
3
  0
LINE
  8
0
  6
DASHED
 62
     7
 10
1.2000122
 20
3
 11
1.2000122
 21
0
  0
LINE
  8
0
  6
DASHED
 62
     7
 10
-1.1999817
 20
3
 11
-1.1999817
 21
0
  0
LINE
  8
0
  6
DASHED
 62
     7
 10
-1.75
 20
4
 11
-1.75
 21
3
  0
LINE
  8
0
  6
CONTINUOUS
 62
     7
 10
-2.4999886
 20
3.8999989
 11
-2.3999851
 21
4.0000024
  0
LINE
  8
0
  6
CONTINUOUS
 62
     7
 10
-2.5
 20
3.9000092
 11
-2.5
 21
3.2044983
  0
LINE
  8
0
  6
CONTINUOUS
 62
     7
 10
-2.5
 20
2.1955109
 11
-2.5
 21
0.1000061
  0
LINE
  8
0
  6
DASHED
 62
     7
 10
0
 20
3
 11
1.75
 21
3
  0
LINE
  8
0
  6
CONTINUOUS
 62
     7
 10
27.564423
 20
29.912964
 11
27.564423
 21
24.912964
  0
LINE
  8
0
  6
CONTINUOUS
 62
     7
 10
67.564423
 20
29.912964
 11
67.564423
 21
24.912964
  0
LINE
  8
0
  6
CONTINUOUS
 62
     7
 10
27.564423
 20
24.912964
 11
39.114426
 21
24.912964
  0
LINE
  8
0
  6
CENTER
 62
     7
 10
23.564301
 20
27.412964
 11
69.172363
 21
27.412964
  0
LINE
  8
0
  6
CONTINUOUS
 62
     7
 10
27.564423
 20
29.912964
 11
39.114426
 21
29.912964
  0
LINE
  8
0
  6
CONTINUOUS
 62
     7
 10
43.164429
 20
33.412964
 11
43.164429
 21
21.412964
  0
LINE
  8
0
  6
CONTINUOUS
 62
     7
 10
51.964417
 20
33.412964
 11
51.964417
 21
21.412964
  0
LINE
  8
0
  6
CONTINUOUS
 62
     7
 10
43.164429
 20
33.412964
 11
51.964417
 21
33.412964
  0
LINE
  8
0
  6
CONTINUOUS
 62
     7
 10
43.164429
 20
21.412964
 11
51.964417
 21
21.412964
  0
LINE
  8
0
  6
CENTER
 62
     7
 10
32.564423
 20
29.785233
 11
32.564423
 21
25.213898
  0
LINE
  8
0
  6
CENTER
 62
     7
 10
62.564423
 20
29.725082
 11
62.564423
 21
25.153748
  0
LINE
  8
0
  6
CENTER
 62
     7
 10
47.564423
 20
28.986351
 11
47.564423
 21
25.909346
  0
LINE
  8
0
  6
CONTINUOUS
 62
     7
 10
40.614426
 20
21.51297
 11
43.164429
 21
21.51297
  0
LINE
  8
0
  6
CONTINUOUS
 62
     7
 10
40.614426
 20
33.312958
 11
43.164429
 21
33.312958
  0
LINE
  8
0
  6
CONTINUOUS
 62
     7
 10
40.614426
 20
33.312958
 11
40.614426
 21
21.51297
  0
LINE
  8
0
  6
CONTINUOUS
 62
     7
 10
39.614426
 20
21.612961
 11
40.614426
 21
21.612961
  0
LINE
  8
0
  6
CONTINUOUS
 62
     7
 10
39.614426
 20
33.212967
 11
40.614426
 21
33.212967
  0
LINE
  8
0
  6
CONTINUOUS
 62
     7
 10
40.114426
 20
32.712967
 11
40.114426
 21
22.112961
  0
LINE
  8
0
  6
CONTINUOUS
 62
     7
 10
39.614426
 20
33.212967
 11
39.614426
 21
30.51297
  0
LINE
  8
0
  6
CONTINUOUS
 62
     7
 10
39.114426
 20
30.01297
 11
39.114426
 21
24.812958
  0
LINE
  8
0
  6
CONTINUOUS
 62
     7
 10
40.114426
 20
33.212967
 11
40.114426
 21
21.612961
  0
LINE
  8
0
  6
CONTINUOUS
 62
     7
 10
39.614426
 20
32.712967
 11
40.114426
 21
32.712967
  0
LINE
  8
0
  6
CONTINUOUS
 62
     7
 10
39.614426
 20
30.51297
 11
40.114426
 21
30.51297
  0
LINE
  8
0
  6
CONTINUOUS
 62
     7
 10
39.614426
 20
22.112961
 11
40.114426
 21
22.112961
  0
LINE
  8
0
  6
CONTINUOUS
 62
     7
 10
39.614426
 20
24.312958
 11
40.114426
 21
24.312958
  0
LINE
  8
0
  6
CONTINUOUS
 62
     7
 10
39.614426
 20
30.51297
 11
39.614426
 21
24.312958
  0
LINE
  8
0
  6
CONTINUOUS
 62
     7
 10
39.614426
 20
24.312958
 11
39.614426
 21
21.612961
  0
LINE
  8
0
  6
CONTINUOUS
 62
     7
 10
39.114426
 20
24.812958
 11
39.614426
 21
24.812958
  0
LINE
  8
0
  6
CONTINUOUS
 62
     7
 10
39.114426
 20
30.01297
 11
39.614426
 21
30.01297
  0
LINE
  8
0
  6
CONTINUOUS
 62
     7
 10
54.51442
 20
21.51297
 11
51.964417
 21
21.51297
  0
LINE
  8
0
  6
CONTINUOUS
 62
     7
 10
54.51442
 20
33.312958
 11
54.51442
 21
21.51297
  0
LINE
  8
0
  6
CONTINUOUS
 62
     7
 10
55.51442
 20
21.612961
 11
54.51442
 21
21.612961
  0
LINE
  8
0
  6
CONTINUOUS
 62
     7
 10
55.01442
 20
32.712967
 11
55.01442
 21
22.112961
  0
LINE
  8
0
  6
CONTINUOUS
 62
     7
 10
55.51442
 20
33.212967
 11
55.51442
 21
30.51297
  0
LINE
  8
0
  6
CONTINUOUS
 62
     7
 10
56.01442
 20
30.01297
 11
56.01442
 21
24.812958
  0
LINE
  8
0
  6
CONTINUOUS
 62
     7
 10
55.01442
 20
33.212967
 11
55.01442
 21
21.612961
  0
LINE
  8
0
  6
CONTINUOUS
 62
     7
 10
55.51442
 20
32.712967
 11
55.01442
 21
32.712967
  0
LINE
  8
0
  6
CONTINUOUS
 62
     7
 10
55.51442
 20
30.51297
 11
55.01442
 21
30.51297
  0
LINE
  8
0
  6
CONTINUOUS
 62
     7
 10
55.51442
 20
22.112961
 11
55.01442
 21
22.112961
  0
LINE
  8
0
  6
CONTINUOUS
 62
     7
 10
55.51442
 20
24.312958
 11
55.01442
 21
24.312958
  0
LINE
  8
0
  6
CONTINUOUS
 62
     7
 10
55.51442
 20
30.51297
 11
55.51442
 21
24.312958
  0
LINE
  8
0
  6
CONTINUOUS
 62
     7
 10
55.51442
 20
24.312958
 11
55.51442
 21
21.612961
  0
LINE
  8
0
  6
CONTINUOUS
 62
     7
 10
56.01442
 20
24.812958
 11
55.51442
 21
24.812958
  0
LINE
  8
0
  6
CONTINUOUS
 62
     7
 10
56.01442
 20
30.01297
 11
55.51442
 21
30.01297
  0
LINE
  8
0
  6
CONTINUOUS
 62
     7
 10
55.51442
 20
33.212967
 11
54.51442
 21
33.212967
  0
LINE
  8
0
  6
CONTINUOUS
 62
     7
 10
54.51442
 20
33.312958
 11
51.964417
 21
33.312958
  0
LINE
  8
0
  6
CONTINUOUS
 62
     7
 10
56.01442
 20
24.912964
 11
67.564423
 21
24.912964
  0
LINE
  8
0
  6
CONTINUOUS
 62
     7
 10
56.01442
 20
29.912964
 11
67.564423
 21
29.912964
  0
LINE
  8
0
  6
CENTER
 62
     7
 10
-4
 20
6.5406189
 11
-4
 21
2.6271362
  0
LINE
  8
0
  6
CONTINUOUS
 62
     7
 10
-5.8999939
 20
5.4000092
 11
-5.8999939
 21
2.1000061
  0
LINE
  8
0
  6
CONTINUOUS
 62
     7
 10
-2.8999939
 20
3.8000031
 11
-2.8999939
 21
1.6000061
  0
LINE
  8
0
  6
CONTINUOUS
 62
     7
 10
-6
 20
5.7000122
 11
-6
 21
1.8000031
  0
LINE
  8
0
  6
CONTINUOUS
 62
     7
 10
-5.6999822
 20
1.4999889
 11
-5.9999976
 21
1.8000044
  0
LINE
  8
0
  6
CONTINUOUS
 62
     7
 10
-5.6999817
 20
1.5
 11
-3
 21
1.5
  0
LINE
  8
0
  6
CONTINUOUS
 62
     7
 10
-5.3999829
 20
1.5999922
 11
-5.8999944
 21
2.1000035
  0
LINE
  8
0
  6
CONTINUOUS
 62
     7
 10
-2.5
 20
1.6000061
 11
-5.3999939
 21
1.6000061
  0
LINE
  8
0
  6
CONTINUOUS
 62
     7
 10
-3.0000014
 20
1.5000157
 11
-2.8999982
 21
1.6000191
  0
LINE
  8
0
  6
CONTINUOUS
 62
     7
 10
-5.6999893
 20
6.0000095
 11
-5.9999886
 21
5.7000103
  0
LINE
  8
0
  6
CONTINUOUS
 62
     7
 10
-5.3999953
 20
5.9000115
 11
-5.8999958
 21
5.4000111
  0
LINE
  8
0
  6
CONTINUOUS
 62
     7
 10
-5.1999817
 20
5.9000092
 11
-5.1999817
 21
4.7000122
  0
LINE
  8
0
  6
CONTINUOUS
 62
     7
 10
0
 20
4.4000092
 11
-2.2999878
 21
4.4000092
  0
LINE
  8
0
  6
CONTINUOUS
 62
     7
 10
-5.6999817
 20
6.0000153
 11
5.7000122
 21
6.0000153
  0
LINE
  8
0
  6
CENTER
 62
     7
 10
47.564423
 20
4.9362335
 11
47.564423
 21
-0.88247681
  0
LINE
  8
0
  6
CONTINUOUS
 62
     7
 10
40.614426
 20
5.9000092
 11
40.614426
 21
1.6000061
  0
LINE
  8
0
  6
CENTER
 62
     7
 10
46.299545
 20
23.412964
 11
48.823029
 21
23.412964
  0
LINE
  8
0
  6
CENTER
 62
     7
 10
46.345856
 20
31.412964
 11
48.892471
 21
31.412964
  0
LINE
  8
0
  6
CENTER
 62
     7
 10
47.564423
 20
32.714111
 11
47.564423
 21
30.098038
  0
LINE
  8
0
  6
CENTER
 62
     7
 10
47.564423
 20
24.726974
 11
47.564423
 21
22.134048
  0
LINE
  8
0
  6
CENTER
 62
     7
 10
62.564423
 20
4.4685516
 11
62.564423
 21
-0.70053101
  0
LINE
  8
0
  6
CENTER
 62
     7
 10
32.564423
 20
4.4860077
 11
32.564423
 21
-0.52978516
  0
LINE
  8
0
  6
CONTINUOUS
 62
     7
 10
27.564423
 20
4
 11
27.564423
 21
0
  0
LINE
  8
0
  6
CONTINUOUS
 62
     7
 10
67.564423
 20
4
 11
67.564423
 21
0
  0
LINE
  8
0
  6
DASHED
 62
     7
 10
30.814423
 20
3
 11
34.314423
 21
3
  0
LINE
  8
0
  6
CONTINUOUS
 62
     7
 10
3.2000122
 20
5.9000092
 11
3.2000122
 21
4.7000122
  0
LINE
  8
0
  6
CONTINUOUS
 62
     7
 10
-3.2000122
 20
5.9000092
 11
-3.2000122
 21
4.7000122
  0
LINE
  8
0
  6
CONTINUOUS
 62
     7
 10
-4.6949568
 20
4.2050376
 11
-3.7050071
 21
5.1949873
  0
LINE
  8
0
  6
CONTINUOUS
 62
     7
 10
-4.6949563
 20
5.1949868
 11
-3.7050068
 21
4.2050376
  0
CIRCLE
  8
0
  6
CONTINUOUS
 62
     7
 10
4.2000122
 20
4.7000122
 40
1
  0
ARC
  8
0
  6
CONTINUOUS
 62
     7
 10
2.3000183
 20
3.8000031
 40
0.60000002
 50
0
 51
90.000003
  0
ARC
  8
0
  6
CONTINUOUS
 62
     7
 10
53.164429
 20
4.7000122
 40
2.5
 50
345.52249
 51
14.47751
  0
ARC
  8
0
  6
CONTINUOUS
 62
     7
 10
55.100922
 20
5.2000122
 40
0.5
 50
14.47751
 51
34.20669
  0
ARC
  8
0
  6
CONTINUOUS
 62
     7
 10
55.100922
 20
4.2000122
 40
0.5
 50
325.79331
 51
345.5225
  0
ARC
  8
0
  6
CONTINUOUS
 62
     7
 10
2.6707153
 20
2.7707214
 40
0.60000002
 50
186.7681
 51
253.46997
  0
ARC
  8
0
  6
CONTINUOUS
 62
     7
 10
2.6707153
 20
2.629303
 40
0.60000002
 50
106.53003
 51
173.2319
  0
ARC
  8
0
  6
CONTINUOUS
 62
     7
 10
-2.6707001
 20
2.629303
 40
0.60000002
 50
6.7681015
 51
73.469975
  0
ARC
  8
0
  6
CONTINUOUS
 62
     7
 10
-2.6707001
 20
2.7707214
 40
0.60000002
 50
286.53003
 51
353.2319
  0
ARC
  8
0
  6
CONTINUOUS
 62
     7
 10
0
 20
5.2000122
 40
0.5
 50
270
 51
90.000003
  0
ARC
  8
0
  6
CONTINUOUS
 62
     7
 10
0
 20
5.2000122
 40
0.40000001
 50
270
 51
90.000003
  0
CIRCLE
  8
0
  6
CONTINUOUS
 62
     7
 10
32.564423
 20
27.412964
 40
1.75
  0
CIRCLE
  8
0
  6
CONTINUOUS
 62
     7
 10
32.564423
 20
27.412964
 40
1.2
  0
ARC
  8
0
  6
CONTINUOUS
 62
     7
 10
40.527939
 20
32.106995
 40
0.5
 50
145.79331
 51
165.52249
  0
ARC
  8
0
  6
CONTINUOUS
 62
     7
 10
40.527939
 20
31.106995
 40
0.5
 50
194.4775
 51
214.20669
  0
ARC
  8
0
  6
CONTINUOUS
 62
     7
 10
42.464417
 20
31.606995
 40
2.5
 50
165.52249
 51
194.47751
  0
ARC
  8
0
  6
CONTINUOUS
 62
     7
 10
41.964432
 20
4.7000122
 40
2.5
 50
165.52249
 51
194.47751
  0
ARC
  8
0
  6
CONTINUOUS
 62
     7
 10
40.027939
 20
4.2000122
 40
0.5
 50
194.4775
 51
214.20669
  0
ARC
  8
0
  6
CONTINUOUS
 62
     7
 10
40.027939
 20
5.2000122
 40
0.5
 50
145.79331
 51
165.52249
  0
ARC
  8
0
  6
CONTINUOUS
 62
     7
 10
42.464417
 20
23.208328
 40
2.5
 50
165.52249
 51
194.47751
  0
ARC
  8
0
  6
CONTINUOUS
 62
     7
 10
40.527939
 20
22.708328
 40
0.5
 50
194.4775
 51
214.20669
  0
ARC
  8
0
  6
CONTINUOUS
 62
     7
 10
40.527939
 20
23.708328
 40
0.5
 50
145.79331
 51
165.52249
  0
ARC
  8
0
  6
CONTINUOUS
 62
     7
 10
54.600922
 20
23.708328
 40
0.5
 50
14.47751
 51
34.20669
  0
ARC
  8
0
  6
CONTINUOUS
 62
     7
 10
54.600922
 20
22.708328
 40
0.5
 50
325.79331
 51
345.5225
  0
ARC
  8
0
  6
CONTINUOUS
 62
     7
 10
52.664429
 20
23.208328
 40
2.5
 50
345.52249
 51
14.47751
  0
ARC
  8
0
  6
CONTINUOUS
 62
     7
 10
54.600922
 20
32.106995
 40
0.5
 50
14.47751
 51
34.20669
  0
ARC
  8
0
  6
CONTINUOUS
 62
     7
 10
54.600922
 20
31.106995
 40
0.5
 50
325.79331
 51
345.5225
  0
ARC
  8
0
  6
CONTINUOUS
 62
     7
 10
52.664429
 20
31.606995
 40
2.5
 50
345.52249
 51
14.47751
  0
CIRCLE
  8
0
  6
CONTINUOUS
 62
     7
 10
-4.1999817
 20
4.7000122
 40
1
  0
ARC
  8
0
  6
CONTINUOUS
 62
     7
 10
0
 20
5.2000122
 40
0.5
 50
89.999996
 51
270
  0
ARC
  8
0
  6
CONTINUOUS
 62
     7
 10
0
 20
5.2000122
 40
0.40000001
 50
89.999996
 51
270
  0
ARC
  8
0
  6
CONTINUOUS
 62
     7
 10
-2.2999878
 20
3.8000031
 40
0.60000002
 50
89.999996
 51
180.00001
  0
CIRCLE
  8
0
  6
CONTINUOUS
 62
     7
 10
47.564423
 20
31.412964
 40
1
  0
CIRCLE
  8
0
  6
CONTINUOUS
 62
     7
 10
47.564423
 20
31.412964
 40
0.80000001
  0
TEXT
  8
0
  6
CONTINUOUS
 62
     7
 10
5.5443271
 20
-12.596166
 40
3.5999999
 41
1.0606061
  1
RSR5
  0
TEXT
  8
0
  6
CONTINUOUS
 62
     7
 10
11.668045
 20
-17.595993
 40
3.5999999
 41
1.0333334
  1
C =320N
  0
TEXT
  8
0
  6
CONTINUOUS
 62
     7
 10
11.779389
 20
-22.595607
 40
3.5999999
 41
1.0333334
  1
C0=590N
  0
ENDSEC
  0
EOF
