  0
SECTION
  2
HEADER
  0
ENDSEC
  0
SECTION
  2
TABLES
  0
TABLE
  2
LTYPE
 70
    22
  0
LTYPE
  2
CONTINUOUS
 70
    64
  3
Solid line
 72
    65
 73
     0
 40
0.000000
  0
LTYPE
  2
DASHED
 70
    64
  3
__ __ __ __ __ __ __ __ __ __ __ __ __ __ __
 72
    65
 73
     2
 40
3.500000
 49
2.000000
 49
-1.500000
  0
LTYPE
  2
CENTER
 70
    64
  3
____ _ ____ _ ____ _ ____ _ ____ _ ____ _ ____
 72
    65
 73
     4
 40
17.500000
 49
13.000000
 49
-1.500000
 49
1.500000
 49
-1.500000
  0
LTYPE
  2
PHANTOM
 70
    64
  3
_____ _ _ _____ _ _ _____ _ _ _____ _ _ ____  
 72
    65
 73
     6
 40
15.500000
 49
8.000000
 49
-1.500000
 49
1.500000
 49
-1.500000
 49
1.500000
 49
-1.500000
  0
LTYPE
  2
DOT
 70
    64
  3
. . . . . . . . . . . . . . . . . . . . . . . .
 72
    65
 73
     2
 40
0.25
 49
0.0
 49
-0.25
  0
ENDTAB
  0
TABLE
  2
LAYER
 70
     1
  0
LAYER
  2
0
 70
     0
 62
     7
  6
CONTINUOUS
  0
ENDTAB
  0
TABLE
  2
STYLE
 70
     1
  0
STYLE
  2
STANDARD
 70
     0
 40
0.000000
 41
1.000000
 50
0.000000
 71
     0
 42
0.200000
  3
txt
  0
ENDTAB
  0
TABLE
  2
VIEW
 70
     0
  0
ENDTAB
  0
ENDSEC
  0
SECTION
  2
BLOCKS
  0
ENDSEC
  0
SECTION
  2
ENTITIES
  0
LINE
  8
0
  6
CENTER
 62
     7
 10
47.56442260742188
 20
7.040618896484375
 11
47.56442260742188
 21
3.12713623046875
  0
LINE
  8
0
  6
DASHED
 62
     7
 10
-5
 20
6.000015258789063
 11
-5
 21
4.500015258789063
  0
LINE
  8
0
  6
DASHED
 62
     7
 10
-3
 20
6.000015258789063
 11
-3
 21
4.500015258789063
  0
LINE
  8
0
  6
DASHED
 62
     7
 10
-5
 20
4.500015258789063
 11
-3
 21
4.500015258789063
  0
LINE
  8
0
  6
DASHED
 62
     7
 10
-4.79998779296875
 20
4.000015258789063
 11
-3.199996948242188
 21
4.000015258789063
  0
LINE
  8
0
  6
DASHED
 62
     7
 10
-4.79998779296875
 20
6.000015258789063
 11
-4.79998779296875
 21
4.000015258789063
  0
LINE
  8
0
  6
DASHED
 62
     7
 10
-3.199996948242188
 20
6.000015258789063
 11
-3.199996948242188
 21
4.000015258789063
  0
LINE
  8
0
  6
DASHED
 62
     7
 10
-4.799992084503174
 20
4.000017642974854
 11
-3.999999523162842
 21
3.53814172744751
  0
LINE
  8
0
  6
DASHED
 62
     7
 10
-4.99999475479126
 20
4.500015735626221
 11
-4.799997806549072
 21
4.153610706329346
  0
LINE
  8
0
  6
DASHED
 62
     7
 10
-2.999999284744263
 20
4.500020503997803
 11
-3.199998140335083
 21
4.15361213684082
  0
LINE
  8
0
  6
DASHED
 62
     7
 10
-3.199997425079346
 20
4.000019550323486
 11
-3.999996662139893
 21
3.538140058517456
  0
LINE
  8
0
  6
CENTER
 62
     7
 10
4
 20
6.540618896484375
 11
4
 21
2.62713623046875
  0
LINE
  8
0
  6
CONTINUOUS
 62
     7
 10
-5.399997711181641
 20
5.900009155273438
 11
5.400009155273438
 21
5.900009155273438
  0
LINE
  8
0
  6
CONTINUOUS
 62
     7
 10
5.900009155273438
 20
5.400009155273438
 11
5.900009155273438
 21
2.100006103515625
  0
LINE
  8
0
  6
CONTINUOUS
 62
     7
 10
2.5
 20
1.600006103515625
 11
5.400009155273438
 21
1.600006103515625
  0
LINE
  8
0
  6
CONTINUOUS
 62
     7
 10
5.700016498565674
 20
5.999998569488525
 11
6.000010013580322
 21
5.700004577636719
  0
LINE
  8
0
  6
CONTINUOUS
 62
     7
 10
6
 20
5.70001220703125
 11
6
 21
1.800003051757813
  0
LINE
  8
0
  6
CONTINUOUS
 62
     7
 10
5.700014591217041
 20
1.49999463558197
 11
6.000019073486328
 21
1.799999237060547
  0
LINE
  8
0
  6
CONTINUOUS
 62
     7
 10
5.70001220703125
 20
1.5
 11
3
 21
1.5
  0
LINE
  8
0
  6
CONTINUOUS
 62
     7
 10
3.000017404556274
 20
1.499993681907654
 11
2.89999794960022
 21
1.600013256072998
  0
LINE
  8
0
  6
CONTINUOUS
 62
     7
 10
5.400017261505127
 20
5.89999532699585
 11
5.900006771087647
 21
5.400005340576172
  0
LINE
  8
0
  6
CONTINUOUS
 62
     7
 10
5.399999141693115
 20
1.600014090538025
 11
5.899999618530273
 21
2.100014686584473
  0
LINE
  8
0
  6
CONTINUOUS
 62
     7
 10
2.900009155273438
 20
3.800003051757813
 11
2.900009155273438
 21
1.600006103515625
  0
LINE
  8
0
  6
CONTINUOUS
 62
     7
 10
0
 20
4.400009155273438
 11
2.300018310546875
 21
4.400009155273438
  0
LINE
  8
0
  6
CONTINUOUS
 62
     7
 10
27.56442260742188
 20
2.195510864257813
 11
39.06442260742188
 21
2.195510864257813
  0
LINE
  8
0
  6
CONTINUOUS
 62
     7
 10
27.56442260742188
 20
3.204498291015625
 11
39.06442260742188
 21
3.204498291015625
  0
LINE
  8
0
  6
CONTINUOUS
 62
     7
 10
43.1644287109375
 20
1.5
 11
51.96441650390625
 21
1.5
  0
LINE
  8
0
  6
CONTINUOUS
 62
     7
 10
43.1644287109375
 20
6
 11
51.96441650390625
 21
6
  0
LINE
  8
0
  6
CONTINUOUS
 62
     7
 10
56.06442260742188
 20
4
 11
67.56442260742188
 21
4
  0
LINE
  8
0
  6
CONTINUOUS
 62
     7
 10
56.06442260742188
 20
3.204498291015625
 11
67.56442260742188
 21
3.204498291015625
  0
LINE
  8
0
  6
CONTINUOUS
 62
     7
 10
56.06442260742188
 20
2.195510864257813
 11
67.56442260742188
 21
2.195510864257813
  0
LINE
  8
0
  6
CONTINUOUS
 62
     7
 10
43.1644287109375
 20
6
 11
43.1644287109375
 21
1.5
  0
LINE
  8
0
  6
CONTINUOUS
 62
     7
 10
51.96441650390625
 20
6
 11
51.96441650390625
 21
1.5
  0
LINE
  8
0
  6
CONTINUOUS
 62
     7
 10
39.56442260742188
 20
5.900009155273438
 11
43.1644287109375
 21
5.900009155273438
  0
LINE
  8
0
  6
CONTINUOUS
 62
     7
 10
39.06442260742188
 20
1.600006103515625
 11
43.1644287109375
 21
1.600006103515625
  0
LINE
  8
0
  6
CONTINUOUS
 62
     7
 10
51.96441650390625
 20
5.900009155273438
 11
55.56442260742188
 21
5.900009155273438
  0
LINE
  8
0
  6
CONTINUOUS
 62
     7
 10
51.96441650390625
 20
1.600006103515625
 11
56.06442260742188
 21
1.600006103515625
  0
LINE
  8
0
  6
CENTER
 62
     7
 10
0
 20
6.502426147460938
 11
0
 21
-0.72442626953125
  0
LINE
  8
0
  6
CONTINUOUS
 62
     7
 10
5.20001220703125
 20
5.900009155273438
 11
5.20001220703125
 21
4.70001220703125
  0
LINE
  8
0
  6
CONTINUOUS
 62
     7
 10
39.56442260742188
 20
5.900009155273438
 11
39.56442260742188
 21
1.600006103515625
  0
LINE
  8
0
  6
CONTINUOUS
 62
     7
 10
39.06442260742188
 20
4.400009155273438
 11
39.06442260742188
 21
1.600006103515625
  0
LINE
  8
0
  6
CONTINUOUS
 62
     7
 10
39.06442260742188
 20
4.400009155273438
 11
39.43247985839844
 21
4.400009155273438
  0
LINE
  8
0
  6
CONTINUOUS
 62
     7
 10
56.06442260742188
 20
4.400009155273438
 11
55.69636535644531
 21
4.400009155273438
  0
LINE
  8
0
  6
CONTINUOUS
 62
     7
 10
55.56442260742188
 20
5.900009155273438
 11
55.56442260742188
 21
1.600006103515625
  0
LINE
  8
0
  6
CONTINUOUS
 62
     7
 10
54.56442260742188
 20
5.900009155273438
 11
54.56442260742188
 21
1.600006103515625
  0
LINE
  8
0
  6
CONTINUOUS
 62
     7
 10
56.06442260742188
 20
4.400009155273438
 11
56.06442260742188
 21
1.600006103515625
  0
LINE
  8
0
  6
CONTINUOUS
 62
     7
 10
27.56442260742188
 20
0
 11
67.56442260742188
 21
0
  0
LINE
  8
0
  6
CONTINUOUS
 62
     7
 10
27.56442260742188
 20
4
 11
39.06442260742188
 21
4
  0
LINE
  8
0
  6
DASHED
 62
     7
 10
34.31442260742188
 20
3.996688842773438
 11
34.31442260742188
 21
3
  0
LINE
  8
0
  6
DASHED
 62
     7
 10
33.76443481445313
 20
2.996688842773438
 11
33.76443481445313
 21
-0.0033111572265625
  0
LINE
  8
0
  6
DASHED
 62
     7
 10
31.36442565917969
 20
2.996688842773438
 11
31.36442565917969
 21
-0.0033111572265625
  0
LINE
  8
0
  6
DASHED
 62
     7
 10
30.81442260742188
 20
3.996688842773438
 11
30.81442260742188
 21
3
  0
LINE
  8
0
  6
CONTINUOUS
 62
     7
 10
-2.500000953674316
 20
0.1000120043754578
 11
-2.400002956390381
 21
1.4060188732401E-005
  0
LINE
  8
0
  6
CONTINUOUS
 62
     7
 10
-2.399993896484375
 20
0
 11
2.400009155273438
 21
0
  0
LINE
  8
0
  6
CONTINUOUS
 62
     7
 10
2.500011444091797
 20
0.1000062748789787
 11
2.400008201599121
 21
2.933420319095603E-006
  0
LINE
  8
0
  6
CONTINUOUS
 62
     7
 10
2.5
 20
2.195510864257813
 11
2.5
 21
0.100006103515625
  0
LINE
  8
0
  6
CONTINUOUS
 62
     7
 10
2.5
 20
3.900009155273438
 11
2.5
 21
3.204498291015625
  0
LINE
  8
0
  6
CONTINUOUS
 62
     7
 10
2.4000084400177
 20
4.000007629394531
 11
2.500006437301636
 21
3.900009393692017
  0
LINE
  8
0
  6
CONTINUOUS
 62
     7
 10
-2.399993896484375
 20
4
 11
2.400009155273438
 21
4
  0
LINE
  8
0
  6
DASHED
 62
     7
 10
1.75
 20
4
 11
1.75
 21
3
  0
LINE
  8
0
  6
DASHED
 62
     7
 10
-1.75
 20
3
 11
0
 21
3
  0
LINE
  8
0
  6
DASHED
 62
     7
 10
1.20001220703125
 20
3
 11
1.20001220703125
 21
0
  0
LINE
  8
0
  6
DASHED
 62
     7
 10
-1.199981689453125
 20
3
 11
-1.199981689453125
 21
0
  0
LINE
  8
0
  6
DASHED
 62
     7
 10
-1.75
 20
4
 11
-1.75
 21
3
  0
LINE
  8
0
  6
CONTINUOUS
 62
     7
 10
-2.499988555908203
 20
3.899998903274536
 11
-2.399985074996948
 21
4.000002384185791
  0
LINE
  8
0
  6
CONTINUOUS
 62
     7
 10
-2.5
 20
3.900009155273438
 11
-2.5
 21
3.204498291015625
  0
LINE
  8
0
  6
CONTINUOUS
 62
     7
 10
-2.5
 20
2.195510864257813
 11
-2.5
 21
0.100006103515625
  0
LINE
  8
0
  6
DASHED
 62
     7
 10
0
 20
3
 11
1.75
 21
3
  0
LINE
  8
0
  6
CONTINUOUS
 62
     7
 10
27.56442260742188
 20
29.9129638671875
 11
27.56442260742188
 21
24.9129638671875
  0
LINE
  8
0
  6
CONTINUOUS
 62
     7
 10
67.56442260742188
 20
29.9129638671875
 11
67.56442260742188
 21
24.9129638671875
  0
LINE
  8
0
  6
CONTINUOUS
 62
     7
 10
27.56442260742188
 20
24.9129638671875
 11
39.06442260742188
 21
24.9129638671875
  0
LINE
  8
0
  6
CENTER
 62
     7
 10
23.56430053710938
 20
27.4129638671875
 11
69.17236328125
 21
27.4129638671875
  0
LINE
  8
0
  6
CONTINUOUS
 62
     7
 10
27.56442260742188
 20
29.9129638671875
 11
39.06442260742188
 21
29.9129638671875
  0
LINE
  8
0
  6
CONTINUOUS
 62
     7
 10
43.1644287109375
 20
33.4129638671875
 11
43.1644287109375
 21
21.4129638671875
  0
LINE
  8
0
  6
CONTINUOUS
 62
     7
 10
51.96441650390625
 20
33.4129638671875
 11
51.96441650390625
 21
21.4129638671875
  0
LINE
  8
0
  6
CONTINUOUS
 62
     7
 10
43.1644287109375
 20
33.4129638671875
 11
51.96441650390625
 21
33.4129638671875
  0
LINE
  8
0
  6
CONTINUOUS
 62
     7
 10
43.1644287109375
 20
21.4129638671875
 11
51.96441650390625
 21
21.4129638671875
  0
LINE
  8
0
  6
CENTER
 62
     7
 10
32.56442260742188
 20
29.78523254394531
 11
32.56442260742188
 21
25.21389770507813
  0
LINE
  8
0
  6
CENTER
 62
     7
 10
62.56442260742188
 20
29.72508239746094
 11
62.56442260742188
 21
25.15374755859375
  0
LINE
  8
0
  6
CENTER
 62
     7
 10
47.56442260742188
 20
28.98635101318359
 11
47.56442260742188
 21
25.90934562683106
  0
LINE
  8
0
  6
CONTINUOUS
 62
     7
 10
40.56442260742188
 20
21.51296997070313
 11
43.1644287109375
 21
21.51296997070313
  0
LINE
  8
0
  6
CONTINUOUS
 62
     7
 10
40.56442260742188
 20
33.31295776367188
 11
43.1644287109375
 21
33.31295776367188
  0
LINE
  8
0
  6
CONTINUOUS
 62
     7
 10
40.56442260742188
 20
33.31295776367188
 11
40.56442260742188
 21
21.51296997070313
  0
LINE
  8
0
  6
CONTINUOUS
 62
     7
 10
39.56442260742188
 20
21.61296081542969
 11
40.56442260742188
 21
21.61296081542969
  0
LINE
  8
0
  6
CONTINUOUS
 62
     7
 10
39.56442260742188
 20
33.21296691894531
 11
40.56442260742188
 21
33.21296691894531
  0
LINE
  8
0
  6
CONTINUOUS
 62
     7
 10
40.06442260742188
 20
32.71296691894531
 11
40.06442260742188
 21
22.11296081542969
  0
LINE
  8
0
  6
CONTINUOUS
 62
     7
 10
39.56442260742188
 20
33.21296691894531
 11
39.56442260742188
 21
30.51296997070313
  0
LINE
  8
0
  6
CONTINUOUS
 62
     7
 10
39.06442260742188
 20
30.01296997070313
 11
39.06442260742188
 21
24.81295776367188
  0
LINE
  8
0
  6
CONTINUOUS
 62
     7
 10
40.06442260742188
 20
33.21296691894531
 11
40.06442260742188
 21
21.61296081542969
  0
LINE
  8
0
  6
CONTINUOUS
 62
     7
 10
39.56442260742188
 20
32.71296691894531
 11
40.06442260742188
 21
32.71296691894531
  0
LINE
  8
0
  6
CONTINUOUS
 62
     7
 10
39.56442260742188
 20
30.51296997070313
 11
40.06442260742188
 21
30.51296997070313
  0
LINE
  8
0
  6
CONTINUOUS
 62
     7
 10
39.56442260742188
 20
22.11296081542969
 11
40.06442260742188
 21
22.11296081542969
  0
LINE
  8
0
  6
CONTINUOUS
 62
     7
 10
39.56442260742188
 20
24.31295776367188
 11
40.06442260742188
 21
24.31295776367188
  0
LINE
  8
0
  6
CONTINUOUS
 62
     7
 10
39.56442260742188
 20
30.51296997070313
 11
39.56442260742188
 21
24.31295776367188
  0
LINE
  8
0
  6
CONTINUOUS
 62
     7
 10
39.56442260742188
 20
24.31295776367188
 11
39.56442260742188
 21
21.61296081542969
  0
LINE
  8
0
  6
CONTINUOUS
 62
     7
 10
39.06442260742188
 20
24.81295776367188
 11
39.56442260742188
 21
24.81295776367188
  0
LINE
  8
0
  6
CONTINUOUS
 62
     7
 10
39.06442260742188
 20
30.01296997070313
 11
39.56442260742188
 21
30.01296997070313
  0
LINE
  8
0
  6
CONTINUOUS
 62
     7
 10
54.56442260742188
 20
21.51296997070313
 11
51.96441650390625
 21
21.51296997070313
  0
LINE
  8
0
  6
CONTINUOUS
 62
     7
 10
54.56442260742188
 20
33.31295776367188
 11
54.56442260742188
 21
21.51296997070313
  0
LINE
  8
0
  6
CONTINUOUS
 62
     7
 10
55.56442260742188
 20
21.61296081542969
 11
54.56442260742188
 21
21.61296081542969
  0
LINE
  8
0
  6
CONTINUOUS
 62
     7
 10
55.06442260742188
 20
32.71296691894531
 11
55.06442260742188
 21
22.11296081542969
  0
LINE
  8
0
  6
CONTINUOUS
 62
     7
 10
55.56442260742188
 20
33.21296691894531
 11
55.56442260742188
 21
30.51296997070313
  0
LINE
  8
0
  6
CONTINUOUS
 62
     7
 10
56.06442260742188
 20
30.01296997070313
 11
56.06442260742188
 21
24.81295776367188
  0
LINE
  8
0
  6
CONTINUOUS
 62
     7
 10
55.06442260742188
 20
33.21296691894531
 11
55.06442260742188
 21
21.61296081542969
  0
LINE
  8
0
  6
CONTINUOUS
 62
     7
 10
55.56442260742188
 20
32.71296691894531
 11
55.06442260742188
 21
32.71296691894531
  0
LINE
  8
0
  6
CONTINUOUS
 62
     7
 10
55.56442260742188
 20
30.51296997070313
 11
55.06442260742188
 21
30.51296997070313
  0
LINE
  8
0
  6
CONTINUOUS
 62
     7
 10
55.56442260742188
 20
22.11296081542969
 11
55.06442260742188
 21
22.11296081542969
  0
LINE
  8
0
  6
CONTINUOUS
 62
     7
 10
55.56442260742188
 20
24.31295776367188
 11
55.06442260742188
 21
24.31295776367188
  0
LINE
  8
0
  6
CONTINUOUS
 62
     7
 10
55.56442260742188
 20
30.51296997070313
 11
55.56442260742188
 21
24.31295776367188
  0
LINE
  8
0
  6
CONTINUOUS
 62
     7
 10
55.56442260742188
 20
24.31295776367188
 11
55.56442260742188
 21
21.61296081542969
  0
LINE
  8
0
  6
CONTINUOUS
 62
     7
 10
56.06442260742188
 20
24.81295776367188
 11
55.56442260742188
 21
24.81295776367188
  0
LINE
  8
0
  6
CONTINUOUS
 62
     7
 10
56.06442260742188
 20
30.01296997070313
 11
55.56442260742188
 21
30.01296997070313
  0
LINE
  8
0
  6
CONTINUOUS
 62
     7
 10
55.56442260742188
 20
33.21296691894531
 11
54.56442260742188
 21
33.21296691894531
  0
LINE
  8
0
  6
CONTINUOUS
 62
     7
 10
54.56442260742188
 20
33.31295776367188
 11
51.96441650390625
 21
33.31295776367188
  0
LINE
  8
0
  6
CONTINUOUS
 62
     7
 10
56.06442260742188
 20
24.9129638671875
 11
67.56442260742188
 21
24.9129638671875
  0
LINE
  8
0
  6
CONTINUOUS
 62
     7
 10
56.06442260742188
 20
29.9129638671875
 11
67.56442260742188
 21
29.9129638671875
  0
LINE
  8
0
  6
CENTER
 62
     7
 10
-4
 20
6.540618896484375
 11
-4
 21
2.62713623046875
  0
LINE
  8
0
  6
CONTINUOUS
 62
     7
 10
-5.899993896484375
 20
5.400009155273438
 11
-5.899993896484375
 21
2.100006103515625
  0
LINE
  8
0
  6
CONTINUOUS
 62
     7
 10
-2.899993896484375
 20
3.800003051757813
 11
-2.899993896484375
 21
1.600006103515625
  0
LINE
  8
0
  6
CONTINUOUS
 62
     7
 10
-6
 20
5.70001220703125
 11
-6
 21
1.800003051757813
  0
LINE
  8
0
  6
CONTINUOUS
 62
     7
 10
-5.699982166290283
 20
1.499988913536072
 11
-5.999997615814209
 21
1.800004363059998
  0
LINE
  8
0
  6
CONTINUOUS
 62
     7
 10
-5.699981689453125
 20
1.5
 11
-3
 21
1.5
  0
LINE
  8
0
  6
CONTINUOUS
 62
     7
 10
-5.399982929229736
 20
1.599992156028748
 11
-5.899994373321533
 21
2.100003480911255
  0
LINE
  8
0
  6
CONTINUOUS
 62
     7
 10
-2.5
 20
1.600006103515625
 11
-5.399993896484375
 21
1.600006103515625
  0
LINE
  8
0
  6
CONTINUOUS
 62
     7
 10
-3.000001430511475
 20
1.500015735626221
 11
-2.899998188018799
 21
1.600019097328186
  0
LINE
  8
0
  6
CONTINUOUS
 62
     7
 10
-5.699989318847656
 20
6.000009536743164
 11
-5.999988555908203
 21
5.700010299682617
  0
LINE
  8
0
  6
CONTINUOUS
 62
     7
 10
-5.39999532699585
 20
5.900011539459229
 11
-5.899995803833008
 21
5.40001106262207
  0
LINE
  8
0
  6
CONTINUOUS
 62
     7
 10
-5.199981689453125
 20
5.900009155273438
 11
-5.199981689453125
 21
4.70001220703125
  0
LINE
  8
0
  6
CONTINUOUS
 62
     7
 10
0
 20
4.400009155273438
 11
-2.29998779296875
 21
4.400009155273438
  0
LINE
  8
0
  6
CONTINUOUS
 62
     7
 10
-5.699981689453125
 20
6.000015258789063
 11
5.70001220703125
 21
6.000015258789063
  0
LINE
  8
0
  6
CENTER
 62
     7
 10
47.56442260742188
 20
4.936233520507813
 11
47.56442260742188
 21
-0.882476806640625
  0
LINE
  8
0
  6
CONTINUOUS
 62
     7
 10
40.56442260742188
 20
5.900009155273438
 11
40.56442260742188
 21
1.600006103515625
  0
LINE
  8
0
  6
CENTER
 62
     7
 10
46.29954528808594
 20
23.4129638671875
 11
48.82302856445313
 21
23.4129638671875
  0
LINE
  8
0
  6
CENTER
 62
     7
 10
46.34585571289063
 20
31.4129638671875
 11
48.89247131347656
 21
31.4129638671875
  0
LINE
  8
0
  6
CENTER
 62
     7
 10
47.56442260742188
 20
32.714111328125
 11
47.56442260742188
 21
30.09803771972656
  0
LINE
  8
0
  6
CENTER
 62
     7
 10
47.56442260742188
 20
24.72697448730469
 11
47.56442260742188
 21
22.13404846191406
  0
LINE
  8
0
  6
CENTER
 62
     7
 10
62.56442260742188
 20
4.468551635742188
 11
62.56442260742188
 21
-0.700531005859375
  0
LINE
  8
0
  6
CENTER
 62
     7
 10
32.56442260742188
 20
4.486007690429688
 11
32.56442260742188
 21
-0.52978515625
  0
LINE
  8
0
  6
CONTINUOUS
 62
     7
 10
27.56442260742188
 20
4
 11
27.56442260742188
 21
0
  0
LINE
  8
0
  6
CONTINUOUS
 62
     7
 10
67.56442260742188
 20
4
 11
67.56442260742188
 21
0
  0
LINE
  8
0
  6
DASHED
 62
     7
 10
30.81442260742188
 20
3
 11
34.31442260742188
 21
3
  0
LINE
  8
0
  6
CONTINUOUS
 62
     7
 10
3.20001220703125
 20
5.900009155273438
 11
3.20001220703125
 21
4.70001220703125
  0
LINE
  8
0
  6
CONTINUOUS
 62
     7
 10
-3.20001220703125
 20
5.900009155273438
 11
-3.20001220703125
 21
4.70001220703125
  0
LINE
  8
0
  6
CONTINUOUS
 62
     7
 10
-4.694956779479981
 20
4.205037593841553
 11
-3.705007076263428
 21
5.194987297058106
  0
LINE
  8
0
  6
CONTINUOUS
 62
     7
 10
-4.694956302642822
 20
5.194986820220947
 11
-3.705006837844849
 21
4.205037593841553
  0
LINE
  8
0
  6
CENTER
 62
     7
 10
-1.5
 20
5.20001220703125
 11
1.5
 21
5.20001220703125
  0
LINE
  8
0
  6
DASHED
 62
     7
 10
48.36442565917969
 20
4.000004768371582
 11
47.56442642211914
 21
3.538124799728394
  0
LINE
  8
0
  6
DASHED
 62
     7
 10
48.56442260742188
 20
4.50000524520874
 11
48.36442565917969
 21
4.153596878051758
  0
LINE
  8
0
  6
DASHED
 62
     7
 10
46.56442642211914
 20
4.500000476837158
 11
46.76442337036133
 21
4.153595447540283
  0
LINE
  8
0
  6
DASHED
 62
     7
 10
46.76443099975586
 20
4.000002384185791
 11
47.56442260742188
 21
3.538126230239868
  0
LINE
  8
0
  6
DASHED
 62
     7
 10
46.76443481445313
 20
6
 11
46.76443481445313
 21
4
  0
LINE
  8
0
  6
DASHED
 62
     7
 10
46.56442260742188
 20
4.5
 11
48.56442260742188
 21
4.5
  0
LINE
  8
0
  6
DASHED
 62
     7
 10
48.56442260742188
 20
6
 11
48.56442260742188
 21
4.5
  0
LINE
  8
0
  6
DASHED
 62
     7
 10
46.76443481445313
 20
4
 11
48.36442565917969
 21
4
  0
LINE
  8
0
  6
DASHED
 62
     7
 10
48.36442565917969
 20
6
 11
48.36442565917969
 21
4
  0
LINE
  8
0
  6
DASHED
 62
     7
 10
46.56442260742188
 20
6
 11
46.56442260742188
 21
4.5
  0
CIRCLE
  8
0
  6
CONTINUOUS
 62
     7
 10
4.20001220703125
 20
4.70001220703125
 40
1
  0
ARC
  8
0
  6
CONTINUOUS
 62
     7
 10
2.300018310546875
 20
3.800003051757813
 40
0.6000000238418579
 50
0
 51
90.00000250447815
  0
ARC
  8
0
  6
CONTINUOUS
 62
     7
 10
53.21443176269531
 20
4.70001220703125
 40
2.499999999999997
 50
345.5224936861673
 51
14.47750972892725
  0
ARC
  8
0
  6
CONTINUOUS
 62
     7
 10
55.15092468261719
 20
5.20001220703125
 40
0.5000000000000028
 50
14.47750972892715
 51
34.20669043897493
  0
ARC
  8
0
  6
CONTINUOUS
 62
     7
 10
55.15092468261719
 20
4.20001220703125
 40
0.4999999999999981
 50
325.793309561025
 51
345.5224971012619
  0
ARC
  8
0
  6
CONTINUOUS
 62
     7
 10
2.67071533203125
 20
2.770721435546875
 40
0.6000000238418577
 50
186.768097741501
 51
253.4699698172288
  0
ARC
  8
0
  6
CONTINUOUS
 62
     7
 10
2.67071533203125
 20
2.629302978515625
 40
0.6000000238418578
 50
106.5300301827712
 51
173.231902258499
  0
ARC
  8
0
  6
CONTINUOUS
 62
     7
 10
-2.670700073242188
 20
2.629302978515625
 40
0.6000000238418577
 50
6.768101469796886
 51
73.46997482618517
  0
ARC
  8
0
  6
CONTINUOUS
 62
     7
 10
-2.670700073242188
 20
2.770721435546875
 40
0.6000000238418579
 50
286.5300251738149
 51
353.2318985302031
  0
ARC
  8
0
  6
CONTINUOUS
 62
     7
 10
0
 20
5.20001220703125
 40
0.4999999999999996
 50
269.9999974955218
 51
90.00000250447815
  0
ARC
  8
0
  6
CONTINUOUS
 62
     7
 10
0
 20
5.20001220703125
 40
0.4000000059604649
 50
269.9999974955218
 51
90.00000250447815
  0
CIRCLE
  8
0
  6
CONTINUOUS
 62
     7
 10
32.56442260742188
 20
27.4129638671875
 40
1.75
  0
CIRCLE
  8
0
  6
CONTINUOUS
 62
     7
 10
32.56442260742188
 20
27.4129638671875
 40
1.200000047683716
  0
ARC
  8
0
  6
CONTINUOUS
 62
     7
 10
40.47793579101563
 20
32.10699462890625
 40
0.5000000000000027
 50
145.7933111548867
 51
165.522490157387
  0
ARC
  8
0
  6
CONTINUOUS
 62
     7
 10
40.47793579101563
 20
31.10699462890625
 40
0.500000000000001
 50
194.4774961822343
 51
214.206688845113
  0
ARC
  8
0
  6
CONTINUOUS
 62
     7
 10
42.41441345214844
 20
31.60699462890625
 40
2.499999999999999
 50
165.5224901573873
 51
194.4775062001471
  0
ARC
  8
0
  6
CONTINUOUS
 62
     7
 10
41.9144287109375
 20
4.70001220703125
 40
2.5
 50
165.5224901573872
 51
194.4775062001472
  0
ARC
  8
0
  6
CONTINUOUS
 62
     7
 10
39.97793579101563
 20
4.20001220703125
 40
0.5000000000000012
 50
194.4774961822344
 51
214.206688845113
  0
ARC
  8
0
  6
CONTINUOUS
 62
     7
 10
39.97793579101563
 20
5.20001220703125
 40
0.5000000000000007
 50
145.793311154887
 51
165.5224901573871
  0
ARC
  8
0
  6
CONTINUOUS
 62
     7
 10
42.41441345214844
 20
23.20832824707031
 40
2.5
 50
165.5224901573872
 51
194.4775062001471
  0
ARC
  8
0
  6
CONTINUOUS
 62
     7
 10
40.47793579101563
 20
22.70832824707031
 40
0.500000000000001
 50
194.4774961822343
 51
214.206688845113
  0
ARC
  8
0
  6
CONTINUOUS
 62
     7
 10
40.47793579101563
 20
23.70832824707031
 40
0.5000000000000007
 50
145.793311154887
 51
165.522490157387
  0
ARC
  8
0
  6
CONTINUOUS
 62
     7
 10
54.65092468261719
 20
23.70832824707031
 40
0.5000000000000032
 50
14.47750972892735
 51
34.20669043897511
  0
ARC
  8
0
  6
CONTINUOUS
 62
     7
 10
54.65092468261719
 20
22.70832824707031
 40
0.4999999999999988
 50
325.7933095610249
 51
345.5224971012618
  0
ARC
  8
0
  6
CONTINUOUS
 62
     7
 10
52.71443176269531
 20
23.20832824707031
 40
2.499999999999997
 50
345.5224936861673
 51
14.47750972892727
  0
ARC
  8
0
  6
CONTINUOUS
 62
     7
 10
54.65092468261719
 20
32.10699462890625
 40
0.5000000000000032
 50
14.47750972892735
 51
34.20669043897511
  0
ARC
  8
0
  6
CONTINUOUS
 62
     7
 10
54.65092468261719
 20
31.10699462890625
 40
0.4999999999999988
 50
325.7933095610249
 51
345.5224971012618
  0
ARC
  8
0
  6
CONTINUOUS
 62
     7
 10
52.71443176269531
 20
31.60699462890625
 40
2.499999999999997
 50
345.5224936861673
 51
14.47750972892727
  0
CIRCLE
  8
0
  6
CONTINUOUS
 62
     7
 10
-4.199981689453125
 20
4.70001220703125
 40
1
  0
ARC
  8
0
  6
CONTINUOUS
 62
     7
 10
0
 20
5.20001220703125
 40
0.4999999999999996
 50
89.999995674289
 51
270.0000006832453
  0
ARC
  8
0
  6
CONTINUOUS
 62
     7
 10
0
 20
5.20001220703125
 40
0.4000000059604647
 50
89.999995674289
 51
270.0000006832453
  0
ARC
  8
0
  6
CONTINUOUS
 62
     7
 10
-2.29998779296875
 20
3.800003051757813
 40
0.6000000238418579
 50
89.99999567428898
 51
180.0000050089564
  0
CIRCLE
  8
0
  6
CONTINUOUS
 62
     7
 10
47.56442260742188
 20
31.4129638671875
 40
1
  0
CIRCLE
  8
0
  6
CONTINUOUS
 62
     7
 10
47.56442260742188
 20
31.4129638671875
 40
0.800000011920929
  0
TEXT
  8
0
  6
CONTINUOUS
 62
     7
 10
-1.600000023841858
 20
-21.79999995231628
 40
3.599999904632568
 41
1.04761911226959
  1
RSR5M
  0
ENDSEC
  0
EOF
